  0
SECTION
  2
HEADER
  9
$ACADVER
  1
AC1015
  9
$ACADMAINTVER
 70
    20
  9
$DWGCODEPAGE
  3
ANSI_1252
  9
$INSBASE
 10
0.0
 20
0.0
 30
0.0
  9
$EXTMIN
 10
21658.22237299
 20
-30503.33710321
 30
0.0
  9
$EXTMAX
 10
23013.22237299
 20
-29466.35839434
 30
2500.0
  9
$LIMMIN
 10
0.0
 20
-30503.33710321
  9
$LIMMAX
 10
40482.10322407999
 20
2029.46711203
  9
$ORTHOMODE
 70
     0
  9
$REGENMODE
 70
     1
  9
$FILLMODE
 70
     1
  9
$QTEXTMODE
 70
     0
  9
$MIRRTEXT
 70
     1
  9
$LTSCALE
 40
5.0
  9
$ATTMODE
 70
     1
  9
$TEXTSIZE
 40
3.5
  9
$TRACEWID
 40
1.0
  9
$TEXTSTYLE
  7
STANDARD
  9
$CLAYER
  8
0
  9
$CELTYPE
  6
BYLAYER
  9
$CECOLOR
 62
   256
  9
$CELTSCALE
 40
1.0
  9
$DISPSILH
 70
     0
  9
$DIMSCALE
 40
1.0
  9
$DIMASZ
 40
2.0
  9
$DIMEXO
 40
5.0
  9
$DIMDLI
 40
10.0
  9
$DIMRND
 40
0.0
  9
$DIMDLE
 40
2.0
  9
$DIMEXE
 40
2.0
  9
$DIMTP
 40
0.0
  9
$DIMTM
 40
0.0
  9
$DIMTXT
 40
2.5
  9
$DIMCEN
 40
1.5
  9
$DIMTSZ
 40
0.0
  9
$DIMTOL
 70
     0
  9
$DIMLIM
 70
     0
  9
$DIMTIH
 70
     1
  9
$DIMTOH
 70
     0
  9
$DIMSE1
 70
     0
  9
$DIMSE2
 70
     0
  9
$DIMTAD
 70
     1
  9
$DIMZIN
 70
     8
  9
$DIMBLK
  1

  9
$DIMASO
 70
     1
  9
$DIMSHO
 70
     1
  9
$DIMPOST
  1

  9
$DIMAPOST
  1

  9
$DIMALT
 70
     0
  9
$DIMALTD
 70
     2
  9
$DIMALTF
 40
25.4
  9
$DIMLFAC
 40
1.0
  9
$DIMTOFL
 70
     0
  9
$DIMTVP
 40
0.0
  9
$DIMTIX
 70
     0
  9
$DIMSOXD
 70
     0
  9
$DIMSAH
 70
     0
  9
$DIMBLK1
  1

  9
$DIMBLK2
  1

  9
$DIMSTYLE
  2
Standard
  9
$DIMCLRD
 70
   190
  9
$DIMCLRE
 70
   190
  9
$DIMCLRT
 70
   190
  9
$DIMTFAC
 40
1.0
  9
$DIMGAP
 40
0.09
  9
$DIMJUST
 70
     0
  9
$DIMSD1
 70
     0
  9
$DIMSD2
 70
     0
  9
$DIMTOLJ
 70
     1
  9
$DIMTZIN
 70
     0
  9
$DIMALTZ
 70
     0
  9
$DIMALTTZ
 70
     0
  9
$DIMUPT
 70
     0
  9
$DIMDEC
 70
     4
  9
$DIMTDEC
 70
     4
  9
$DIMALTU
 70
     2
  9
$DIMALTTD
 70
     2
  9
$DIMTXSTY
  7
STANDARD
  9
$DIMAUNIT
 70
     0
  9
$DIMADEC
 70
     0
  9
$DIMALTRND
 40
0.0
  9
$DIMAZIN
 70
     0
  9
$DIMDSEP
 70
    46
  9
$DIMATFIT
 70
     3
  9
$DIMFRAC
 70
     0
  9
$DIMLDRBLK
  1

  9
$DIMLUNIT
 70
     2
  9
$DIMLWD
 70
    -2
  9
$DIMLWE
 70
    -2
  9
$DIMTMOVE
 70
     0
  9
$LUNITS
 70
     2
  9
$LUPREC
 70
     6
  9
$SKETCHINC
 40
0.1
  9
$FILLETRAD
 40
0.0
  9
$AUNITS
 70
     0
  9
$AUPREC
 70
     0
  9
$MENU
  1
ACAD
  9
$ELEVATION
 40
0.0
  9
$PELEVATION
 40
0.0
  9
$THICKNESS
 40
0.0
  9
$LIMCHECK
 70
     0
  9
$CHAMFERA
 40
0.0
  9
$CHAMFERB
 40
0.0
  9
$CHAMFERC
 40
0.0
  9
$CHAMFERD
 40
0.0
  9
$SKPOLY
 70
     1
  9
$TDCREATE
 40
2456467.000000000
  9
$TDUCREATE
 40
2456466.916666667
  9
$TDUPDATE
 40
2456468.487431898
  9
$TDUUPDATE
 40
2456468.404098565
  9
$TDINDWG
 40
0.0003027083
  9
$TDUSRTIMER
 40
0.0003025347
  9
$USRTIMER
 70
     1
  9
$ANGBASE
 50
0.0
  9
$ANGDIR
 70
     0
  9
$PDMODE
 70
     0
  9
$PDSIZE
 40
0.0
  9
$PLINEWID
 40
0.0
  9
$SPLFRAME
 70
     0
  9
$SPLINETYPE
 70
     6
  9
$SPLINESEGS
 70
     8
  9
$HANDSEED
  5
2DE
  9
$SURFTAB1
 70
     6
  9
$SURFTAB2
 70
     6
  9
$SURFTYPE
 70
     6
  9
$SURFU
 70
     6
  9
$SURFV
 70
     6
  9
$UCSBASE
  2

  9
$UCSNAME
  2

  9
$UCSORG
 10
0.0
 20
0.0
 30
0.0
  9
$UCSXDIR
 10
1.0
 20
0.0
 30
0.0
  9
$UCSYDIR
 10
0.0
 20
1.0
 30
0.0
  9
$UCSORTHOREF
  2

  9
$UCSORTHOVIEW
 70
     0
  9
$UCSORGTOP
 10
0.0
 20
0.0
 30
0.0
  9
$UCSORGBOTTOM
 10
0.0
 20
0.0
 30
0.0
  9
$UCSORGLEFT
 10
0.0
 20
0.0
 30
0.0
  9
$UCSORGRIGHT
 10
0.0
 20
0.0
 30
0.0
  9
$UCSORGFRONT
 10
0.0
 20
0.0
 30
0.0
  9
$UCSORGBACK
 10
0.0
 20
0.0
 30
0.0
  9
$PUCSBASE
  2

  9
$PUCSNAME
  2

  9
$PUCSORG
 10
0.0
 20
0.0
 30
0.0
  9
$PUCSXDIR
 10
1.0
 20
0.0
 30
0.0
  9
$PUCSYDIR
 10
0.0
 20
1.0
 30
0.0
  9
$PUCSORTHOREF
  2

  9
$PUCSORTHOVIEW
 70
     0
  9
$PUCSORGTOP
 10
0.0
 20
0.0
 30
0.0
  9
$PUCSORGBOTTOM
 10
0.0
 20
0.0
 30
0.0
  9
$PUCSORGLEFT
 10
0.0
 20
0.0
 30
0.0
  9
$PUCSORGRIGHT
 10
0.0
 20
0.0
 30
0.0
  9
$PUCSORGFRONT
 10
0.0
 20
0.0
 30
0.0
  9
$PUCSORGBACK
 10
0.0
 20
0.0
 30
0.0
  9
$USERI1
 70
     0
  9
$USERI2
 70
     0
  9
$USERI3
 70
     0
  9
$USERI4
 70
     0
  9
$USERI5
 70
     0
  9
$USERR1
 40
0.0
  9
$USERR2
 40
0.0
  9
$USERR3
 40
0.0
  9
$USERR4
 40
0.0
  9
$USERR5
 40
0.0
  9
$WORLDVIEW
 70
     1
  9
$SHADEDGE
 70
     3
  9
$SHADEDIF
 70
    70
  9
$TILEMODE
 70
     1
  9
$MAXACTVP
 70
    16
  9
$PINSBASE
 10
0.0
 20
0.0
 30
0.0
  9
$PLIMCHECK
 70
     0
  9
$PEXTMIN
 10
1.000000000000000E+20
 20
1.000000000000000E+20
 30
1.000000000000000E+20
  9
$PEXTMAX
 10
-1.000000000000000E+20
 20
-1.000000000000000E+20
 30
-1.000000000000000E+20
  9
$PLIMMIN
 10
0.0
 20
0.0
  9
$PLIMMAX
 10
12.0
 20
9.0
  9
$UNITMODE
 70
     0
  9
$VISRETAIN
 70
     0
  9
$PLINEGEN
 70
     0
  9
$PSLTSCALE
 70
     1
  9
$TREEDEPTH
 70
  3020
  9
$CMLSTYLE
  2
STANDARD
  9
$CMLJUST
 70
     0
  9
$CMLSCALE
 40
1.0
  9
$PROXYGRAPHICS
 70
     1
  9
$MEASUREMENT
 70
     1
  9
$CELWEIGHT
370
    -1
  9
$ENDCAPS
280
     0
  9
$JOINSTYLE
280
     0
  9
$LWDISPLAY
290
     0
  9
$INSUNITS
 70
     0
  9
$HYPERLINKBASE
  1

  9
$STYLESHEET
  1

  9
$XEDIT
290
     1
  9
$CEPSNTYPE
380
     0
  9
$PSTYLEMODE
290
     1
  9
$FINGERPRINTGUID
  2
{5AF8B5F2-AFD8-4B75-B1AE-7539E666DACF}
  9
$VERSIONGUID
  2
{F5C524E8-F75A-43AF-8295-18DE0759176C}
  9
$EXTNAMES
290
     1
  9
$PSVPSCALE
 40
0.0
  9
$OLESTARTUP
290
     0
  0
ENDSEC
  0
SECTION
  2
CLASSES
  0
CLASS
  1
ACDBDICTIONARYWDFLT
  2
AcDbDictionaryWithDefault
  3
ObjectDBX Classes
 90
        0
280
     0
281
     0
  0
CLASS
  1
MATERIAL
  2
AcDbMaterial
  3
ObjectDBX Classes
 90
     1153
280
     0
281
     0
  0
CLASS
  1
VISUALSTYLE
  2
AcDbVisualStyle
  3
ObjectDBX Classes
 90
     4095
280
     0
281
     0
  0
CLASS
  1
TABLESTYLE
  2
AcDbTableStyle
  3
ObjectDBX Classes
 90
     4095
280
     0
281
     0
  0
CLASS
  1
SCALE
  2
AcDbScale
  3
ObjectDBX Classes
 90
     1153
280
     0
281
     0
  0
CLASS
  1
MLEADERSTYLE
  2
AcDbMLeaderStyle
  3
ACDB_MLEADERSTYLE_CLASS
 90
     4095
280
     0
281
     0
  0
CLASS
  1
DICTIONARYVAR
  2
AcDbDictionaryVar
  3
ObjectDBX Classes
 90
        0
280
     0
281
     0
  0
CLASS
  1
CELLSTYLEMAP
  2
AcDbCellStyleMap
  3
ObjectDBX Classes
 90
     1152
280
     0
281
     0
  0
CLASS
  1
ACDBPLACEHOLDER
  2
AcDbPlaceHolder
  3
ObjectDBX Classes
 90
        0
280
     0
281
     0
  0
CLASS
  1
LAYOUT
  2
AcDbLayout
  3
ObjectDBX Classes
 90
        0
280
     0
281
     0
  0
ENDSEC
  0
SECTION
  2
TABLES
  0
TABLE
  2
VPORT
  5
29
330
0
100
AcDbSymbolTable
 70
     1
  0
VPORT
  5
259
330
29
100
AcDbSymbolTableRecord
100
AcDbViewportTableRecord
  2
*Active
 70
     0
 10
0.0
 20
0.0
 11
1.0
 21
1.0
 12
22335.72237299
 22
-29984.847748775
 13
0.0
 23
0.0
 14
1.0
 24
1.0
 15
0.0
 25
0.0
 16
0.0
 26
0.0
 36
1.0
 17
0.0
 27
0.0
 37
0.0
 40
1044.924905872834
 41
2.015345268542199
 42
50.0
 43
0.0
 44
0.0
 50
0.0
 51
0.0
 71
     0
 72
  1000
 73
     1
 74
     3
 75
     0
 76
     0
 77
     0
 78
     0
281
     0
 65
     1
110
0.0
120
0.0
130
0.0
111
1.0
121
0.0
131
0.0
112
0.0
122
1.0
132
0.0
 79
     0
146
0.0
  0
ENDTAB
  0
TABLE
  2
LTYPE
  5
2F
330
0
100
AcDbSymbolTable
 70
    11
  0
LTYPE
  5
30
330
2F
100
AcDbSymbolTableRecord
100
AcDbLinetypeTableRecord
  2
BYBLOCK
 70
     0
  3

 72
    65
 73
     0
 40
0.0
  0
LTYPE
  5
31
330
2F
100
AcDbSymbolTableRecord
100
AcDbLinetypeTableRecord
  2
BYLAYER
 70
     0
  3

 72
    65
 73
     0
 40
0.0
  0
LTYPE
  5
32
330
2F
100
AcDbSymbolTableRecord
100
AcDbLinetypeTableRecord
  2
CONTINUOUS
 70
     0
  3
Solid line
 72
    65
 73
     0
 40
0.0
  0
LTYPE
  5
33
330
2F
100
AcDbSymbolTableRecord
100
AcDbLinetypeTableRecord
  2
DOT
 70
     0
  3
. . . . . . . . . . . . . . . . . . . . . . . .
 72
    65
 73
     2
 40
2.5
 49
0.0
 74
     0
 49
-2.5
 74
     0
  0
LTYPE
  5
34
330
2F
100
AcDbSymbolTableRecord
100
AcDbLinetypeTableRecord
  2
HIDDEN
 70
     0
  3
__ __ __ __ __ __ __ __ __ __ __ __ __ __ __ __
 72
    65
 73
     2
 40
1.875
 49
1.25
 74
     0
 49
-0.625
 74
     0
  0
LTYPE
  5
35
330
2F
100
AcDbSymbolTableRecord
100
AcDbLinetypeTableRecord
  2
DASHEDX2
 70
     0
  3
____  ____  ____  ____  ____  ____  ____  ____
 72
    65
 73
     2
 40
3.75
 49
2.5
 74
     0
 49
-1.25
 74
     0
  0
LTYPE
  5
36
330
2F
100
AcDbSymbolTableRecord
100
AcDbLinetypeTableRecord
  2
CADWORK_22
 70
     0
  3
22 =======================================
 72
    65
 73
     0
 40
0.0
  0
LTYPE
  5
37
330
2F
100
AcDbSymbolTableRecord
100
AcDbLinetypeTableRecord
  2
DAL
 70
     0
  3
Solid line (for MAPS)
 72
    65
 73
     0
 40
0.0
  0
LTYPE
  5
38
330
2F
100
AcDbSymbolTableRecord
100
AcDbLinetypeTableRecord
  2
MUR
 70
     0
  3
Solid line (for MAPS)
 72
    65
 73
     0
 40
0.0
  0
LTYPE
  5
39
330
2F
100
AcDbSymbolTableRecord
100
AcDbLinetypeTableRecord
  2
SOM
 70
     0
  3
Solid line (for MAPS)
 72
    65
 73
     0
 40
0.0
  0
LTYPE
  5
3A
330
2F
100
AcDbSymbolTableRecord
100
AcDbLinetypeTableRecord
  2
COL
 70
     0
  3
Solid line (for MAPS)
 72
    65
 73
     0
 40
0.0
  0
LTYPE
  5
3B
330
2F
100
AcDbSymbolTableRecord
100
AcDbLinetypeTableRecord
  2
LGN
 70
     0
  3
Solid line (for MAPS)
 72
    65
 73
     0
 40
0.0
  0
LTYPE
  5
3C
330
2F
100
AcDbSymbolTableRecord
100
AcDbLinetypeTableRecord
  2
PNT
 70
     0
  3
Solid line (for MAPS)
 72
    65
 73
     0
 40
0.0
  0
ENDTAB
  0
TABLE
  2
LAYER
  5
3D
330
0
100
AcDbSymbolTable
 70
    32
  0
LAYER
  5
3E
102
{ACAD_XDICTIONARY
360
25D
102
}
330
3D
100
AcDbSymbolTableRecord
100
AcDbLayerTableRecord
  2
STANDARD
 70
     0
 62
     7
  6
CONTINUOUS
370
    -3
390
208
  0
LAYER
  5
3F
102
{ACAD_XDICTIONARY
360
25F
102
}
330
3D
100
AcDbSymbolTableRecord
100
AcDbLayerTableRecord
  2
Ech.1_1
 70
     0
 62
     7
  6
CONTINUOUS
370
    -3
390
208
  0
LAYER
  5
40
102
{ACAD_XDICTIONARY
360
261
102
}
330
3D
100
AcDbSymbolTableRecord
100
AcDbLayerTableRecord
  2
Ech.1_2
 70
     0
 62
     7
  6
CONTINUOUS
370
    -3
390
208
  0
LAYER
  5
41
102
{ACAD_XDICTIONARY
360
263
102
}
330
3D
100
AcDbSymbolTableRecord
100
AcDbLayerTableRecord
  2
Ech.1_5
 70
     0
 62
     7
  6
CONTINUOUS
370
    -3
390
208
  0
LAYER
  5
42
102
{ACAD_XDICTIONARY
360
265
102
}
330
3D
100
AcDbSymbolTableRecord
100
AcDbLayerTableRecord
  2
Ech.1_10
 70
     0
 62
     7
  6
CONTINUOUS
370
    -3
390
208
  0
LAYER
  5
43
102
{ACAD_XDICTIONARY
360
267
102
}
330
3D
100
AcDbSymbolTableRecord
100
AcDbLayerTableRecord
  2
Ech.1_20
 70
     0
 62
     7
  6
CONTINUOUS
370
    -3
390
208
  0
LAYER
  5
44
102
{ACAD_XDICTIONARY
360
269
102
}
330
3D
100
AcDbSymbolTableRecord
100
AcDbLayerTableRecord
  2
Ech.1_25
 70
     0
 62
     7
  6
CONTINUOUS
370
    -3
390
208
  0
LAYER
  5
45
102
{ACAD_XDICTIONARY
360
26B
102
}
330
3D
100
AcDbSymbolTableRecord
100
AcDbLayerTableRecord
  2
Ech.1_33
 70
     0
 62
     7
  6
CONTINUOUS
370
    -3
390
208
  0
LAYER
  5
46
102
{ACAD_XDICTIONARY
360
26D
102
}
330
3D
100
AcDbSymbolTableRecord
100
AcDbLayerTableRecord
  2
Ech.1_50
 70
     0
 62
     7
  6
CONTINUOUS
370
    -3
390
208
  0
LAYER
  5
47
102
{ACAD_XDICTIONARY
360
26F
102
}
330
3D
100
AcDbSymbolTableRecord
100
AcDbLayerTableRecord
  2
Ech.1_75
 70
     0
 62
     7
  6
CONTINUOUS
370
    -3
390
208
  0
LAYER
  5
48
102
{ACAD_XDICTIONARY
360
271
102
}
330
3D
100
AcDbSymbolTableRecord
100
AcDbLayerTableRecord
  2
Ech.1_100
 70
     0
 62
     7
  6
CONTINUOUS
370
    -3
390
208
  0
LAYER
  5
49
102
{ACAD_XDICTIONARY
360
273
102
}
330
3D
100
AcDbSymbolTableRecord
100
AcDbLayerTableRecord
  2
Ech.1_200
 70
     0
 62
     7
  6
CONTINUOUS
370
    -3
390
208
  0
LAYER
  5
4A
102
{ACAD_XDICTIONARY
360
275
102
}
330
3D
100
AcDbSymbolTableRecord
100
AcDbLayerTableRecord
  2
Ech.1_500
 70
     0
 62
     7
  6
CONTINUOUS
370
    -3
390
208
  0
LAYER
  5
4B
102
{ACAD_XDICTIONARY
360
277
102
}
330
3D
100
AcDbSymbolTableRecord
100
AcDbLayerTableRecord
  2
Ech.1_1000
 70
     0
 62
     7
  6
CONTINUOUS
370
    -3
390
208
  0
LAYER
  5
4C
102
{ACAD_XDICTIONARY
360
279
102
}
330
3D
100
AcDbSymbolTableRecord
100
AcDbLayerTableRecord
  2
Cadres traceur
 70
     0
 62
     7
  6
CONTINUOUS
370
    -3
390
208
  0
LAYER
  5
4D
102
{ACAD_XDICTIONARY
360
27B
102
}
330
3D
100
AcDbSymbolTableRecord
100
AcDbLayerTableRecord
  2
Cadres laser
 70
     0
 62
     7
  6
CONTINUOUS
370
    -3
390
208
  0
LAYER
  5
4E
102
{ACAD_XDICTIONARY
360
27D
102
}
330
3D
100
AcDbSymbolTableRecord
100
AcDbLayerTableRecord
  2
Légende d_aide
 70
     0
 62
     7
  6
CONTINUOUS
370
    -3
390
208
  0
LAYER
  5
4F
102
{ACAD_XDICTIONARY
360
27F
102
}
330
3D
100
AcDbSymbolTableRecord
100
AcDbLayerTableRecord
  2
hachures ok
 70
     0
 62
     7
  6
CONTINUOUS
370
    -3
390
208
  0
LAYER
  5
50
102
{ACAD_XDICTIONARY
360
281
102
}
330
3D
100
AcDbSymbolTableRecord
100
AcDbLayerTableRecord
  2
ossature bois
 70
     0
 62
     7
  6
CONTINUOUS
370
    -3
390
208
  0
LAYER
  5
51
102
{ACAD_XDICTIONARY
360
283
102
}
330
3D
100
AcDbSymbolTableRecord
100
AcDbLayerTableRecord
  2
VR
 70
     0
 62
     7
  6
CONTINUOUS
370
    -3
390
208
  0
LAYER
  5
52
102
{ACAD_XDICTIONARY
360
285
102
}
330
3D
100
AcDbSymbolTableRecord
100
AcDbLayerTableRecord
  2
CALQUE1
 70
     0
 62
     7
  6
CONTINUOUS
370
    -3
390
208
  0
LAYER
  5
53
330
3D
100
AcDbSymbolTableRecord
100
AcDbLayerTableRecord
  2
0
 70
     0
 62
     7
  6
CONTINUOUS
370
    -3
390
208
  0
LAYER
  5
54
102
{ACAD_XDICTIONARY
360
287
102
}
330
3D
100
AcDbSymbolTableRecord
100
AcDbLayerTableRecord
  2
MENUISERIE
 70
     0
 62
     7
  6
CONTINUOUS
370
    -3
390
208
  0
LAYER
  5
55
102
{ACAD_XDICTIONARY
360
289
102
}
330
3D
100
AcDbSymbolTableRecord
100
AcDbLayerTableRecord
  2
COTATION
 70
     0
 62
   250
  6
CONTINUOUS
370
    -3
390
208
  0
LAYER
  5
56
330
3D
100
AcDbSymbolTableRecord
100
AcDbLayerTableRecord
  2
DEFPOINTS
 70
     0
 62
    10
  6
CONTINUOUS
290
     0
370
    -3
390
208
  0
LAYER
  5
57
102
{ACAD_XDICTIONARY
360
28B
102
}
330
3D
100
AcDbSymbolTableRecord
100
AcDbLayerTableRecord
  2
HACHURE
 70
     0
 62
   254
  6
CONTINUOUS
370
    -3
390
208
  0
LAYER
  5
58
102
{ACAD_XDICTIONARY
360
28D
102
}
330
3D
100
AcDbSymbolTableRecord
100
AcDbLayerTableRecord
  2
MAT1
 70
     0
 62
     7
  6
CONTINUOUS
370
    -3
390
208
  0
LAYER
  5
59
102
{ACAD_XDICTIONARY
360
28F
102
}
330
3D
100
AcDbSymbolTableRecord
100
AcDbLayerTableRecord
  2
MAT2
 70
     0
 62
     7
  6
CONTINUOUS
370
    -3
390
208
  0
LAYER
  5
5A
102
{ACAD_XDICTIONARY
360
291
102
}
330
3D
100
AcDbSymbolTableRecord
100
AcDbLayerTableRecord
  2
HACH
 70
     0
 62
     8
  6
CONTINUOUS
370
    -3
390
208
  0
LAYER
  5
5B
102
{ACAD_XDICTIONARY
360
293
102
}
330
3D
100
AcDbSymbolTableRecord
100
AcDbLayerTableRecord
  2
MENUISERIES
 70
     0
 62
     7
  6
CONTINUOUS
370
    -3
390
208
  0
LAYER
  5
5C
102
{ACAD_XDICTIONARY
360
295
102
}
330
3D
100
AcDbSymbolTableRecord
100
AcDbLayerTableRecord
  2
BÉTONMÉTAL
 70
     0
 62
     7
  6
CONTINUOUS
370
    -3
390
208
  0
LAYER
  5
5D
102
{ACAD_XDICTIONARY
360
297
102
}
330
3D
100
AcDbSymbolTableRecord
100
AcDbLayerTableRecord
  2
BOIS
 70
     0
 62
     7
  6
CONTINUOUS
370
    -3
390
208
  0
ENDTAB
  0
TABLE
  2
STYLE
  5
2A
330
0
100
AcDbSymbolTable
 70
     4
  0
STYLE
  5
2B
330
2A
100
AcDbSymbolTableRecord
100
AcDbTextStyleTableRecord
  2
STANDARD
 70
     0
 40
0.0
 41
1.0
 50
0.0
 71
     0
 42
3.5
  3
MONOTXT
  4

  0
STYLE
  5
2C
330
2A
100
AcDbSymbolTableRecord
100
AcDbTextStyleTableRecord
  2
CADWORK1
 70
     0
 40
0.0
 41
1.0
 50
0.0
 71
     0
 42
3.5
  3
MONOTXT
  4

  0
STYLE
  5
2D
330
2A
100
AcDbSymbolTableRecord
100
AcDbTextStyleTableRecord
  2
MONOTXT
 70
     0
 40
0.0
 41
1.0
 50
0.0
 71
     0
 42
3.5
  3
MONOTXT
  4

  0
STYLE
  5
2E
330
2A
100
AcDbSymbolTableRecord
100
AcDbTextStyleTableRecord
  2
ARIAL
 70
     0
 40
0.0
 41
1.0
 50
0.0
 71
     0
 42
3.5
  3

  4

1001
ACAD
1000
Arial
1071
        0
  0
ENDTAB
  0
TABLE
  2
VIEW
  5
5E
330
0
100
AcDbSymbolTable
 70
     1
  0
ENDTAB
  0
TABLE
  2
UCS
  5
5F
330
0
100
AcDbSymbolTable
 70
     0
  0
ENDTAB
  0
TABLE
  2
APPID
  5
60
330
0
100
AcDbSymbolTable
 70
     2
  0
APPID
  5
61
330
60
100
AcDbSymbolTableRecord
100
AcDbRegAppTableRecord
  2
ACAD
 70
     0
  0
APPID
  5
2D9
330
60
100
AcDbSymbolTableRecord
100
AcDbRegAppTableRecord
  2
ACAD_MLEADERVER
 70
     0
  0
ENDTAB
  0
TABLE
  2
DIMSTYLE
  5
62
330
0
100
AcDbSymbolTable
 70
     1
100
AcDbDimStyleTable
 71
     0
  0
DIMSTYLE
105
252
330
62
100
AcDbSymbolTableRecord
100
AcDbDimStyleTableRecord
  2
Standard
 70
     0
340
2B
  0
ENDTAB
  0
TABLE
  2
BLOCK_RECORD
  5
63
330
0
100
AcDbSymbolTable
 70
    50
  0
BLOCK_RECORD
  5
64
330
63
100
AcDbSymbolTableRecord
100
AcDbBlockTableRecord
  2
*MODEL_SPACE
340
255
  0
BLOCK_RECORD
  5
65
330
63
100
AcDbSymbolTableRecord
100
AcDbBlockTableRecord
  2
*PAPER_SPACE
340
256
  0
BLOCK_RECORD
  5
66
330
63
100
AcDbSymbolTableRecord
100
AcDbBlockTableRecord
  2
CDWK_EXTR_0
340
0
  0
BLOCK_RECORD
  5
67
330
63
100
AcDbSymbolTableRecord
100
AcDbBlockTableRecord
  2
CDWK_EXTR_1D
340
0
  0
BLOCK_RECORD
  5
68
330
63
100
AcDbSymbolTableRecord
100
AcDbBlockTableRecord
  2
CDWK_EXTR_1G
340
0
  0
BLOCK_RECORD
  5
69
330
63
100
AcDbSymbolTableRecord
100
AcDbBlockTableRecord
  2
CDWK_EXTR_2
340
0
  0
BLOCK_RECORD
  5
6A
330
63
100
AcDbSymbolTableRecord
100
AcDbBlockTableRecord
  2
CDWK_EXTR_3
340
0
  0
BLOCK_RECORD
  5
6B
330
63
100
AcDbSymbolTableRecord
100
AcDbBlockTableRecord
  2
CDWK_EXTR_4
340
0
  0
BLOCK_RECORD
  5
6C
330
63
100
AcDbSymbolTableRecord
100
AcDbBlockTableRecord
  2
CDWK_PTTYP0
340
0
  0
BLOCK_RECORD
  5
6D
330
63
100
AcDbSymbolTableRecord
100
AcDbBlockTableRecord
  2
CDWK_PTTYP1
340
0
  0
BLOCK_RECORD
  5
6E
330
63
100
AcDbSymbolTableRecord
100
AcDbBlockTableRecord
  2
CDWK_PTTYP2
340
0
  0
BLOCK_RECORD
  5
6F
330
63
100
AcDbSymbolTableRecord
100
AcDbBlockTableRecord
  2
CDWK_PTTYP3
340
0
  0
BLOCK_RECORD
  5
70
330
63
100
AcDbSymbolTableRecord
100
AcDbBlockTableRecord
  2
CDWK_PTTYP4
340
0
  0
BLOCK_RECORD
  5
71
330
63
100
AcDbSymbolTableRecord
100
AcDbBlockTableRecord
  2
CDWK_PTTYP5
340
0
  0
BLOCK_RECORD
  5
72
330
63
100
AcDbSymbolTableRecord
100
AcDbBlockTableRecord
  2
CDWK_PTTYP6
340
0
  0
BLOCK_RECORD
  5
73
330
63
100
AcDbSymbolTableRecord
100
AcDbBlockTableRecord
  2
CDWK_PTTYP7
340
0
  0
BLOCK_RECORD
  5
74
330
63
100
AcDbSymbolTableRecord
100
AcDbBlockTableRecord
  2
CDWK_PTTYP8
340
0
  0
BLOCK_RECORD
  5
75
330
63
100
AcDbSymbolTableRecord
100
AcDbBlockTableRecord
  2
CDWK_PTTYP9
340
0
  0
BLOCK_RECORD
  5
76
330
63
100
AcDbSymbolTableRecord
100
AcDbBlockTableRecord
  2
CDWK_PTTYP10
340
0
  0
BLOCK_RECORD
  5
77
330
63
100
AcDbSymbolTableRecord
100
AcDbBlockTableRecord
  2
CDWK_PTTYP11
340
0
  0
BLOCK_RECORD
  5
78
330
63
100
AcDbSymbolTableRecord
100
AcDbBlockTableRecord
  2
CDWK_PTTYP12
340
0
  0
BLOCK_RECORD
  5
79
330
63
100
AcDbSymbolTableRecord
100
AcDbBlockTableRecord
  2
CDWK_PTTYP13
340
0
  0
BLOCK_RECORD
  5
7A
330
63
100
AcDbSymbolTableRecord
100
AcDbBlockTableRecord
  2
CDWK_PTTYP14
340
0
  0
BLOCK_RECORD
  5
7B
330
63
100
AcDbSymbolTableRecord
100
AcDbBlockTableRecord
  2
CDWK_PTTYP15
340
0
  0
BLOCK_RECORD
  5
7C
330
63
100
AcDbSymbolTableRecord
100
AcDbBlockTableRecord
  2
CDWK_PTTYP16
340
0
  0
BLOCK_RECORD
  5
7D
330
63
100
AcDbSymbolTableRecord
100
AcDbBlockTableRecord
  2
CDWK_PTTYP17
340
0
  0
BLOCK_RECORD
  5
7E
330
63
100
AcDbSymbolTableRecord
100
AcDbBlockTableRecord
  2
CDWK_PTTYP18
340
0
  0
BLOCK_RECORD
  5
7F
330
63
100
AcDbSymbolTableRecord
100
AcDbBlockTableRecord
  2
CDWK_PTTYP19
340
0
  0
BLOCK_RECORD
  5
80
330
63
100
AcDbSymbolTableRecord
100
AcDbBlockTableRecord
  2
CDWK_PTTYP20
340
0
  0
BLOCK_RECORD
  5
81
330
63
100
AcDbSymbolTableRecord
100
AcDbBlockTableRecord
  2
CDWK_PTTYP21
340
0
  0
BLOCK_RECORD
  5
82
330
63
100
AcDbSymbolTableRecord
100
AcDbBlockTableRecord
  2
CDWK_PTTYP22
340
0
  0
BLOCK_RECORD
  5
83
330
63
100
AcDbSymbolTableRecord
100
AcDbBlockTableRecord
  2
CDWK_PTTYP23
340
0
  0
BLOCK_RECORD
  5
84
330
63
100
AcDbSymbolTableRecord
100
AcDbBlockTableRecord
  2
CDWK_PTTYP24
340
0
  0
BLOCK_RECORD
  5
85
330
63
100
AcDbSymbolTableRecord
100
AcDbBlockTableRecord
  2
CDWK_PTTYP25
340
0
  0
BLOCK_RECORD
  5
86
330
63
100
AcDbSymbolTableRecord
100
AcDbBlockTableRecord
  2
CDWK_PTTYP26
340
0
  0
BLOCK_RECORD
  5
87
330
63
100
AcDbSymbolTableRecord
100
AcDbBlockTableRecord
  2
CDWK_PTTYP27
340
0
  0
BLOCK_RECORD
  5
88
330
63
100
AcDbSymbolTableRecord
100
AcDbBlockTableRecord
  2
CDWK_PTTYP28
340
0
  0
BLOCK_RECORD
  5
89
330
63
100
AcDbSymbolTableRecord
100
AcDbBlockTableRecord
  2
CDWK_PTTYP29
340
0
  0
BLOCK_RECORD
  5
8A
330
63
100
AcDbSymbolTableRecord
100
AcDbBlockTableRecord
  2
CDWK_PTTYP30
340
0
  0
BLOCK_RECORD
  5
8B
330
63
100
AcDbSymbolTableRecord
100
AcDbBlockTableRecord
  2
CDWK_PTTYP31
340
0
  0
BLOCK_RECORD
  5
8C
330
63
100
AcDbSymbolTableRecord
100
AcDbBlockTableRecord
  2
CDWK_PTTYP32
340
0
  0
BLOCK_RECORD
  5
8D
330
63
100
AcDbSymbolTableRecord
100
AcDbBlockTableRecord
  2
CDWK_PTTYP33
340
0
  0
BLOCK_RECORD
  5
8E
330
63
100
AcDbSymbolTableRecord
100
AcDbBlockTableRecord
  2
CDWK_PTTYP34
340
0
  0
BLOCK_RECORD
  5
8F
330
63
100
AcDbSymbolTableRecord
100
AcDbBlockTableRecord
  2
CDWK_PTTYP35
340
0
  0
BLOCK_RECORD
  5
90
330
63
100
AcDbSymbolTableRecord
100
AcDbBlockTableRecord
  2
CDWK_PTTYP36
340
0
  0
BLOCK_RECORD
  5
91
330
63
100
AcDbSymbolTableRecord
100
AcDbBlockTableRecord
  2
CDWK_PTTYP37
340
0
  0
BLOCK_RECORD
  5
92
330
63
100
AcDbSymbolTableRecord
100
AcDbBlockTableRecord
  2
CDWK_PTTYP38
340
0
  0
BLOCK_RECORD
  5
93
330
63
100
AcDbSymbolTableRecord
100
AcDbBlockTableRecord
  2
*X45
340
0
102
{BLKREFS
331
190
102
}
  0
BLOCK_RECORD
  5
94
330
63
100
AcDbSymbolTableRecord
100
AcDbBlockTableRecord
  2
*X46
340
0
102
{BLKREFS
331
191
102
}
  0
BLOCK_RECORD
  5
95
330
63
100
AcDbSymbolTableRecord
100
AcDbBlockTableRecord
  2
*X47
340
0
102
{BLKREFS
331
192
102
}
  0
BLOCK_RECORD
  5
96
330
63
100
AcDbSymbolTableRecord
100
AcDbBlockTableRecord
  2
*D48
340
0
102
{BLKREFS
331
202
102
}
  0
BLOCK_RECORD
  5
97
330
63
100
AcDbSymbolTableRecord
100
AcDbBlockTableRecord
  2
*D49
340
0
102
{BLKREFS
331
203
102
}
  0
ENDTAB
  0
ENDSEC
  0
SECTION
  2
BLOCKS
  0
BLOCK
  5
98
330
64
100
AcDbEntity
  8
0
100
AcDbBlockBegin
  2
*MODEL_SPACE
 70
     0
 10
0.0
 20
0.0
 30
0.0
  3
*MODEL_SPACE
  1

  0
ENDBLK
  5
99
330
64
100
AcDbEntity
  8
0
100
AcDbBlockEnd
  0
BLOCK
  5
9A
330
65
100
AcDbEntity
 67
     1
  8
0
100
AcDbBlockBegin
  2
*PAPER_SPACE
 70
     0
 10
0.0
 20
0.0
 30
0.0
  3
*PAPER_SPACE
  1

  0
ENDBLK
  5
9B
330
65
100
AcDbEntity
 67
     1
  8
0
100
AcDbBlockEnd
  0
BLOCK
  5
9C
330
66
100
AcDbEntity
  8
0
100
AcDbBlockBegin
  2
CDWK_EXTR_0
 70
     0
 10
0.0
 20
0.0
 30
0.0
  3
CDWK_EXTR_0
  1

  0
LINE
  5
9D
330
66
100
AcDbEntity
  8
0
 62
     0
370
    -2
100
AcDbLine
 10
0.0
 20
0.0
 30
0.0
 11
2.0
 21
0.5
 31
0.0
  0
LINE
  5
9E
330
66
100
AcDbEntity
  8
0
 62
     0
370
    -2
100
AcDbLine
 10
0.0
 20
0.0
 30
0.0
 11
2.0
 21
-0.5
 31
0.0
  0
LINE
  5
9F
330
66
100
AcDbEntity
  8
0
 62
     0
370
    -2
100
AcDbLine
 10
2.0
 20
0.5
 30
0.0
 11
2.0
 21
-0.5
 31
0.0
  0
ENDBLK
  5
A0
330
66
100
AcDbEntity
  8
0
100
AcDbBlockEnd
  0
BLOCK
  5
A1
330
67
100
AcDbEntity
  8
0
100
AcDbBlockBegin
  2
CDWK_EXTR_1D
 70
     0
 10
0.0
 20
0.0
 30
0.0
  3
CDWK_EXTR_1D
  1

  0
LINE
  5
A2
330
67
100
AcDbEntity
  8
0
 62
     0
370
    -2
100
AcDbLine
 10
0.0
 20
0.0
 30
0.0
 11
0.0
 21
1.0
 31
0.0
  0
LINE
  5
A3
330
67
100
AcDbEntity
  8
0
 62
     0
370
    -2
100
AcDbLine
 10
0.0
 20
1.0
 30
0.0
 11
0.5
 21
1.5
 31
0.0
  0
LINE
  5
A4
330
67
100
AcDbEntity
  8
0
 62
     0
370
    -2
100
AcDbLine
 10
0.5
 20
1.5
 30
0.0
 11
1.5
 21
1.5
 31
0.0
  0
ENDBLK
  5
A5
330
67
100
AcDbEntity
  8
0
100
AcDbBlockEnd
  0
BLOCK
  5
A6
330
68
100
AcDbEntity
  8
0
100
AcDbBlockBegin
  2
CDWK_EXTR_1G
 70
     0
 10
0.0
 20
0.0
 30
0.0
  3
CDWK_EXTR_1G
  1

  0
LINE
  5
A7
330
68
100
AcDbEntity
  8
0
 62
     0
370
    -2
100
AcDbLine
 10
0.0
 20
0.0
 30
0.0
 11
0.0
 21
-1.0
 31
0.0
  0
LINE
  5
A8
330
68
100
AcDbEntity
  8
0
 62
     0
370
    -2
100
AcDbLine
 10
0.0
 20
-1.0
 30
0.0
 11
0.5
 21
-1.5
 31
0.0
  0
LINE
  5
A9
330
68
100
AcDbEntity
  8
0
 62
     0
370
    -2
100
AcDbLine
 10
0.5
 20
-1.5
 30
0.0
 11
1.5
 21
-1.5
 31
0.0
  0
ENDBLK
  5
AA
330
68
100
AcDbEntity
  8
0
100
AcDbBlockEnd
  0
BLOCK
  5
AB
330
69
100
AcDbEntity
  8
0
100
AcDbBlockBegin
  2
CDWK_EXTR_2
 70
     0
 10
0.0
 20
0.0
 30
0.0
  3
CDWK_EXTR_2
  1

  0
SOLID
  5
AC
330
69
100
AcDbEntity
  8
0
 62
     0
100
AcDbTrace
 10
0.0
 20
0.0
 30
0.0
 11
2.0
 21
0.5
 31
0.0
 12
2.0
 22
-0.5
 32
0.0
 13
2.0
 23
-0.5
 33
0.0
  0
ENDBLK
  5
AD
330
69
100
AcDbEntity
  8
0
100
AcDbBlockEnd
  0
BLOCK
  5
AE
330
6A
100
AcDbEntity
  8
0
100
AcDbBlockBegin
  2
CDWK_EXTR_3
 70
     0
 10
0.0
 20
0.0
 30
0.0
  3
CDWK_EXTR_3
  1

  0
SOLID
  5
AF
330
6A
100
AcDbEntity
  8
0
 62
     0
100
AcDbTrace
 10
0.0
 20
0.0
 30
0.0
 11
2.0
 21
0.5
 31
0.0
 12
2.0
 22
-0.5
 32
0.0
 13
2.0
 23
-0.5
 33
0.0
  0
LINE
  5
B0
330
6A
100
AcDbEntity
  8
0
 62
     0
370
    -2
100
AcDbLine
 10
0.0
 20
1.0
 30
0.0
 11
0.0
 21
-1.0
 31
0.0
  0
ENDBLK
  5
B1
330
6A
100
AcDbEntity
  8
0
100
AcDbBlockEnd
  0
BLOCK
  5
B2
330
6B
100
AcDbEntity
  8
0
100
AcDbBlockBegin
  2
CDWK_EXTR_4
 70
     0
 10
0.0
 20
0.0
 30
0.0
  3
CDWK_EXTR_4
  1

  0
HATCH
  5
B3
330
6B
100
AcDbEntity
  8
0
 62
     0
370
    20
100
AcDbHatch
 10
0.0
 20
0.0
 30
0.0
210
0.0
220
0.0
230
1.0
  2
SOLID
 70
     1
 71
     0
 91
        1
 92
        1
 93
        1
 72
     2
 10
0.0
 20
0.0
 40
0.5
 50
0.0
 51
360.0
 73
     1
 97
        0
 75
     0
 76
     1
 98
        1
 10
0.0
 20
0.0
  0
ENDBLK
  5
B4
330
6B
100
AcDbEntity
  8
0
100
AcDbBlockEnd
  0
BLOCK
  5
B5
330
6C
100
AcDbEntity
  8
0
100
AcDbBlockBegin
  2
CDWK_PTTYP0
 70
     0
 10
0.0
 20
0.0
 30
0.0
  3
CDWK_PTTYP0
  1

  0
POINT
  5
B6
330
6C
100
AcDbEntity
  8
0
 62
     0
100
AcDbPoint
 10
0.0
 20
0.0
 30
0.0
  0
ENDBLK
  5
B7
330
6C
100
AcDbEntity
  8
0
100
AcDbBlockEnd
  0
BLOCK
  5
B8
330
6D
100
AcDbEntity
  8
0
100
AcDbBlockBegin
  2
CDWK_PTTYP1
 70
     0
 10
0.0
 20
0.0
 30
0.0
  3
CDWK_PTTYP1
  1

  0
LINE
  5
B9
330
6D
100
AcDbEntity
  8
0
 62
     0
370
    -2
100
AcDbLine
 10
-0.5
 20
0.5
 30
0.0
 11
0.5
 21
0.5
 31
0.0
  0
LINE
  5
BA
330
6D
100
AcDbEntity
  8
0
 62
     0
370
    -2
100
AcDbLine
 10
0.5
 20
0.5
 30
0.0
 11
0.5
 21
-0.5
 31
0.0
  0
LINE
  5
BB
330
6D
100
AcDbEntity
  8
0
 62
     0
370
    -2
100
AcDbLine
 10
0.5
 20
-0.5
 30
0.0
 11
-0.5
 21
-0.5
 31
0.0
  0
LINE
  5
BC
330
6D
100
AcDbEntity
  8
0
 62
     0
370
    -2
100
AcDbLine
 10
-0.5
 20
-0.5
 30
0.0
 11
-0.5
 21
0.5
 31
0.0
  0
ENDBLK
  5
BD
330
6D
100
AcDbEntity
  8
0
100
AcDbBlockEnd
  0
BLOCK
  5
BE
330
6E
100
AcDbEntity
  8
0
100
AcDbBlockBegin
  2
CDWK_PTTYP2
 70
     0
 10
0.0
 20
0.0
 30
0.0
  3
CDWK_PTTYP2
  1

  0
LINE
  5
BF
330
6E
100
AcDbEntity
  8
0
 62
     0
370
    -2
100
AcDbLine
 10
0.0
 20
0.5
 30
0.0
 11
0.0
 21
-0.5
 31
0.0
  0
LINE
  5
C0
330
6E
100
AcDbEntity
  8
0
 62
     0
370
    -2
100
AcDbLine
 10
-0.5
 20
0.0
 30
0.0
 11
0.5
 21
0.0
 31
0.0
  0
ENDBLK
  5
C1
330
6E
100
AcDbEntity
  8
0
100
AcDbBlockEnd
  0
BLOCK
  5
C2
330
6F
100
AcDbEntity
  8
0
100
AcDbBlockBegin
  2
CDWK_PTTYP3
 70
     0
 10
0.0
 20
0.0
 30
0.0
  3
CDWK_PTTYP3
  1

  0
CIRCLE
  5
C3
330
6F
100
AcDbEntity
  8
0
 62
     0
370
    -2
100
AcDbCircle
 10
0.0
 20
0.0
 30
0.0
 40
0.5
  0
ENDBLK
  5
C4
330
6F
100
AcDbEntity
  8
0
100
AcDbBlockEnd
  0
BLOCK
  5
C5
330
70
100
AcDbEntity
  8
0
100
AcDbBlockBegin
  2
CDWK_PTTYP4
 70
     0
 10
0.0
 20
0.0
 30
0.0
  3
CDWK_PTTYP4
  1

  0
HATCH
  5
C6
330
70
100
AcDbEntity
  8
0
 62
     0
370
    20
100
AcDbHatch
 10
0.0
 20
0.0
 30
0.0
210
0.0
220
0.0
230
1.0
  2
SOLID
 70
     1
 71
     0
 91
        1
 92
        1
 93
        1
 72
     2
 10
0.0
 20
0.0
 40
0.5
 50
0.0
 51
360.0
 73
     1
 97
        0
 75
     0
 76
     1
 98
        1
 10
0.0
 20
0.0
  0
ENDBLK
  5
C7
330
70
100
AcDbEntity
  8
0
100
AcDbBlockEnd
  0
BLOCK
  5
C8
330
71
100
AcDbEntity
  8
0
100
AcDbBlockBegin
  2
CDWK_PTTYP5
 70
     0
 10
0.0
 20
0.0
 30
0.0
  3
CDWK_PTTYP5
  1

  0
LINE
  5
C9
330
71
100
AcDbEntity
  8
0
 62
     0
370
    -2
100
AcDbLine
 10
-0.5
 20
0.5
 30
0.0
 11
0.5
 21
0.5
 31
0.0
  0
LINE
  5
CA
330
71
100
AcDbEntity
  8
0
 62
     0
370
    -2
100
AcDbLine
 10
0.5
 20
0.5
 30
0.0
 11
0.5
 21
-0.5
 31
0.0
  0
LINE
  5
CB
330
71
100
AcDbEntity
  8
0
 62
     0
370
    -2
100
AcDbLine
 10
0.5
 20
-0.5
 30
0.0
 11
-0.5
 21
-0.5
 31
0.0
  0
LINE
  5
CC
330
71
100
AcDbEntity
  8
0
 62
     0
370
    -2
100
AcDbLine
 10
-0.5
 20
-0.5
 30
0.0
 11
-0.5
 21
0.5
 31
0.0
  0
SOLID
  5
CD
330
71
100
AcDbEntity
  8
0
 62
     0
100
AcDbTrace
 10
-0.5
 20
-0.5
 30
0.0
 11
-0.5
 21
0.0
 31
0.0
 12
0.0
 22
-0.5
 32
0.0
 13
0.0
 23
0.0
 33
0.0
  0
SOLID
  5
CE
330
71
100
AcDbEntity
  8
0
 62
     0
100
AcDbTrace
 10
0.0
 20
0.0
 30
0.0
 11
0.0
 21
0.5
 31
0.0
 12
0.5
 22
0.0
 32
0.0
 13
0.5
 23
0.5
 33
0.0
  0
ENDBLK
  5
CF
330
71
100
AcDbEntity
  8
0
100
AcDbBlockEnd
  0
BLOCK
  5
D0
330
72
100
AcDbEntity
  8
0
100
AcDbBlockBegin
  2
CDWK_PTTYP6
 70
     0
 10
0.0
 20
0.0
 30
0.0
  3
CDWK_PTTYP6
  1

  0
LINE
  5
D1
330
72
100
AcDbEntity
  8
0
 62
     0
370
    -2
100
AcDbLine
 10
-0.5
 20
0.5
 30
0.0
 11
0.5
 21
0.5
 31
0.0
  0
LINE
  5
D2
330
72
100
AcDbEntity
  8
0
 62
     0
370
    -2
100
AcDbLine
 10
0.5
 20
0.5
 30
0.0
 11
0.5
 21
-0.5
 31
0.0
  0
LINE
  5
D3
330
72
100
AcDbEntity
  8
0
 62
     0
370
    -2
100
AcDbLine
 10
0.5
 20
-0.5
 30
0.0
 11
-0.5
 21
-0.5
 31
0.0
  0
LINE
  5
D4
330
72
100
AcDbEntity
  8
0
 62
     0
370
    -2
100
AcDbLine
 10
-0.5
 20
-0.5
 30
0.0
 11
-0.5
 21
0.5
 31
0.0
  0
SOLID
  5
D5
330
72
100
AcDbEntity
  8
0
 62
     0
100
AcDbTrace
 10
-0.5
 20
-0.5
 30
0.0
 11
-0.5
 21
0.5
 31
0.0
 12
0.5
 22
0.5
 32
0.0
 13
0.5
 23
0.5
 33
0.0
  0
ENDBLK
  5
D6
330
72
100
AcDbEntity
  8
0
100
AcDbBlockEnd
  0
BLOCK
  5
D7
330
73
100
AcDbEntity
  8
0
100
AcDbBlockBegin
  2
CDWK_PTTYP7
 70
     0
 10
0.0
 20
0.0
 30
0.0
  3
CDWK_PTTYP7
  1

  0
LINE
  5
D8
330
73
100
AcDbEntity
  8
0
 62
     0
370
    -2
100
AcDbLine
 10
-0.5
 20
0.5
 30
0.0
 11
0.5
 21
0.5
 31
0.0
  0
LINE
  5
D9
330
73
100
AcDbEntity
  8
0
 62
     0
370
    -2
100
AcDbLine
 10
0.5
 20
0.5
 30
0.0
 11
0.5
 21
-0.5
 31
0.0
  0
LINE
  5
DA
330
73
100
AcDbEntity
  8
0
 62
     0
370
    -2
100
AcDbLine
 10
0.5
 20
-0.5
 30
0.0
 11
-0.5
 21
-0.5
 31
0.0
  0
LINE
  5
DB
330
73
100
AcDbEntity
  8
0
 62
     0
370
    -2
100
AcDbLine
 10
-0.5
 20
-0.5
 30
0.0
 11
-0.5
 21
0.5
 31
0.0
  0
LINE
  5
DC
330
73
100
AcDbEntity
  8
0
 62
     0
370
    -2
100
AcDbLine
 10
0.0
 20
0.5
 30
0.0
 11
0.0
 21
-0.5
 31
0.0
  0
LINE
  5
DD
330
73
100
AcDbEntity
  8
0
 62
     0
370
    -2
100
AcDbLine
 10
-0.5
 20
0.0
 30
0.0
 11
0.5
 21
0.0
 31
0.0
  0
ENDBLK
  5
DE
330
73
100
AcDbEntity
  8
0
100
AcDbBlockEnd
  0
BLOCK
  5
DF
330
74
100
AcDbEntity
  8
0
100
AcDbBlockBegin
  2
CDWK_PTTYP8
 70
     0
 10
0.0
 20
0.0
 30
0.0
  3
CDWK_PTTYP8
  1

  0
SOLID
  5
E0
330
74
100
AcDbEntity
  8
0
 62
     0
100
AcDbTrace
 10
-0.5
 20
0.5
 30
0.0
 11
0.5
 21
0.5
 31
0.0
 12
-0.5
 22
-0.5
 32
0.0
 13
0.5
 23
-0.5
 33
0.0
  0
ENDBLK
  5
E1
330
74
100
AcDbEntity
  8
0
100
AcDbBlockEnd
  0
BLOCK
  5
E2
330
75
100
AcDbEntity
  8
0
100
AcDbBlockBegin
  2
CDWK_PTTYP9
 70
     0
 10
0.0
 20
0.0
 30
0.0
  3
CDWK_PTTYP9
  1

  0
CIRCLE
  5
E3
330
75
100
AcDbEntity
  8
0
 62
     0
370
    -2
100
AcDbCircle
 10
0.0
 20
0.0
 30
0.0
 40
0.5
  0
CIRCLE
  5
E4
330
75
100
AcDbEntity
  8
0
 62
     0
370
    -2
100
AcDbCircle
 10
0.0
 20
0.0
 30
0.0
 40
0.16666667
  0
ENDBLK
  5
E5
330
75
100
AcDbEntity
  8
0
100
AcDbBlockEnd
  0
BLOCK
  5
E6
330
76
100
AcDbEntity
  8
0
100
AcDbBlockBegin
  2
CDWK_PTTYP10
 70
     0
 10
0.0
 20
0.0
 30
0.0
  3
CDWK_PTTYP10
  1

  0
CIRCLE
  5
E7
330
76
100
AcDbEntity
  8
0
 62
     0
370
    -2
100
AcDbCircle
 10
0.0
 20
0.0
 30
0.0
 40
0.5
  0
ENDBLK
  5
E8
330
76
100
AcDbEntity
  8
0
100
AcDbBlockEnd
  0
BLOCK
  5
E9
330
77
100
AcDbEntity
  8
0
100
AcDbBlockBegin
  2
CDWK_PTTYP11
 70
     0
 10
0.0
 20
0.0
 30
0.0
  3
CDWK_PTTYP11
  1

  0
CIRCLE
  5
EA
330
77
100
AcDbEntity
  8
0
 62
     0
370
    -2
100
AcDbCircle
 10
0.0
 20
0.0
 30
0.0
 40
0.5
  0
CIRCLE
  5
EB
330
77
100
AcDbEntity
  8
0
 62
     0
370
    -2
100
AcDbCircle
 10
0.0
 20
0.0
 30
0.0
 40
0.25
  0
ENDBLK
  5
EC
330
77
100
AcDbEntity
  8
0
100
AcDbBlockEnd
  0
BLOCK
  5
ED
330
78
100
AcDbEntity
  8
0
100
AcDbBlockBegin
  2
CDWK_PTTYP12
 70
     0
 10
0.0
 20
0.0
 30
0.0
  3
CDWK_PTTYP12
  1

  0
CIRCLE
  5
EE
330
78
100
AcDbEntity
  8
0
 62
     0
370
    -2
100
AcDbCircle
 10
0.0
 20
0.0
 30
0.0
 40
0.5
  0
CIRCLE
  5
EF
330
78
100
AcDbEntity
  8
0
 62
     0
370
    -2
100
AcDbCircle
 10
0.25
 20
0.0
 30
0.0
 40
0.25
  0
ENDBLK
  5
F0
330
78
100
AcDbEntity
  8
0
100
AcDbBlockEnd
  0
BLOCK
  5
F1
330
79
100
AcDbEntity
  8
0
100
AcDbBlockBegin
  2
CDWK_PTTYP13
 70
     0
 10
0.0
 20
0.0
 30
0.0
  3
CDWK_PTTYP13
  1

  0
CIRCLE
  5
F2
330
79
100
AcDbEntity
  8
0
 62
     0
370
    -2
100
AcDbCircle
 10
0.0
 20
0.0
 30
0.0
 40
0.5
  0
CIRCLE
  5
F3
330
79
100
AcDbEntity
  8
0
 62
     0
370
    -2
100
AcDbCircle
 10
0.25
 20
0.0
 30
0.0
 40
0.25
  0
CIRCLE
  5
F4
330
79
100
AcDbEntity
  8
0
 62
     0
370
    -2
100
AcDbCircle
 10
-0.25
 20
0.0
 30
0.0
 40
0.25
  0
ENDBLK
  5
F5
330
79
100
AcDbEntity
  8
0
100
AcDbBlockEnd
  0
BLOCK
  5
F6
330
7A
100
AcDbEntity
  8
0
100
AcDbBlockBegin
  2
CDWK_PTTYP14
 70
     0
 10
0.0
 20
0.0
 30
0.0
  3
CDWK_PTTYP14
  1

  0
POINT
  5
F7
330
7A
100
AcDbEntity
  8
0
 62
     0
100
AcDbPoint
 10
0.0
 20
0.0
 30
0.0
  0
ENDBLK
  5
F8
330
7A
100
AcDbEntity
  8
0
100
AcDbBlockEnd
  0
BLOCK
  5
F9
330
7B
100
AcDbEntity
  8
0
100
AcDbBlockBegin
  2
CDWK_PTTYP15
 70
     0
 10
0.0
 20
0.0
 30
0.0
  3
CDWK_PTTYP15
  1

  0
POINT
  5
FA
330
7B
100
AcDbEntity
  8
0
 62
     0
100
AcDbPoint
 10
0.0
 20
0.0
 30
0.0
  0
ENDBLK
  5
FB
330
7B
100
AcDbEntity
  8
0
100
AcDbBlockEnd
  0
BLOCK
  5
FC
330
7C
100
AcDbEntity
  8
0
100
AcDbBlockBegin
  2
CDWK_PTTYP16
 70
     0
 10
0.0
 20
0.0
 30
0.0
  3
CDWK_PTTYP16
  1

  0
LINE
  5
FD
330
7C
100
AcDbEntity
  8
0
 62
     0
370
    -2
100
AcDbLine
 10
-0.5
 20
-0.28867513
 30
0.0
 11
0.5
 21
-0.28867513
 31
0.0
  0
LINE
  5
FE
330
7C
100
AcDbEntity
  8
0
 62
     0
370
    -2
100
AcDbLine
 10
0.5
 20
-0.28867513
 30
0.0
 11
0.0
 21
0.5773502700000001
 31
0.0
  0
LINE
  5
FF
330
7C
100
AcDbEntity
  8
0
 62
     0
370
    -2
100
AcDbLine
 10
0.0
 20
0.5773502700000001
 30
0.0
 11
-0.5
 21
-0.28867513
 31
0.0
  0
CIRCLE
  5
100
330
7C
100
AcDbEntity
  8
0
 62
     0
370
    -2
100
AcDbCircle
 10
0.0
 20
0.0
 30
0.0
 40
0.28867513
  0
ENDBLK
  5
101
330
7C
100
AcDbEntity
  8
0
100
AcDbBlockEnd
  0
BLOCK
  5
102
330
7D
100
AcDbEntity
  8
0
100
AcDbBlockBegin
  2
CDWK_PTTYP17
 70
     0
 10
0.0
 20
0.0
 30
0.0
  3
CDWK_PTTYP17
  1

  0
CIRCLE
  5
103
330
7D
100
AcDbEntity
  8
0
 62
     0
370
    -2
100
AcDbCircle
 10
0.0
 20
0.0
 30
0.0
 40
0.5
  0
HATCH
  5
104
330
7D
100
AcDbEntity
  8
0
 62
     0
370
   211
100
AcDbHatch
 10
0.0
 20
0.0
 30
0.0
210
0.0
220
0.0
230
1.0
  2
SOLID
 70
     1
 71
     0
 91
        1
 92
        1
 93
        1
 72
     2
 10
0.0
 20
0.0
 40
0.25
 50
0.0
 51
360.0
 73
     1
 97
        0
 75
     0
 76
     1
 98
        1
 10
0.0
 20
0.0
  0
ENDBLK
  5
105
330
7D
100
AcDbEntity
  8
0
100
AcDbBlockEnd
  0
BLOCK
  5
106
330
7E
100
AcDbEntity
  8
0
100
AcDbBlockBegin
  2
CDWK_PTTYP18
 70
     0
 10
0.0
 20
0.0
 30
0.0
  3
CDWK_PTTYP18
  1

  0
CIRCLE
  5
107
330
7E
100
AcDbEntity
  8
0
 62
     0
370
    -2
100
AcDbCircle
 10
0.0
 20
0.0
 30
0.0
 40
0.5
  0
CIRCLE
  5
108
330
7E
100
AcDbEntity
  8
0
 62
     0
370
    -2
100
AcDbCircle
 10
0.0
 20
0.0
 30
0.0
 40
0.2
  0
ENDBLK
  5
109
330
7E
100
AcDbEntity
  8
0
100
AcDbBlockEnd
  0
BLOCK
  5
10A
330
7F
100
AcDbEntity
  8
0
100
AcDbBlockBegin
  2
CDWK_PTTYP19
 70
     0
 10
0.0
 20
0.0
 30
0.0
  3
CDWK_PTTYP19
  1

  0
CIRCLE
  5
10B
330
7F
100
AcDbEntity
  8
0
 62
     0
370
    -2
100
AcDbCircle
 10
0.0
 20
0.0
 30
0.0
 40
0.4
  0
CIRCLE
  5
10C
330
7F
100
AcDbEntity
  8
0
 62
     0
370
    -2
100
AcDbCircle
 10
0.0
 20
0.0
 30
0.0
 40
0.25
  0
LINE
  5
10D
330
7F
100
AcDbEntity
  8
0
 62
     0
370
    -2
100
AcDbLine
 10
-0.25
 20
0.0
 30
0.0
 11
0.25
 21
0.0
 31
0.0
  0
ENDBLK
  5
10E
330
7F
100
AcDbEntity
  8
0
100
AcDbBlockEnd
  0
BLOCK
  5
10F
330
80
100
AcDbEntity
  8
0
100
AcDbBlockBegin
  2
CDWK_PTTYP20
 70
     0
 10
0.0
 20
0.0
 30
0.0
  3
CDWK_PTTYP20
  1

  0
CIRCLE
  5
110
330
80
100
AcDbEntity
  8
0
 62
     0
370
    -2
100
AcDbCircle
 10
0.0
 20
0.0
 30
0.0
 40
0.5
  0
CIRCLE
  5
111
330
80
100
AcDbEntity
  8
0
 62
     0
370
    -2
100
AcDbCircle
 10
0.0
 20
0.0
 30
0.0
 40
0.3
  0
ENDBLK
  5
112
330
80
100
AcDbEntity
  8
0
100
AcDbBlockEnd
  0
BLOCK
  5
113
330
81
100
AcDbEntity
  8
0
100
AcDbBlockBegin
  2
CDWK_PTTYP21
 70
     0
 10
0.0
 20
0.0
 30
0.0
  3
CDWK_PTTYP21
  1

  0
CIRCLE
  5
114
330
81
100
AcDbEntity
  8
0
 62
     0
370
    -2
100
AcDbCircle
 10
0.0
 20
0.0
 30
0.0
 40
0.5
  0
LINE
  5
115
330
81
100
AcDbEntity
  8
0
 62
     0
370
    -2
100
AcDbLine
 10
-0.5
 20
0.0
 30
0.0
 11
0.5
 21
0.0
 31
0.0
  0
ENDBLK
  5
116
330
81
100
AcDbEntity
  8
0
100
AcDbBlockEnd
  0
BLOCK
  5
117
330
82
100
AcDbEntity
  8
0
100
AcDbBlockBegin
  2
CDWK_PTTYP22
 70
     0
 10
0.0
 20
0.0
 30
0.0
  3
CDWK_PTTYP22
  1

  0
POINT
  5
118
330
82
100
AcDbEntity
  8
0
 62
     0
100
AcDbPoint
 10
0.0
 20
0.0
 30
0.0
  0
ENDBLK
  5
119
330
82
100
AcDbEntity
  8
0
100
AcDbBlockEnd
  0
BLOCK
  5
11A
330
83
100
AcDbEntity
  8
0
100
AcDbBlockBegin
  2
CDWK_PTTYP23
 70
     0
 10
0.0
 20
0.0
 30
0.0
  3
CDWK_PTTYP23
  1

  0
POINT
  5
11B
330
83
100
AcDbEntity
  8
0
 62
     0
100
AcDbPoint
 10
0.0
 20
0.0
 30
0.0
  0
ENDBLK
  5
11C
330
83
100
AcDbEntity
  8
0
100
AcDbBlockEnd
  0
BLOCK
  5
11D
330
84
100
AcDbEntity
  8
0
100
AcDbBlockBegin
  2
CDWK_PTTYP24
 70
     0
 10
0.0
 20
0.0
 30
0.0
  3
CDWK_PTTYP24
  1

  0
POINT
  5
11E
330
84
100
AcDbEntity
  8
0
 62
     0
100
AcDbPoint
 10
0.0
 20
0.0
 30
0.0
  0
ENDBLK
  5
11F
330
84
100
AcDbEntity
  8
0
100
AcDbBlockEnd
  0
BLOCK
  5
120
330
85
100
AcDbEntity
  8
0
100
AcDbBlockBegin
  2
CDWK_PTTYP25
 70
     0
 10
0.0
 20
0.0
 30
0.0
  3
CDWK_PTTYP25
  1

  0
LINE
  5
121
330
85
100
AcDbEntity
  8
0
 62
     0
370
    -2
100
AcDbLine
 10
-0.43290044
 20
-0.25
 30
0.0
 11
0.43290044
 21
-0.25
 31
0.0
  0
LINE
  5
122
330
85
100
AcDbEntity
  8
0
 62
     0
370
    -2
100
AcDbLine
 10
-0.43290044
 20
-0.25
 30
0.0
 11
0.0
 21
0.5
 31
0.0
  0
LINE
  5
123
330
85
100
AcDbEntity
  8
0
 62
     0
370
    -2
100
AcDbLine
 10
0.43290044
 20
-0.25
 30
0.0
 11
0.0
 21
0.5
 31
0.0
  0
CIRCLE
  5
124
330
85
100
AcDbEntity
  8
0
 62
     0
370
    -2
100
AcDbCircle
 10
0.0
 20
0.0
 30
0.0
 40
0.5
  0
ENDBLK
  5
125
330
85
100
AcDbEntity
  8
0
100
AcDbBlockEnd
  0
BLOCK
  5
126
330
86
100
AcDbEntity
  8
0
100
AcDbBlockBegin
  2
CDWK_PTTYP26
 70
     0
 10
0.0
 20
0.0
 30
0.0
  3
CDWK_PTTYP26
  1

  0
LINE
  5
127
330
86
100
AcDbEntity
  8
0
 62
     0
370
    -2
100
AcDbLine
 10
-0.5
 20
-0.28850001
 30
0.0
 11
0.5
 21
-0.28850001
 31
0.0
  0
LINE
  5
128
330
86
100
AcDbEntity
  8
0
 62
     0
370
    -2
100
AcDbLine
 10
-0.5
 20
-0.28850001
 30
0.0
 11
0.0
 21
0.5773672100000001
 31
0.0
  0
LINE
  5
129
330
86
100
AcDbEntity
  8
0
 62
     0
370
    -2
100
AcDbLine
 10
0.5
 20
-0.28850001
 30
0.0
 11
0.0
 21
0.5773672100000001
 31
0.0
  0
CIRCLE
  5
12A
330
86
100
AcDbEntity
  8
0
 62
     0
370
    -2
100
AcDbCircle
 10
0.0
 20
0.0
 30
0.0
 40
0.1312336
  0
ENDBLK
  5
12B
330
86
100
AcDbEntity
  8
0
100
AcDbBlockEnd
  0
BLOCK
  5
12C
330
87
100
AcDbEntity
  8
0
100
AcDbBlockBegin
  2
CDWK_PTTYP27
 70
     0
 10
0.0
 20
0.0
 30
0.0
  3
CDWK_PTTYP27
  1

  0
LINE
  5
12D
330
87
100
AcDbEntity
  8
0
 62
     0
370
    -2
100
AcDbLine
 10
-0.43290044
 20
-0.25
 30
0.0
 11
0.43290044
 21
-0.25
 31
0.0
  0
LINE
  5
12E
330
87
100
AcDbEntity
  8
0
 62
     0
370
    -2
100
AcDbLine
 10
-0.43290044
 20
-0.25
 30
0.0
 11
0.0
 21
0.5
 31
0.0
  0
LINE
  5
12F
330
87
100
AcDbEntity
  8
0
 62
     0
370
    -2
100
AcDbLine
 10
0.43290044
 20
-0.25
 30
0.0
 11
0.0
 21
0.5
 31
0.0
  0
CIRCLE
  5
130
330
87
100
AcDbEntity
  8
0
 62
     0
370
    -2
100
AcDbCircle
 10
0.0
 20
0.0
 30
0.0
 40
0.5
  0
CIRCLE
  5
131
330
87
100
AcDbEntity
  8
0
 62
     0
370
    -2
100
AcDbCircle
 10
0.0
 20
0.0
 30
0.0
 40
0.1312336
  0
ENDBLK
  5
132
330
87
100
AcDbEntity
  8
0
100
AcDbBlockEnd
  0
BLOCK
  5
133
330
88
100
AcDbEntity
  8
0
100
AcDbBlockBegin
  2
CDWK_PTTYP28
 70
     0
 10
0.0
 20
0.0
 30
0.0
  3
CDWK_PTTYP28
  1

  0
POINT
  5
134
330
88
100
AcDbEntity
  8
0
 62
     0
100
AcDbPoint
 10
0.0
 20
0.0
 30
0.0
  0
ENDBLK
  5
135
330
88
100
AcDbEntity
  8
0
100
AcDbBlockEnd
  0
BLOCK
  5
136
330
89
100
AcDbEntity
  8
0
100
AcDbBlockBegin
  2
CDWK_PTTYP29
 70
     0
 10
0.0
 20
0.0
 30
0.0
  3
CDWK_PTTYP29
  1

  0
CIRCLE
  5
137
330
89
100
AcDbEntity
  8
0
 62
     0
370
    -2
100
AcDbCircle
 10
0.0
 20
0.0
 30
0.0
 40
0.5
  0
CIRCLE
  5
138
330
89
100
AcDbEntity
  8
0
 62
     0
370
    -2
100
AcDbCircle
 10
0.0
 20
0.0
 30
0.0
 40
0.375
  0
CIRCLE
  5
139
330
89
100
AcDbEntity
  8
0
 62
     0
370
    -2
100
AcDbCircle
 10
0.0
 20
0.0
 30
0.0
 40
0.21875
  0
ENDBLK
  5
13A
330
89
100
AcDbEntity
  8
0
100
AcDbBlockEnd
  0
BLOCK
  5
13B
330
8A
100
AcDbEntity
  8
0
100
AcDbBlockBegin
  2
CDWK_PTTYP30
 70
     0
 10
0.0
 20
0.0
 30
0.0
  3
CDWK_PTTYP30
  1

  0
LINE
  5
13C
330
8A
100
AcDbEntity
  8
0
 62
     0
370
    -2
100
AcDbLine
 10
0.17680339
 20
0.17680339
 30
0.0
 11
0.5
 21
0.5
 31
0.0
  0
LINE
  5
13D
330
8A
100
AcDbEntity
  8
0
 62
     0
370
    -2
100
AcDbLine
 10
-0.17680339
 20
0.17680339
 30
0.0
 11
-0.5
 21
0.5
 31
0.0
  0
LINE
  5
13E
330
8A
100
AcDbEntity
  8
0
 62
     0
370
    -2
100
AcDbLine
 10
0.17680339
 20
-0.17680339
 30
0.0
 11
0.5
 21
-0.5
 31
0.0
  0
LINE
  5
13F
330
8A
100
AcDbEntity
  8
0
 62
     0
370
    -2
100
AcDbLine
 10
-0.17680339
 20
-0.17680339
 30
0.0
 11
-0.5
 21
-0.5
 31
0.0
  0
ENDBLK
  5
140
330
8A
100
AcDbEntity
  8
0
100
AcDbBlockEnd
  0
BLOCK
  5
141
330
8B
100
AcDbEntity
  8
0
100
AcDbBlockBegin
  2
CDWK_PTTYP31
 70
     0
 10
0.0
 20
0.0
 30
0.0
  3
CDWK_PTTYP31
  1

  0
CIRCLE
  5
142
330
8B
100
AcDbEntity
  8
0
 62
     0
370
    -2
100
AcDbCircle
 10
0.0
 20
0.0
 30
0.0
 40
0.075
  0
LINE
  5
143
330
8B
100
AcDbEntity
  8
0
 62
     0
370
    -2
100
AcDbLine
 10
0.075
 20
0.0
 30
0.0
 11
0.5
 21
0.0
 31
0.0
  0
LINE
  5
144
330
8B
100
AcDbEntity
  8
0
 62
     0
370
    -2
100
AcDbLine
 10
-0.075
 20
0.0
 30
0.0
 11
-0.5
 21
0.0
 31
0.0
  0
LINE
  5
145
330
8B
100
AcDbEntity
  8
0
 62
     0
370
    -2
100
AcDbLine
 10
0.0
 20
0.075
 30
0.0
 11
0.0
 21
0.5
 31
0.0
  0
LINE
  5
146
330
8B
100
AcDbEntity
  8
0
 62
     0
370
    -2
100
AcDbLine
 10
0.0
 20
-0.075
 30
0.0
 11
0.0
 21
-0.5
 31
0.0
  0
ENDBLK
  5
147
330
8B
100
AcDbEntity
  8
0
100
AcDbBlockEnd
  0
BLOCK
  5
148
330
8C
100
AcDbEntity
  8
0
100
AcDbBlockBegin
  2
CDWK_PTTYP32
 70
     0
 10
0.0
 20
0.0
 30
0.0
  3
CDWK_PTTYP32
  1

  0
CIRCLE
  5
149
330
8C
100
AcDbEntity
  8
0
 62
     0
370
    -2
100
AcDbCircle
 10
0.0
 20
0.0
 30
0.0
 40
0.5
  0
CIRCLE
  5
14A
330
8C
100
AcDbEntity
  8
0
 62
     0
370
    -2
100
AcDbCircle
 10
0.0
 20
0.0
 30
0.0
 40
0.16666667
  0
LINE
  5
14B
330
8C
100
AcDbEntity
  8
0
 62
     0
370
    -2
100
AcDbLine
 10
0.11786893
 20
0.11786893
 30
0.0
 11
0.35360678
 21
0.35360678
 31
0.0
  0
LINE
  5
14C
330
8C
100
AcDbEntity
  8
0
 62
     0
370
    -2
100
AcDbLine
 10
-0.11786893
 20
0.11786893
 30
0.0
 11
-0.35360678
 21
0.35360678
 31
0.0
  0
LINE
  5
14D
330
8C
100
AcDbEntity
  8
0
 62
     0
370
    -2
100
AcDbLine
 10
0.11786893
 20
-0.11786893
 30
0.0
 11
0.35360678
 21
-0.35360678
 31
0.0
  0
LINE
  5
14E
330
8C
100
AcDbEntity
  8
0
 62
     0
370
    -2
100
AcDbLine
 10
-0.11786893
 20
-0.11786893
 30
0.0
 11
-0.35360678
 21
-0.35360678
 31
0.0
  0
ENDBLK
  5
14F
330
8C
100
AcDbEntity
  8
0
100
AcDbBlockEnd
  0
BLOCK
  5
150
330
8D
100
AcDbEntity
  8
0
100
AcDbBlockBegin
  2
CDWK_PTTYP33
 70
     0
 10
0.0
 20
0.0
 30
0.0
  3
CDWK_PTTYP33
  1

  0
CIRCLE
  5
151
330
8D
100
AcDbEntity
  8
0
 62
     0
370
    -2
100
AcDbCircle
 10
0.0
 20
0.0
 30
0.0
 40
0.5
  0
LINE
  5
152
330
8D
100
AcDbEntity
  8
0
 62
     0
370
    -2
100
AcDbLine
 10
0.0
 20
0.5
 30
0.0
 11
0.0
 21
-0.5
 31
0.0
  0
LINE
  5
153
330
8D
100
AcDbEntity
  8
0
 62
     0
370
    -2
100
AcDbLine
 10
-0.5
 20
0.0
 30
0.0
 11
0.5
 21
0.0
 31
0.0
  0
ENDBLK
  5
154
330
8D
100
AcDbEntity
  8
0
100
AcDbBlockEnd
  0
BLOCK
  5
155
330
8E
100
AcDbEntity
  8
0
100
AcDbBlockBegin
  2
CDWK_PTTYP34
 70
     0
 10
0.0
 20
0.0
 30
0.0
  3
CDWK_PTTYP34
  1

  0
CIRCLE
  5
156
330
8E
100
AcDbEntity
  8
0
 62
     0
370
    -2
100
AcDbCircle
 10
0.0
 20
0.0
 30
0.0
 40
0.5
  0
LINE
  5
157
330
8E
100
AcDbEntity
  8
0
 62
     0
370
    -2
100
AcDbLine
 10
-0.30360678
 20
-0.40360678
 30
0.0
 11
0.40360678
 21
0.30360678
 31
0.0
  0
LINE
  5
158
330
8E
100
AcDbEntity
  8
0
 62
     0
370
    -2
100
AcDbLine
 10
-0.40360678
 20
-0.30360678
 30
0.0
 11
0.30360678
 21
0.40360678
 31
0.0
  0
ENDBLK
  5
159
330
8E
100
AcDbEntity
  8
0
100
AcDbBlockEnd
  0
BLOCK
  5
15A
330
8F
100
AcDbEntity
  8
0
100
AcDbBlockBegin
  2
CDWK_PTTYP35
 70
     0
 10
0.0
 20
0.0
 30
0.0
  3
CDWK_PTTYP35
  1

  0
CIRCLE
  5
15B
330
8F
100
AcDbEntity
  8
0
 62
     0
370
    -2
100
AcDbCircle
 10
0.0
 20
0.0
 30
0.0
 40
0.21431634
  0
LINE
  5
15C
330
8F
100
AcDbEntity
  8
0
 62
     0
370
    -2
100
AcDbLine
 10
0.0
 20
0.21431634
 30
0.0
 11
0.0
 21
0.5
 31
0.0
  0
LINE
  5
15D
330
8F
100
AcDbEntity
  8
0
 62
     0
370
    -2
100
AcDbLine
 10
0.0
 20
-0.21431634
 30
0.0
 11
0.0
 21
-0.5
 31
0.0
  0
ENDBLK
  5
15E
330
8F
100
AcDbEntity
  8
0
100
AcDbBlockEnd
  0
BLOCK
  5
15F
330
90
100
AcDbEntity
  8
0
100
AcDbBlockBegin
  2
CDWK_PTTYP36
 70
     0
 10
0.0
 20
0.0
 30
0.0
  3
CDWK_PTTYP36
  1

  0
LINE
  5
160
330
90
100
AcDbEntity
  8
0
 62
     0
370
    -2
100
AcDbLine
 10
-0.5
 20
-0.16666667
 30
0.0
 11
0.5
 21
-0.16666667
 31
0.0
  0
LINE
  5
161
330
90
100
AcDbEntity
  8
0
 62
     0
370
    -2
100
AcDbLine
 10
0.5
 20
-0.16666667
 30
0.0
 11
0.5
 21
0.16666667
 31
0.0
  0
LINE
  5
162
330
90
100
AcDbEntity
  8
0
 62
     0
370
    -2
100
AcDbLine
 10
0.5
 20
0.16666667
 30
0.0
 11
-0.5
 21
0.16666667
 31
0.0
  0
LINE
  5
163
330
90
100
AcDbEntity
  8
0
 62
     0
370
    -2
100
AcDbLine
 10
-0.5
 20
0.16666667
 30
0.0
 11
-0.5
 21
-0.16666667
 31
0.0
  0
SOLID
  5
164
330
90
100
AcDbEntity
  8
0
 62
     0
100
AcDbTrace
 10
-0.5
 20
-0.16666667
 30
0.0
 11
0.5
 21
0.16666667
 31
0.0
 12
0.5
 22
-0.16666667
 32
0.0
 13
0.5
 23
-0.16666667
 33
0.0
  0
ENDBLK
  5
165
330
90
100
AcDbEntity
  8
0
100
AcDbBlockEnd
  0
BLOCK
  5
166
330
91
100
AcDbEntity
  8
0
100
AcDbBlockBegin
  2
CDWK_PTTYP37
 70
     0
 10
0.0
 20
0.0
 30
0.0
  3
CDWK_PTTYP37
  1

  0
CIRCLE
  5
167
330
91
100
AcDbEntity
  8
0
 62
     0
370
    -2
100
AcDbCircle
 10
0.0
 20
0.0
 30
0.0
 40
0.5
  0
SOLID
  5
168
330
91
100
AcDbEntity
  8
0
 62
     0
100
AcDbTrace
 10
0.0
 20
0.0
 30
0.0
 11
0.3535000099999999
 21
0.3535000099999999
 31
0.0
 12
0.5
 22
0.0
 32
0.0
 13
0.4620000100000001
 23
0.19149999
 33
0.0
  0
SOLID
  5
169
330
91
100
AcDbEntity
  8
0
 62
     0
100
AcDbTrace
 10
0.0
 20
0.0
 30
0.0
 11
0.3535000099999999
 21
-0.3535000099999999
 31
0.0
 12
0.5
 22
0.0
 32
0.0
 13
0.4620000100000001
 23
-0.19149999
 33
0.0
  0
SOLID
  5
16A
330
91
100
AcDbEntity
  8
0
 62
     0
100
AcDbTrace
 10
0.0
 20
0.0
 30
0.0
 11
0.0
 21
-0.5
 31
0.0
 12
0.3535000099999999
 22
-0.3535000099999999
 32
0.0
 13
0.19149999
 23
-0.4620000100000001
 33
0.0
  0
SOLID
  5
16B
330
91
100
AcDbEntity
  8
0
 62
     0
100
AcDbTrace
 10
0.0
 20
0.0
 30
0.0
 11
0.0
 21
-0.5
 31
0.0
 12
-0.3535000099999999
 22
-0.3535000099999999
 32
0.0
 13
-0.19149999
 23
-0.4620000100000001
 33
0.0
  0
ENDBLK
  5
16C
330
91
100
AcDbEntity
  8
0
100
AcDbBlockEnd
  0
BLOCK
  5
16D
330
92
100
AcDbEntity
  8
0
100
AcDbBlockBegin
  2
CDWK_PTTYP38
 70
     0
 10
0.0
 20
0.0
 30
0.0
  3
CDWK_PTTYP38
  1

  0
CIRCLE
  5
16E
330
92
100
AcDbEntity
  8
0
 62
     0
370
    -2
100
AcDbCircle
 10
0.0
 20
0.0
 30
0.0
 40
0.5
  0
SOLID
  5
16F
330
92
100
AcDbEntity
  8
0
 62
     0
100
AcDbTrace
 10
0.0
 20
0.0
 30
0.0
 11
0.3535000099999999
 21
0.3535000099999999
 31
0.0
 12
0.0
 22
0.5
 32
0.0
 13
0.19149999
 23
0.4620000100000001
 33
0.0
  0
SOLID
  5
170
330
92
100
AcDbEntity
  8
0
 62
     0
100
AcDbTrace
 10
0.0
 20
0.0
 30
0.0
 11
0.5
 21
0.0
 31
0.0
 12
0.3535000099999999
 22
0.3535000099999999
 32
0.0
 13
0.4620000100000001
 23
0.19149999
 33
0.0
  0
SOLID
  5
171
330
92
100
AcDbEntity
  8
0
 62
     0
100
AcDbTrace
 10
0.0
 20
0.0
 30
0.0
 11
0.0
 21
-0.5
 31
0.0
 12
-0.3535000099999999
 22
-0.3535000099999999
 32
0.0
 13
-0.19149999
 23
-0.4620000100000001
 33
0.0
  0
SOLID
  5
172
330
92
100
AcDbEntity
  8
0
 62
     0
100
AcDbTrace
 10
0.0
 20
0.0
 30
0.0
 11
-0.5
 21
0.0
 31
0.0
 12
-0.3535000099999999
 22
-0.3535000099999999
 32
0.0
 13
-0.4620000100000001
 23
-0.19149999
 33
0.0
  0
ENDBLK
  5
173
330
92
100
AcDbEntity
  8
0
100
AcDbBlockEnd
  0
BLOCK
  5
174
330
93
100
AcDbEntity
  8
Ech.1_5
100
AcDbBlockBegin
  2
*X45
 70
     1
 10
0.0
 20
0.0
 30
0.0
  3
*X45
  1

  0
LINE
  5
175
330
93
100
AcDbEntity
  8
Ech.1_5
  6
Continuous
 62
     7
370
    -2
100
AcDbLine
 10
21972.90826763
 20
-29881.47169757
 30
0.0
 11
21955.63049153
 21
-29926.53189188
 31
0.0
  0
LINE
  5
176
330
93
100
AcDbEntity
  8
Ech.1_5
  6
Continuous
 62
     7
370
    -2
100
AcDbLine
 10
21940.14293712
 20
-29904.41470022
 30
0.0
 11
21988.39582204
 21
-29903.58888924
 31
0.0
  0
ENDBLK
  5
177
330
93
100
AcDbEntity
  8
0
100
AcDbBlockEnd
  0
BLOCK
  5
178
330
94
100
AcDbEntity
  8
Ech.1_5
100
AcDbBlockBegin
  2
*X46
 70
     1
 10
0.0
 20
0.0
 30
0.0
  3
*X46
  1

  0
LINE
  5
179
330
94
100
AcDbEntity
  8
Ech.1_5
  6
Continuous
 62
     7
370
    -2
100
AcDbLine
 10
22262.68437576
 20
-29711.52899841
 30
0.0
 11
22214.43149084
 21
-29712.35466099
 31
0.0
  0
LINE
  5
17A
330
94
100
AcDbEntity
  8
Ech.1_5
  6
Continuous
 62
     7
370
    -2
100
AcDbLine
 10
22247.19919565
 20
-29689.41180674
 30
0.0
 11
22229.91904526
 21
-29734.47185266
 31
0.0
  0
ENDBLK
  5
17B
330
94
100
AcDbEntity
  8
0
100
AcDbBlockEnd
  0
BLOCK
  5
17C
330
95
100
AcDbEntity
  8
Ech.1_5
100
AcDbBlockBegin
  2
*X47
 70
     1
 10
0.0
 20
0.0
 30
0.0
  3
*X47
  1

  0
LINE
  5
17D
330
95
100
AcDbEntity
  8
Ech.1_5
  6
Continuous
 62
     7
370
    -2
100
AcDbLine
 10
22536.97530378
 20
-29519.46925597
 30
0.0
 11
22488.72241887
 21
-29520.29491856
 31
0.0
  0
LINE
  5
17E
330
95
100
AcDbEntity
  8
Ech.1_5
  6
Continuous
 62
     7
370
    -2
100
AcDbLine
 10
22521.48774937
 20
-29497.3520643
 30
0.0
 11
22504.20759898
 21
-29542.41211022
 31
0.0
  0
ENDBLK
  5
17F
330
95
100
AcDbEntity
  8
0
100
AcDbBlockEnd
  0
BLOCK
  5
180
330
96
100
AcDbEntity
  8
Ech.1_5
100
AcDbBlockBegin
  2
*D48
 70
     1
 10
0.0
 20
0.0
 30
0.0
  3
*D48
  1

  0
TEXT
  5
181
330
96
100
AcDbEntity
  8
Ech.1_5
 62
     7
370
    18
100
AcDbText
 10
22779.08693019
 20
-29731.17903622
 30
0.0
 40
25.0
  1
1/3 *
 50
305.05345822
  7
ARIAL
100
AcDbText
  0
LINE
  5
182
330
96
100
AcDbEntity
  8
Ech.1_5
 62
     7
370
    -2
100
AcDbLine
 10
22827.40114846
 20
-29811.47162094
 30
0.0
 11
22792.24281015
 21
-29836.13867178
 31
0.0
  0
LINE
  5
183
330
96
100
AcDbEntity
  8
Ech.1_5
 62
     7
370
    -2
100
AcDbLine
 10
22736.36278
 20
-29681.71319225
 30
0.0
 11
22701.20444169
 21
-29706.3802431
 31
0.0
  0
LINE
  5
184
330
96
100
AcDbEntity
  8
Ech.1_5
 62
     7
370
    -2
100
AcDbLine
 10
22826.179768
 20
-29818.43640591
 30
0.0
 11
22729.39799503
 21
-29680.49181179
 31
0.0
  0
LINE
  5
185
330
96
100
AcDbEntity
  8
Ech.1_5
 62
     7
370
    -2
100
AcDbLine
 10
22826.79045823
 20
-29814.95401342
 30
0.0
 11
22819.82567326
 21
-29813.73263296
 31
0.0
  0
LINE
  5
186
330
96
100
AcDbEntity
  8
Ech.1_5
 62
     7
370
    -2
100
AcDbLine
 10
22735.75208977
 20
-29685.19558474
 30
0.0
 11
22728.78730479999
 21
-29683.97420428
 31
0.0
  0
ENDBLK
  5
187
330
96
100
AcDbEntity
  8
0
100
AcDbBlockEnd
  0
BLOCK
  5
188
330
97
100
AcDbEntity
  8
Ech.1_5
100
AcDbBlockBegin
  2
*D49
 70
     1
 10
0.0
 20
0.0
 30
0.0
  3
*D49
  1

  0
TEXT
  5
189
330
97
100
AcDbEntity
  8
Ech.1_5
 62
     7
370
    18
100
AcDbText
 10
22669.86750714
 20
-29575.50686519
 30
0.0
 40
25.0
  1
2/3 *
 50
305.05345822
  7
ARIAL
100
AcDbText
  0
LINE
  5
18A
330
97
100
AcDbEntity
  8
Ech.1_5
 62
     7
370
    -2
100
AcDbLine
 10
22736.36278
 20
-29681.71319225
 30
0.0
 11
22701.20444169
 21
-29706.3802431
 31
0.0
  0
LINE
  5
18B
330
97
100
AcDbEntity
  8
Ech.1_5
 62
     7
370
    -2
100
AcDbLine
 10
22608.96230236
 20
-29500.12727889
 30
0.0
 11
22573.97336518
 21
-29524.67547809
 31
0.0
  0
LINE
  5
18C
330
97
100
AcDbEntity
  8
Ech.1_5
 62
     7
370
    -2
100
AcDbLine
 10
22735.1413996
 20
-29688.67797719
 30
0.0
 11
22601.99751732
 21
-29498.90589847
 31
0.0
  0
LINE
  5
18D
330
97
100
AcDbEntity
  8
Ech.1_5
 62
     7
370
    -2
100
AcDbLine
 10
22735.75208978
 20
-29685.19558469
 30
0.0
 11
22728.78730479
 21
-29683.97420433
 31
0.0
  0
LINE
  5
18E
330
97
100
AcDbEntity
  8
Ech.1_5
 62
     7
370
    -2
100
AcDbLine
 10
22608.35161214
 20
-29503.60967133
 30
0.0
 11
22601.38682714
 21
-29502.38829097
 31
0.0
  0
ENDBLK
  5
18F
330
97
100
AcDbEntity
  8
0
100
AcDbBlockEnd
  0
ENDSEC
  0
SECTION
  2
ENTITIES
  0
INSERT
  5
190
330
64
100
AcDbEntity
  8
Ech.1_5
 62
     0
100
AcDbBlockReference
  2
*X45
 10
0.0
 20
0.0
 30
0.0
  0
INSERT
  5
191
330
64
100
AcDbEntity
  8
Ech.1_5
 62
     0
100
AcDbBlockReference
  2
*X46
 10
0.0
 20
0.0
 30
0.0
  0
INSERT
  5
192
330
64
100
AcDbEntity
  8
Ech.1_5
 62
     0
100
AcDbBlockReference
  2
*X47
 10
0.0
 20
0.0
 30
0.0
  0
LWPOLYLINE
  5
193
330
64
100
AcDbEntity
  8
Ech.1_5
  6
Continuous
 62
     7
370
    -3
100
AcDbPolyline
 90
       16
 70
     0
 43
0.0
 10
22475.40490861
 20
-30270.38674481
 42
1.14028181
 10
22466.80993302
 20
-30204.79283449
 10
22350.60992827
 20
-30235.81116739
 42
-1.303226189999999
 10
22350.64918991
 20
-30171.35932986
 10
22466.81131802
 20
-30202.51920906
 42
1.303226189999999
 10
22466.85057967
 20
-30138.06737153
 10
22350.65057492
 20
-30169.08570442
 42
-1.303226189999999
 10
22350.68983656
 20
-30104.63386690001
 10
22466.85196468
 20
-30135.7937461
 42
1.303226189999999
 10
22466.89122632
 20
-30071.34190857
 10
22350.69122157
 20
-30102.36024146
 42
-1.303226189999999
 10
22350.73048322
 20
-30037.90840394
 10
22466.89261133
 20
-30069.06828313
 42
1.303226189999999
 10
22466.93187297
 20
-30004.61644561
 10
22350.73186822
 20
-30035.63477850001
 42
-0.25507061
 10
22319.6749746
 20
-30028.0905819
  0
LWPOLYLINE
  5
194
330
64
100
AcDbEntity
  8
Ech.1_5
  6
Continuous
 62
     7
370
    -3
100
AcDbPolyline
 90
        4
 70
     0
 43
0.0
 10
22387.04951238
 20
-29980.91442605
 10
22466.93325798
 20
-30002.34282017
 42
1.303226189999999
 10
22466.97251962
 20
-29937.89098265
 10
22437.10824339
 20
-29945.86292777
  0
LWPOLYLINE
  5
195
330
64
100
AcDbEntity
  8
Ech.1_5
  6
Continuous
 62
     7
370
    -3
100
AcDbPolyline
 90
        3
 70
     0
 43
0.0
 10
22455.95984651
 20
-29932.66289411
 10
22466.97390463
 20
-29935.61735721
 42
0.56390195
 10
22508.18263037
 20
-29896.09610983
  0
LWPOLYLINE
  5
196
330
64
100
AcDbEntity
  8
Ech.1_5
 62
     7
100
AcDbPolyline
 90
        5
 70
     0
 43
0.0
 10
21719.66576126
 20
-30260.58346912
 10
21854.09454024
 20
-30260.58346912
 10
21854.09454024
 20
-30317.30642793
 10
21719.66576126
 20
-30317.30642793
 10
21719.66576126
 20
-30260.58346912
  0
LWPOLYLINE
  5
197
330
64
100
AcDbEntity
  8
Ech.1_5
 62
     7
100
AcDbPolyline
 90
        5
 70
     0
 43
0.0
 10
21737.94580704
 20
-30294.24028025
 10
21787.94580704
 20
-30294.24028025
 10
21787.94580704
 20
-30286.82514271
 10
21737.94580704
 20
-30286.82514271
 10
21737.94580704
 20
-30294.24028025
  0
LWPOLYLINE
  5
198
330
64
100
AcDbEntity
  8
Ech.1_5
 62
     7
100
AcDbPolyline
 90
        5
 70
     0
 43
0.0
 10
21787.94580704
 20
-30294.24028025
 10
21837.94580704
 20
-30294.24028025
 10
21837.94580704
 20
-30286.82514271
 10
21787.94580704
 20
-30286.82514271
 10
21787.94580704
 20
-30294.24028025
  0
LWPOLYLINE
  5
199
330
64
100
AcDbEntity
  8
Ech.1_5
  6
Continuous
 62
     7
370
    -3
100
AcDbPolyline
 90
        5
 70
     0
 43
0.0
 10
21924.17374451
 20
-29466.35839434
 10
22903.20349666
 20
-29466.35839434
 10
22903.20349666
 20
-30270.40706814
 10
21924.17374451
 20
-30270.40706814
 10
21924.17374451
 20
-29466.35839434
  0
LWPOLYLINE
  5
19A
330
64
100
AcDbEntity
  8
Ech.1_5
 62
     7
100
AcDbPolyline
 90
        4
 70
     0
 43
0.0
 10
22211.7676401
 20
-30270.40706814
 10
22211.7676401
 20
-30048.71331324
 10
22308.7676401
 20
-29980.79318203
 10
22308.7676401
 20
-30270.40706814
  0
LWPOLYLINE
  5
19B
330
64
100
AcDbEntity
  8
Ech.1_5
 62
     7
100
AcDbPolyline
 90
        4
 70
     0
 43
0.0
 10
22308.7676401
 20
-30270.40706814
 10
22308.7676401
 20
-30035.72797919
 10
22508.7676401
 20
-29895.68648163
 10
22508.7676401
 20
-30270.40706814
  0
LINE
  5
19C
330
64
100
AcDbEntity
  8
Ech.1_5
 62
     7
100
AcDbLine
 10
22659.89836171
 20
-29466.35839434
 30
0.0
 11
21924.17374451
 21
-29981.51831734
 31
0.0
  0
LINE
  5
19D
330
64
100
AcDbEntity
  8
Ech.1_5
 62
     7
100
AcDbLine
 10
21924.17374451
 20
-30250.08872687
 30
0.0
 11
22903.20349666
 21
-29564.56471428
 31
0.0
  0
LWPOLYLINE
  5
19E
330
64
100
AcDbEntity
  8
Ech.1_5
 62
     7
100
AcDbPolyline
 90
        4
 70
     0
 43
0.0
 10
22308.7676401
 20
-30270.40706814
 10
22308.7676401
 20
-30035.72797919
 10
22508.7676401
 20
-29895.68648163
 10
22508.7676401
 20
-30270.40706814
  0
LWPOLYLINE
  5
19F
330
64
100
AcDbEntity
  8
Ech.1_5
 62
     7
100
AcDbPolyline
 90
        4
 70
     0
 43
0.0
 10
22903.20349666
 20
-29758.4567107
 10
22513.18779602
 20
-30031.54676616
 10
22520.64428969
 20
-30042.19574274
 10
22903.20349666
 20
-29774.32474003
  0
LWPOLYLINE
  5
1A0
330
64
100
AcDbEntity
  8
Ech.1_5
 62
     7
100
AcDbPolyline
 90
        4
 70
     0
 43
0.0
 10
22561.7676401
 20
-30270.40706814
 10
22561.7676401
 20
-30022.53868322
 10
22548.7676401
 20
-30022.53868322
 10
22548.7676401
 20
-30270.40706814
  0
LINE
  5
1A1
330
64
100
AcDbEntity
  8
Ech.1_5
 62
     7
100
AcDbLine
 10
21924.17374451
 20
-29881.81653158
 30
0.0
 11
21934.09937992
 21
-29876.51283335
 31
0.0
  0
LINE
  5
1A2
330
64
100
AcDbEntity
  8
Ech.1_5
 62
     7
100
AcDbLine
 10
21924.17374451
 20
-29836.32167894
 30
0.0
 11
22208.38932426
 21
-29684.45294668
 31
0.0
  0
LINE
  5
1A3
330
64
100
AcDbEntity
  8
Ech.1_5
 62
     7
100
AcDbLine
 10
22189.20702173
 20
-29649.20803167
 30
0.0
 11
22482.67926859
 21
-29492.39306
 31
0.0
  0
LINE
  5
1A4
330
64
100
AcDbEntity
  8
Ech.1_5
 62
     7
100
AcDbLine
 10
22612.82529822
 20
-29466.35839434
 30
0.0
 11
21924.17374451
 21
-29948.55740344
 31
0.0
  0
LINE
  5
1A5
330
64
100
AcDbEntity
  8
Ech.1_5
 62
     7
100
AcDbLine
 10
21924.17374451
 20
-29981.51831734
 30
0.0
 11
22659.89836171
 21
-29466.35839434
 31
0.0
  0
LWPOLYLINE
  5
1A6
330
64
100
AcDbEntity
  8
Ech.1_5
  6
Continuous
 62
     7
370
    -3
100
AcDbPolyline
 90
        4
 70
     0
 43
0.0
 10
22508.7676401
 20
-30048.40082048
 10
22548.7676401
 20
-30093.40082048
 10
22548.7676401
 20
-30048.40082048
 10
22508.7676401
 20
-30093.40082048
  0
LWPOLYLINE
  5
1A7
330
64
100
AcDbEntity
  8
Ech.1_5
  6
Continuous
 62
     7
370
    -3
100
AcDbPolyline
 90
        4
 70
     0
 43
0.0
 10
22308.76759888
 20
-29980.79314459
 10
22508.7676401
 20
-29895.68648163
 10
22508.7676833
 20
-29840.75158471
 10
22308.7676401
 20
-30035.72797919
  0
LWPOLYLINE
  5
1A8
330
64
100
AcDbEntity
  8
Ech.1_5
  6
Continuous
 62
     7
370
    -3
100
AcDbPolyline
 90
       50
 70
     0
 43
0.0
 10
22565.61595818
 20
-29974.49537757
 42
1.14028181
 10
22589.98160887
 20
-29952.16835372
 10
22543.96947128
 20
-29913.53344301
 42
-1.303226189999999
 10
22570.34413546
 20
-29895.06569994
 10
22590.9120107
 20
-29951.51687919
 42
1.303226189999999
 10
22617.28667488
 20
-29933.04913612
 10
22571.27453728
 20
-29894.41422541
 42
-1.303226189999999
 10
22597.64920146
 20
-29875.94648233
 10
22618.2170767
 20
-29932.39766159
 42
1.303226189999999
 10
22644.59174088
 20
-29913.92991852
 10
22598.57960328
 20
-29875.29500781
 42
-1.303226189999999
 10
22624.95426746
 20
-29856.82726473
 10
22645.52214271
 20
-29913.27844399
 42
1.303226189999999
 10
22671.89680688
 20
-29894.81070091
 10
22625.88466929
 20
-29856.17579021
 42
-1.303226189999999
 10
22652.25933346
 20
-29837.70804713
 10
22672.82720871
 20
-29894.15922639
 42
1.303226189999999
 10
22699.20187288
 20
-29875.69148331001
 10
22653.18973529
 20
-29837.0565726
 42
-1.303226189999999
 10
22679.56439947
 20
-29818.58882953
 10
22700.13227471
 20
-29875.04000878
 42
1.303226189999999
 10
22726.50693889
 20
-29856.57226571
 10
22680.49480129
 20
-29817.937355
 42
-1.303226189999999
 10
22706.86946547
 20
-29799.46961193
 10
22727.43734071
 20
-29855.92079118
 42
1.303226189999999
 10
22753.81200489
 20
-29837.45304811
 10
22707.79986729
 20
-29798.8181374
 42
-1.303226189999999
 10
22734.17453147
 20
-29780.35039432
 10
22754.74240671
 20
-29836.80157358
 42
1.303226189999999
 10
22781.11707089
 20
-29818.33383051
 10
22735.1049333
 20
-29779.6989198
 42
-1.303226189999999
 10
22761.47959747
 20
-29761.23117672
 10
22782.04747272
 20
-29817.68235598
 42
1.303226189999999
 10
22808.42213689
 20
-29799.2146129
 10
22762.4099993
 20
-29760.57970219
 42
-1.303226189999999
 10
22788.78466347
 20
-29742.11195912
 10
22809.35253872
 20
-29798.56313838
 42
1.303226189999999
 10
22835.7272029
 20
-29780.0953953
 10
22789.7150653
 20
-29741.46048459
 42
-1.303226189999999
 10
22816.08972948
 20
-29722.99274152
 10
22836.65760472
 20
-29779.44392077
 42
1.303226189999999
 10
22863.0322689
 20
-29760.9761777
 10
22817.0201313
 20
-29722.34126699
 42
-1.303226189999999
 10
22843.39479548
 20
-29703.87352391
 10
22863.96267072
 20
-29760.32470317
 42
1.303226189999999
 10
22890.3373349
 20
-29741.8569601
 10
22844.32519731
 20
-29703.22204939
 42
-1.303226189999999
 10
22870.69986148
 20
-29684.75430631
 10
22891.26773673
 20
-29741.20548557
 42
0.25435118
 10
22903.20349666
 20
-29751.75004266
  0
LWPOLYLINE
  5
1A9
330
64
100
AcDbEntity
  8
Ech.1_5
  6
Continuous
 62
     7
370
    -3
100
AcDbPolyline
 90
        4
 70
     0
 43
0.0
 10
22903.20349666
 20
-29710.61385942
 10
22871.63026331
 20
-29684.10283178
 42
-1.303226189999999
 10
22898.00492748
 20
-29665.63508871
 10
22903.20349666
 20
-29679.90323051
  0
LWPOLYLINE
  5
1AA
330
64
100
AcDbEntity
  8
Ech.1_5
  6
Continuous
 62
     7
370
    -3
100
AcDbPolyline
 90
        3
 70
     0
 43
0.0
 10
22903.20349666
 20
-29668.56745691
 10
22898.93532931
 20
-29664.98361418
 42
-0.5614659400000001
 10
22903.20349666
 20
-29636.84608551
  0
LWPOLYLINE
  5
1AB
330
64
100
AcDbEntity
  8
Ech.1_5
 62
     7
370
    50
100
AcDbPolyline
 90
        3
 70
     0
 43
0.0
 10
22511.25593375
 20
-30008.47593073
 10
22511.25593375
 20
-30031.55444763
 10
22528.60981285
 20
-30019.40322944
  0
LWPOLYLINE
  5
1AC
330
64
100
AcDbEntity
  8
Ech.1_5
  6
Continuous
 62
     7
370
    -3
100
AcDbPolyline
 90
        4
 70
     0
 43
0.0
 10
22903.20349666
 20
-29565.11022154
 10
22518.79404674
 20
-29834.27668027
 10
22552.28118254
 20
-29882.10126651
 10
22903.20349666
 20
-29636.84608551
  0
LINE
  5
1AD
330
64
100
AcDbEntity
  8
Ech.1_5
 62
     1
100
AcDbLine
 10
22509.03022331
 20
-29839.35097824
 30
0.0
 11
22509.03022331
 21
-29839.35097824
 31
0.0
  0
LINE
  5
1AE
330
64
100
AcDbEntity
  8
Ech.1_5
 62
     1
100
AcDbLine
 10
22513.03022327
 20
-29839.35154038
 30
0.0
 11
22513.03022327
 21
-29839.35154038
 31
0.0
  0
LWPOLYLINE
  5
1AF
330
64
100
AcDbEntity
  8
Ech.1_5
 62
     3
370
    70
100
AcDbPolyline
 90
        4
 70
     0
 43
0.0
 10
22515.04428127
 20
-30003.87455925
 10
22515.04428127
 20
-29990.88542583
 10
22520.72489423
 20
-29986.95069369
 10
22520.72489423
 20
-29973.47226369
  0
LWPOLYLINE
  5
1B0
330
64
100
AcDbEntity
  8
Ech.1_5
  6
Continuous
 62
     7
370
    -3
100
AcDbPolyline
 90
        4
 70
     0
 43
0.0
 10
22018.75037401
 20
-29915.29504838
 10
22115.44771641
 20
-30116.15724983
 10
22144.93719001
 20
-30095.50849812
 10
21989.26090041
 20
-29935.94380009
  0
LWPOLYLINE
  5
1B1
330
64
100
AcDbEntity
  8
Ech.1_5
  6
Continuous
 62
     7
370
    -3
100
AcDbPolyline
 90
        5
 70
     0
 43
0.0
 10
22508.7676401
 20
-30093.40082048
 10
22548.7676401
 20
-30093.40082048
 10
22548.7676401
 20
-30048.40082048
 10
22508.7676401
 20
-30048.40082048
 10
22508.7676401
 20
-30093.40082048
  0
LWPOLYLINE
  5
1B2
330
64
100
AcDbEntity
  8
Ech.1_5
  6
Continuous
 62
     7
370
    -3
100
AcDbPolyline
 90
        5
 70
     0
 43
0.0
 10
21940.1428932
 20
-29904.4147713
 10
21972.90897497
 20
-29881.47171384
 10
21988.39553875
 20
-29903.58881904
 10
21955.62945698
 20
-29926.53187649
 10
21940.1428932
 20
-29904.4147713
  0
LWPOLYLINE
  5
1B3
330
64
100
AcDbEntity
  8
Ech.1_5
  6
Continuous
 62
     7
370
    -3
100
AcDbPolyline
 90
        5
 70
     0
 43
0.0
 10
22214.43283753
 20
-29712.35488462
 10
22247.1989193
 20
-29689.41182717
 10
22262.68548308
 20
-29711.52893236
 10
22229.91940131
 20
-29734.47198982
 10
22214.43283753
 20
-29712.35488462
  0
LWPOLYLINE
  5
1B4
330
64
100
AcDbEntity
  8
Ech.1_5
  6
Continuous
 62
     7
370
    -3
100
AcDbPolyline
 90
        5
 70
     0
 43
0.0
 10
22488.72278187
 20
-29520.29499794
 10
22521.48886364
 20
-29497.35194049
 10
22536.97542742
 20
-29519.46904569
 10
22504.20934565
 20
-29542.41210314
 10
22488.72278187
 20
-29520.29499794
  0
LWPOLYLINE
  5
1B5
330
64
100
AcDbEntity
  8
Ech.1_5
  6
Continuous
 62
     7
370
    -3
100
AcDbPolyline
 90
        5
 70
     0
 43
0.0
 10
22488.72278187
 20
-29520.29499794
 10
22521.48886364
 20
-29497.35194049
 10
22536.97542742
 20
-29519.46904569
 10
22504.20934565
 20
-29542.41210314
 10
22488.72278187
 20
-29520.29499794
  0
LWPOLYLINE
  5
1B6
330
64
100
AcDbEntity
  8
Ech.1_5
  6
Continuous
 62
     7
370
    -3
100
AcDbPolyline
 90
        5
 70
     0
 43
0.0
 10
22488.72278189
 20
-29520.29499797
 10
22521.48886366
 20
-29497.35194052
 10
22536.97542744
 20
-29519.46904571
 10
22504.20934567
 20
-29542.41210317
 10
22488.72278189
 20
-29520.29499797
  0
LWPOLYLINE
  5
1B7
330
64
100
AcDbEntity
  8
Ech.1_5
  6
Continuous
 62
     7
370
    -3
100
AcDbPolyline
 90
        5
 70
     0
 43
0.0
 10
22115.44771641
 20
-30116.15724983
 10
22144.93719001
 20
-30095.50849812
 10
22018.75037401
 20
-29915.29504838
 10
21989.26090041
 20
-29935.94380009
 10
22115.44771641
 20
-30116.15724983
  0
LWPOLYLINE
  5
1B8
330
64
100
AcDbEntity
  8
Ech.1_5
  6
Continuous
 62
     7
370
    -3
100
AcDbPolyline
 90
        5
 70
     0
 43
0.0
 10
22508.7676833
 20
-29840.75158471
 10
22308.76759888
 20
-29980.79314459
 10
22308.7676401
 20
-30035.72797919
 10
22508.7676401
 20
-29895.68648163
 10
22508.7676833
 20
-29840.75158471
  0
LWPOLYLINE
  5
1B9
330
64
100
AcDbEntity
  8
Ech.1_5
  6
CADWORK_22
 62
     1
370
    35
100
AcDbPolyline
 90
        5
 70
     0
 43
0.0
 10
22903.20349666
 20
-29566.39587617
 10
22516.27685778
 20
-29837.32482544
 10
22516.27685778
 20
-29895.68648163
 10
22516.27685778
 20
-29983.47156769
 10
22516.27685778
 20
-29987.06821923
  0
LINE
  5
1BA
330
64
100
AcDbEntity
  8
Ech.1_5
  6
CADWORK_22
 62
   150
370
    35
100
AcDbLine
 10
21924.17374451
 20
-29979.68715546
 30
2500.0
 11
22657.28319151
 21
-29466.35839434
 31
2500.0
  0
LINE
  5
1BB
330
64
100
AcDbEntity
  8
Ech.1_5
  6
CADWORK_22
 62
     1
370
    35
100
AcDbLine
 10
22510.26763708
 20
-29839.70130576
 30
0.0
 11
22510.26763708
 21
-30270.40706814
 31
0.0
  0
LINE
  5
1BC
330
64
100
AcDbEntity
  8
Ech.1_5
  6
Continuous
 62
     7
370
    -3
100
AcDbLine
 10
22571.02902072
 20
-29828.17419594
 30
0.0
 11
22632.06969256
 21
-29915.34928898
 31
0.0
  0
ARC
  5
1BD
330
64
100
AcDbEntity
  8
Ech.1_5
  6
Continuous
 62
     7
370
    -3
100
AcDbCircle
 10
22605.8568292
 20
-29933.70373788
 30
0.0
 40
5.0
100
AcDbArc
 50
305.00001643
 51
35.00000642
  0
LINE
  5
1BE
330
64
100
AcDbEntity
  8
Ech.1_5
  6
Continuous
 62
     7
370
    -3
100
AcDbLine
 10
22613.74446795
 20
-29945.36962182
 30
0.0
 11
22612.59731489
 21
-29943.73131786
 31
0.0
  0
LINE
  5
1BF
330
64
100
AcDbEntity
  8
Ech.1_5
  6
Continuous
 62
     7
370
    -3
100
AcDbLine
 10
22605.44810392
 20
-29940.09380389
 30
0.0
 11
22608.72471184
 21
-29937.79949778
 31
0.0
  0
ARC
  5
1C0
330
64
100
AcDbEntity
  8
Ech.1_5
  6
Continuous
 62
     7
370
    -3
100
AcDbCircle
 10
22613.56753007
 20
-29927.68877172
 30
0.0
 40
14.82598747
100
AcDbArc
 50
236.79418751
 51
273.13517478
  0
ARC
  5
1C1
330
64
100
AcDbEntity
  8
Ech.1_5
  6
Continuous
 62
     7
370
    -3
100
AcDbCircle
 10
22620.10407983
 20
-29939.56151379
 30
0.0
 40
12.47697948
100
AcDbArc
 50
224.36226039
 51
289.61219747
  0
LINE
  5
1C2
330
64
100
AcDbEntity
  8
Ech.1_5
  6
Continuous
 62
     7
370
    -3
100
AcDbLine
 10
22613.74446795
 20
-29945.36962182
 30
0.0
 11
22610.36103119
 21
-29947.7387303
 31
0.0
  0
LINE
  5
1C3
330
64
100
AcDbEntity
  8
Ech.1_5
  6
Continuous
 62
     7
370
    -3
100
AcDbLine
 10
22610.36103119
 20
-29947.7387303
 30
0.0
 11
22616.62431689
 21
-29956.68362715
 31
0.0
  0
LINE
  5
1C4
330
64
100
AcDbEntity
  8
Ech.1_5
  6
Continuous
 62
     7
370
    -3
100
AcDbLine
 10
22612.59731489
 20
-29943.73131786
 30
0.0
 11
22607.57557417
 21
-29947.2475794
 31
0.0
  0
LINE
  5
1C5
330
64
100
AcDbEntity
  8
Ech.1_5
  6
Continuous
 62
     7
370
    -3
100
AcDbLine
 10
22607.57557417
 20
-29947.2475794
 30
0.0
 11
22616.13316598
 21
-29959.46908417
 31
0.0
  0
ARC
  5
1C6
330
64
100
AcDbEntity
  8
Ech.1_5
  6
Continuous
 62
     7
370
    -3
100
AcDbCircle
 10
22627.87601929
 20
-29917.66985732
 30
0.0
 40
14.82598747
100
AcDbArc
 50
336.86485808
 51
13.20583534
  0
ARC
  5
1C7
330
64
100
AcDbEntity
  8
Ech.1_5
  6
Continuous
 62
     7
370
    -3
100
AcDbCircle
 10
22644.48755786
 20
-29921.12659479
 30
0.0
 40
3.804859969999999
100
AcDbArc
 50
218.49678304
 51
339.25391723
  0
ARC
  5
1C8
330
64
100
AcDbEntity
  8
Ech.1_5
  6
Continuous
 62
     7
370
    -3
100
AcDbCircle
 10
22636.797118
 20
-29927.87291984
 30
0.0
 40
12.47697948
100
AcDbArc
 50
320.3878354
 51
25.63776246
  0
LINE
  5
1C9
330
64
100
AcDbEntity
  8
Ech.1_5
  6
Continuous
 62
     7
370
    -3
100
AcDbLine
 10
22642.30994302
 20
-29914.28286013
 30
0.0
 11
22639.0333351
 21
-29916.57716624
 31
0.0
  0
ARC
  5
1CA
330
64
100
AcDbEntity
  8
Ech.1_5
  6
Continuous
 62
     7
370
    -3
100
AcDbCircle
 10
22636.16545246
 20
-29912.48140634
 30
0.0
 40
5.0
100
AcDbArc
 50
215.00001643
 51
305.00001643
  0
LINE
  5
1CB
330
64
100
AcDbEntity
  8
Ech.1_5
  6
Continuous
 62
     7
370
    -3
100
AcDbLine
 10
22644.43006873
 20
-29923.88332771
 30
0.0
 11
22643.28291567
 21
-29922.24502375
 31
0.0
  0
LINE
  5
1CC
330
64
100
AcDbEntity
  8
Ech.1_5
  6
Continuous
 62
     7
370
    -3
100
AcDbLine
 10
22644.43006873
 20
-29923.88332771
 30
0.0
 11
22647.81350549
 21
-29921.51421923
 31
0.0
  0
LINE
  5
1CD
330
64
100
AcDbEntity
  8
Ech.1_5
  6
Continuous
 62
     7
370
    -3
100
AcDbLine
 10
22647.81350549
 20
-29921.51421923
 30
0.0
 11
22654.07679118
 21
-29930.45911608
 31
0.0
  0
LINE
  5
1CE
330
64
100
AcDbEntity
  8
Ech.1_5
  6
Continuous
 62
     7
370
    -3
100
AcDbLine
 10
22643.28291567
 20
-29922.24502375
 30
0.0
 11
22648.30465639
 21
-29918.72876221
 31
0.0
  0
LINE
  5
1CF
330
64
100
AcDbEntity
  8
Ech.1_5
  6
Continuous
 62
     7
370
    -3
100
AcDbLine
 10
22648.30465639
 20
-29918.72876221
 30
0.0
 11
22656.8622482
 21
-29930.95026698
 31
0.0
  0
LINE
  5
1D0
330
64
100
AcDbEntity
  8
Ech.1_5
  6
Continuous
 62
     7
370
    -3
100
AcDbLine
 10
22548.91191726
 20
-29843.66076219
 30
0.0
 11
22609.9525891
 21
-29930.83585524
 31
0.0
  0
LINE
  5
1D1
330
64
100
AcDbEntity
  8
Ech.1_5
  6
Continuous
 62
     7
370
    -3
100
AcDbLine
 10
22548.91191726
 20
-29843.66076219
 30
0.0
 11
22571.02902072
 21
-29828.17419594
 31
0.0
  0
LINE
  5
1D2
330
64
100
AcDbEntity
  8
Ech.1_5
  6
Continuous
 62
     7
370
    -3
100
AcDbLine
 10
22654.07679118
 20
-29930.45911608
 30
0.0
 11
22616.62431689
 21
-29956.68362715
 31
0.0
  0
LINE
  5
1D3
330
64
100
AcDbEntity
  8
Ech.1_5
  6
Continuous
 62
     7
370
    -3
100
AcDbLine
 10
22616.13316598
 20
-29959.46908417
 30
0.0
 11
22656.8622482
 21
-29930.95026698
 31
0.0
  0
ARC
  5
1D4
330
64
100
AcDbEntity
  8
Ech.1_5
  6
Continuous
 62
     7
370
    -3
100
AcDbCircle
 10
22611.13432372
 20
-29944.48078632
 30
0.0
 40
3.804859969999999
100
AcDbArc
 50
270.74611563
 51
31.50323981
  0
LINE
  5
1D5
330
64
100
AcDbEntity
  8
Ech.1_5
  6
Continuous
 62
     7
370
    -3
100
AcDbLine
 10
22553.98782228
 20
-29830.67271398
 30
0.0
 11
22553.98782228
 21
-29830.67271398
 31
0.0
  0
LWPOLYLINE
  5
1D6
330
64
100
AcDbEntity
  8
Ech.1_5
  6
Continuous
 62
     7
370
    -3
100
AcDbPolyline
 90
       44
 70
     0
 43
0.0
 10
22123.74125986
 20
-30065.20643951
 42
1.14028181
 10
22177.826932
 20
-30015.69404881
 10
22075.778043
 20
-29929.92280534
 42
-1.303226189999999
 10
22134.31711554
 20
-29888.97541929
 10
22179.89197668
 20
-30014.24957458
 42
1.303226189999999
 10
22238.43104922
 20
-29973.30218852
 10
22136.38216022
 20
-29887.53094505
 42
-1.303226189999999
 10
22194.92123277
 20
-29846.583559
 10
22240.4960939
 20
-29971.85771429
 42
1.303226189999999
 10
22299.03516644
 20
-29930.91032824
 10
22196.98627745
 20
-29845.13908477
 42
-1.303226189999999
 10
22255.52534999
 20
-29804.19169872
 10
22301.10021112
 20
-29929.46585401
 42
1.303226189999999
 10
22359.63928367
 20
-29888.51846796
 10
22257.59039467
 20
-29802.74722449
 42
-1.303226189999999
 10
22316.12946722
 20
-29761.79983843
 10
22361.70432835
 20
-29887.07399373
 42
1.303226189999999
 10
22420.24340089
 20
-29846.12660767
 10
22318.1945119
 20
-29760.3553642
 42
-1.303226189999999
 10
22376.73358444
 20
-29719.40797815
 10
22422.30844557
 20
-29844.68213344
 42
1.303226189999999
 10
22480.84751812
 20
-29803.73474739
 10
22378.79862912
 20
-29717.96350392
 42
-1.303226189999999
 10
22437.33770166
 20
-29677.01611787
 10
22482.9125628
 20
-29802.29027316
 42
1.303226189999999
 10
22541.45163534
 20
-29761.3428871
 10
22439.40274635
 20
-29675.57164363
 42
-1.303226189999999
 10
22497.94181889
 20
-29634.62425758
 10
22543.51668002
 20
-29759.89841287
 42
1.303226189999999
 10
22602.05575256
 20
-29718.95102682
 10
22500.00686357
 20
-29633.17978335
 42
-1.303226189999999
 10
22558.54593611
 20
-29592.2323973
 10
22604.12079725
 20
-29717.50655259
 42
1.303226189999999
 10
22662.65986979
 20
-29676.55916654
 10
22560.61098079
 20
-29590.78792307
 42
-1.303226189999999
 10
22619.15005334
 20
-29549.84053701
 10
22664.72491447
 20
-29675.11469231
 42
1.303226189999999
 10
22723.26398701
 20
-29634.16730625
 10
22621.21509802
 20
-29548.39606278
 42
-1.303226189999999
 10
22679.75417056
 20
-29507.44867673
 10
22725.32903169
 20
-29632.72283202
 42
1.303226189999999
 10
22783.86810424
 20
-29591.77544597
 10
22681.81921524
 20
-29506.0042025
 42
-0.30483781
 10
22670.40156471
 20
-29466.35843393
  0
LWPOLYLINE
  5
1D7
330
64
100
AcDbEntity
  8
Ech.1_5
  6
Continuous
 62
     7
370
    -3
100
AcDbPolyline
 90
        3
 70
     0
 43
0.0
 10
22816.85813527
 20
-29466.35843393
 10
22846.53726614
 20
-29547.93911145
 42
0.5004996600000001
 10
22903.19759794
 20
-29565.10178862
  0
LWPOLYLINE
  5
1D8
330
64
100
AcDbEntity
  8
Ech.1_5
  6
Continuous
 62
     7
370
    -3
100
AcDbPolyline
 90
        4
 70
     0
 43
0.0
 10
22740.83181751
 20
-29466.35843393
 10
22785.93314892
 20
-29590.33097174
 42
1.303226189999999
 10
22844.47222146
 20
-29549.38358568
 10
22745.69057679
 20
-29466.35843393
  0
LWPOLYLINE
  5
1D9
330
64
100
AcDbEntity
  8
Ech.1_5
  6
Continuous
 62
     7
370
    -3
100
AcDbPolyline
 90
        5
 70
     0
 43
0.0
 10
23013.22237299
 20
-30503.33710321
 10
23013.22237299
 20
-29518.33710321
 10
21658.22237299
 20
-29518.33710321
 10
21658.22237299
 20
-30503.33710321
 10
23013.22237299
 20
-30503.33710321
  0
LWPOLYLINE
  5
1DA
330
64
100
AcDbEntity
  8
Ech.1_5
  6
Continuous
 62
     7
370
     5
100
AcDbPolyline
 90
        5
 70
     0
 43
0.0
 10
21737.94580704
 20
-30294.24028025
 10
21787.94580704
 20
-30294.24028025
 10
21787.94580704
 20
-30286.82514271
 10
21737.94580704
 20
-30286.82514271
 10
21737.94580704
 20
-30294.24028025
  0
LWPOLYLINE
  5
1DB
330
64
100
AcDbEntity
  8
Ech.1_5
  6
Continuous
 62
     7
370
    -3
100
AcDbPolyline
 90
        5
 70
     0
 43
0.0
 10
22575.17556698
 20
-29988.14791057
 10
22903.20349666
 20
-29758.46022673
 10
22903.20349666
 20
-29636.38275828
 10
22517.81792334
 20
-29906.23270614
 10
22575.17556698
 20
-29988.14791057
  0
LWPOLYLINE
  5
1DC
330
64
100
AcDbEntity
  8
Ech.1_5
  6
Continuous
 62
     7
370
    -3
100
AcDbPolyline
 90
       14
 70
     0
 43
0.0
 10
21987.7742683
 20
-29899.46633504
 10
22009.05068774
 20
-29887.17503991
 10
21982.26207183
 20
-29837.99203405
 10
21973.67879635
 20
-29842.66710557
 10
21978.93144626
 20
-29852.31079572
 10
21963.61609646
 20
-29860.65264096
 10
21958.36344655
 20
-29851.00895082
 10
21949.83111215
 20
-29855.65627615
 10
21955.08376205
 20
-29865.29996629
 10
21934.09937992
 20
-29876.51283335
 10
21924.17374451
 20
-29858.32308748
 10
21924.17374451
 20
-29903.39472035
 10
21973.66784035
 20
-29875.04789299
 10
21987.7742683
 20
-29899.46633504
  0
LWPOLYLINE
  5
1DD
330
64
100
AcDbEntity
  8
Ech.1_5
  6
Continuous
 62
     7
370
    -3
100
AcDbPolyline
 90
       22
 70
     0
 43
0.0
 10
22262.06421263
 20
-29707.40644837
 10
22283.34063207
 20
-29695.11515324
 10
22256.55201617
 20
-29645.93214738
 10
22247.96874069
 20
-29650.6072189
 10
22253.2213906
 20
-29660.25090905
 10
22237.90604079
 20
-29668.59275429
 10
22232.65339088
 20
-29658.94906414
 10
22224.12105648
 20
-29663.59638947
 10
22229.37370639
 20
-29673.24007962
 10
22208.38932426
 20
-29684.45294668
 10
22180.32000372
 20
-29633.01303514
 10
21924.17374451
 20
-29772.52878116
 10
21924.17374451
 20
-29858.26285062
 10
21933.34288986
 20
-29875.09709585
 10
21951.68474701
 20
-29865.1067962
 10
21946.5226677
 20
-29855.62939064
 10
21960.68998847
 20
-29847.51531988
 10
21965.77496923
 20
-29856.85117506
 10
21975.15167794
 20
-29851.43429115
 10
21970.08602195
 20
-29842.13391559999
 10
22247.95778469
 20
-29682.98800631
 10
22262.06421263
 20
-29707.40644837
  0
LWPOLYLINE
  5
1DE
330
64
100
AcDbEntity
  8
Ech.1_5
  6
Continuous
 62
     7
370
    -3
100
AcDbPolyline
 90
       23
 70
     0
 43
0.0
 10
22536.35415697
 20
-29515.34656169
 10
22557.63057641
 20
-29503.05526656
 10
22537.64281035
 20
-29466.35839434
 10
22526.51315339
 20
-29466.35839434
 10
22527.51133493
 20
-29468.19102237
 10
22512.19598513
 20
-29476.53286761
 10
22506.94333522
 20
-29466.88917746
 10
22498.41100082
 20
-29471.5365028
 10
22503.66365073
 20
-29481.18019294
 10
22482.67926859
 20
-29492.39306
 10
22468.47287994
 20
-29466.35839434
 10
22407.96676346
 20
-29466.35839434
 10
22182.04062687
 20
-29589.41407975
 42
0.41421356
 10
22173.12076011
 20
-29619.67419154
 10
22207.6328342
 20
-29683.03720917
 10
22225.97469135
 20
-29673.04690952
 10
22220.81261204
 20
-29663.56950397
 10
22234.97993281
 20
-29655.4554332
 10
22240.06491357
 20
-29664.79128838
 10
22249.44162228
 20
-29659.37440447
 10
22244.37596628
 20
-29650.07402893
 10
22522.24772902
 20
-29490.92811964
 10
22536.35415697
 20
-29515.34656169
  0
LWPOLYLINE
  5
1DF
330
64
100
AcDbEntity
  8
Ech.1_5
  6
Continuous
 62
     7
370
    -3
100
AcDbPolyline
 90
        6
 70
     0
 43
0.0
 10
22500.2646357
 20
-29480.98702287
 10
22495.10255639
 20
-29471.50961732
 10
22504.09668898
 20
-29466.35839434
 10
22468.51353283
 20
-29466.35839434
 10
22481.92277855
 20
-29490.97732252
 10
22500.2646357
 20
-29480.98702287
  0
LWPOLYLINE
  5
1E0
330
64
100
AcDbEntity
  8
Ech.1_5
  6
Continuous
 62
     7
370
    -3
100
AcDbPolyline
 90
        5
 70
     0
 43
0.0
 10
22523.73156663
 20
-29467.31451782
 10
22523.21079275
 20
-29466.35839434
 10
22510.88365798
 20
-29466.35839434
 10
22514.35485792
 20
-29472.73140173
 10
22523.73156663
 20
-29467.31451782
  0
LWPOLYLINE
  5
1E1
330
64
100
AcDbEntity
  8
Ech.1_5
  6
Continuous
 62
     7
370
    -3
100
AcDbPolyline
 90
        6
 70
     0
 43
0.0
 10
21924.17374451
 20
-29981.51831734
 10
21924.17374451
 20
-30250.08872687
 10
22903.20349666
 20
-29564.56471428
 10
22903.20349666
 20
-29466.35839434
 10
22659.89836171
 20
-29466.35839434
 10
21924.17374451
 20
-29981.51831734
  0
LWPOLYLINE
  5
1E2
330
64
100
AcDbEntity
  8
Ech.1_5
  6
Continuous
 62
     7
370
    -3
100
AcDbPolyline
 90
        5
 70
     0
 43
0.0
 10
22211.7676401
 20
-30048.71331324
 10
22211.7676401
 20
-30270.40706814
 10
22308.7676401
 20
-30270.40706814
 10
22308.7676401
 20
-29980.79318203
 10
22211.7676401
 20
-30048.71331324
  0
LWPOLYLINE
  5
1E3
330
64
100
AcDbEntity
  8
Ech.1_5
  6
Continuous
 62
     7
370
    -3
100
AcDbPolyline
 90
        5
 70
     0
 43
0.0
 10
22308.7676401
 20
-30035.72797919
 10
22308.7676401
 20
-30270.40706814
 10
22508.7676401
 20
-30270.40706814
 10
22508.7676401
 20
-29895.68648163
 10
22308.7676401
 20
-30035.72797919
  0
LWPOLYLINE
  5
1E4
330
64
100
AcDbEntity
  8
Ech.1_5
  6
Continuous
 62
     7
370
    -3
100
AcDbPolyline
 90
        5
 70
     0
 43
0.0
 10
22508.7676401
 20
-30093.40082048
 10
22548.7676401
 20
-30093.40082048
 10
22548.7676401
 20
-30048.40082048
 10
22508.7676401
 20
-30048.40082048
 10
22508.7676401
 20
-30093.40082048
  0
LWPOLYLINE
  5
1E5
330
64
100
AcDbEntity
  8
Ech.1_5
  6
Continuous
 62
     7
370
    -3
100
AcDbPolyline
 90
        5
 70
     0
 43
0.0
 10
21972.90897497
 20
-29881.47171384
 10
21940.1428932
 20
-29904.4147713
 10
21955.62945696
 20
-29926.53187647
 10
21988.39553873
 20
-29903.58881901
 10
21972.90897497
 20
-29881.47171384
  0
LWPOLYLINE
  5
1E6
330
64
100
AcDbEntity
  8
Ech.1_5
  6
Continuous
 62
     7
370
    -3
100
AcDbPolyline
 90
        5
 70
     0
 43
0.0
 10
22262.68548307
 20
-29711.52893234
 10
22247.1989193
 20
-29689.41182717
 10
22214.43283753
 20
-29712.35488462
 10
22229.9194013
 20
-29734.47198979
 10
22262.68548307
 20
-29711.52893234
  0
LWPOLYLINE
  5
1E7
330
64
100
AcDbEntity
  8
Ech.1_5
  6
Continuous
 62
     7
370
    -3
100
AcDbPolyline
 90
        5
 70
     0
 43
0.0
 10
22536.9754274
 20
-29519.46904566
 10
22521.48886364
 20
-29497.35194049
 10
22488.72278189
 20
-29520.29499797
 10
22504.20934567
 20
-29542.41210317
 10
22536.9754274
 20
-29519.46904566
  0
LWPOLYLINE
  5
1E8
330
64
100
AcDbEntity
  8
Ech.1_5
  6
Continuous
 62
     7
370
    -3
100
AcDbPolyline
 90
        6
 70
     0
 43
0.0
 10
22144.93719001
 20
-30095.50849812
 10
22903.20349666
 20
-29565.11022154
 10
22903.20352439
 20
-29466.35843393
 10
22657.28319151
 20
-29466.35839434
 10
22018.75037401
 20
-29915.29504838
 10
22144.93719001
 20
-30095.50849812
  0
LWPOLYLINE
  5
1E9
330
64
100
AcDbEntity
  8
Ech.1_5
  6
Continuous
 62
     7
370
    -3
100
AcDbPolyline
 90
        5
 70
     0
 43
0.0
 10
21924.17374451
 20
-29948.55740344
 10
21924.17374451
 20
-29981.51831734
 10
22659.89836171
 20
-29466.35839434
 10
22612.82529822
 20
-29466.35839434
 10
21924.17374451
 20
-29948.55740344
  0
LWPOLYLINE
  5
1EA
330
64
100
AcDbEntity
  8
Ech.1_5
  6
Continuous
 62
     7
370
    -3
100
AcDbPolyline
 90
        5
 70
     0
 43
0.0
 10
22548.7676401
 20
-30022.53855011
 10
22548.7676401
 20
-30270.40706814
 10
22561.7676401
 20
-30270.40706814
 10
22561.7676401
 20
-30022.53855011
 10
22548.7676401
 20
-30022.53855011
  0
LWPOLYLINE
  5
1EB
330
64
100
AcDbEntity
  8
Ech.1_5
  6
Continuous
 62
     7
370
    -3
100
AcDbPolyline
 90
        5
 70
     0
 43
0.0
 10
22520.64428969
 20
-30042.19574274
 10
22903.20349666
 20
-29774.32460692
 10
22903.20349666
 20
-29758.45657759
 10
22513.18779602
 20
-30031.54676616
 10
22520.64428969
 20
-30042.19574274
  0
LWPOLYLINE
  5
1EC
330
64
100
AcDbEntity
  8
Ech.1_5
  6
Continuous
 62
     7
370
    -3
100
AcDbPolyline
 90
        5
 70
     0
 43
0.0
 10
22508.7676833
 20
-29840.75158471
 10
22308.76757753
 20
-29980.79316781
 10
22308.7676401
 20
-30035.72797919
 10
22508.7676401
 20
-29895.68648163
 10
22508.7676833
 20
-29840.75158471
  0
LWPOLYLINE
  5
1ED
330
64
100
AcDbEntity
  8
Ech.1_5
  6
Continuous
 62
     7
370
    -3
100
AcDbPolyline
 90
        5
 70
     0
 43
0.0
 10
22115.44771641
 20
-30116.15724983
 10
22144.93719001
 20
-30095.50849812
 10
22018.75037401
 20
-29915.29504838
 10
21989.26090041
 20
-29935.94380009
 10
22115.44771641
 20
-30116.15724983
  0
LWPOLYLINE
  5
1EE
330
64
100
AcDbEntity
  8
Ech.1_5
 62
     7
100
AcDbPolyline
 90
       14
 70
     0
 43
0.0
 10
21934.09937992
 20
-29876.51283335
 10
21924.17374451
 20
-29858.32308748
 10
21924.17374451
 20
-29903.39472035
 10
21973.66784035
 20
-29875.04789299
 10
21987.7742683
 20
-29899.46633504
 10
22009.05068774
 20
-29887.17503991
 10
21982.26207183
 20
-29837.99203405
 10
21973.67879635
 20
-29842.66710557
 10
21978.93144626
 20
-29852.31079572
 10
21963.61609646
 20
-29860.65264096
 10
21958.36344655
 20
-29851.00895082
 10
21949.83111215
 20
-29855.65627615
 10
21955.08376205
 20
-29865.29996629
 10
21934.09937992
 20
-29876.51283335
  0
LWPOLYLINE
  5
1EF
330
64
100
AcDbEntity
  8
Ech.1_5
 62
     7
100
AcDbPolyline
 90
       22
 70
     0
 43
0.0
 10
22208.38932426
 20
-29684.45294668
 10
22180.32000372
 20
-29633.01303514
 10
21924.17374451
 20
-29772.52878116
 10
21924.17374451
 20
-29858.26285062
 10
21933.34288986
 20
-29875.09709585
 10
21951.68474701
 20
-29865.1067962
 10
21946.5226677
 20
-29855.62939064
 10
21960.68998847
 20
-29847.51531988
 10
21965.77496923
 20
-29856.85117506
 10
21975.15167794
 20
-29851.43429115
 10
21970.08602195
 20
-29842.13391559999
 10
22247.95778469
 20
-29682.98800631
 10
22262.06421263
 20
-29707.40644837
 10
22283.34063207
 20
-29695.11515324
 10
22256.55201617
 20
-29645.93214738
 10
22247.96874069
 20
-29650.6072189
 10
22253.2213906
 20
-29660.25090905
 10
22237.90604079
 20
-29668.59275429
 10
22232.65339088
 20
-29658.94906414
 10
22224.12105648
 20
-29663.59638947
 10
22229.37370639
 20
-29673.24007962
 10
22208.38932426
 20
-29684.45294668
  0
LWPOLYLINE
  5
1F0
330
64
100
AcDbEntity
  8
Ech.1_5
 62
     7
100
AcDbPolyline
 90
       23
 70
     0
 43
0.0
 10
22482.67926859
 20
-29492.39306
 10
22468.47287994
 20
-29466.35839434
 10
22407.96676346
 20
-29466.35839434
 10
22182.04062687
 20
-29589.41407975
 42
0.41421356
 10
22173.12076011
 20
-29619.67419154
 10
22207.6328342
 20
-29683.03720917
 10
22225.97469135
 20
-29673.04690952
 10
22220.81261204
 20
-29663.56950397
 10
22234.97993281
 20
-29655.4554332
 10
22240.06491357
 20
-29664.79128838
 10
22249.44162228
 20
-29659.37440447
 10
22244.37596628
 20
-29650.07402893
 10
22522.24772902
 20
-29490.92811964
 10
22536.35415697
 20
-29515.34656169
 10
22557.63057641
 20
-29503.05526656
 10
22537.64281035
 20
-29466.35839434
 10
22526.51315339
 20
-29466.35839434
 10
22527.51133493
 20
-29468.19102237
 10
22512.19598513
 20
-29476.53286761
 10
22506.94333522
 20
-29466.88917746
 10
22498.41100082
 20
-29471.5365028
 10
22503.66365073
 20
-29481.18019294
 10
22482.67926859
 20
-29492.39306
  0
LWPOLYLINE
  5
1F1
330
64
100
AcDbEntity
  8
Ech.1_5
 62
     7
100
AcDbPolyline
 90
        5
 70
     0
 43
0.0
 10
22523.73156663
 20
-29467.31451782
 10
22523.21079275
 20
-29466.35839434
 10
22510.88365798
 20
-29466.35839434
 10
22514.35485792
 20
-29472.73140173
 10
22523.73156663
 20
-29467.31451782
  0
LWPOLYLINE
  5
1F2
330
64
100
AcDbEntity
  8
Ech.1_5
 62
     7
100
AcDbPolyline
 90
        6
 70
     0
 43
0.0
 10
22495.10255639
 20
-29471.50961732
 10
22504.09668898
 20
-29466.35839434
 10
22468.51353283
 20
-29466.35839434
 10
22481.92277855
 20
-29490.97732252
 10
22500.2646357
 20
-29480.98702287
 10
22495.10255639
 20
-29471.50961732
  0
LWPOLYLINE
  5
1F3
330
64
100
AcDbEntity
  8
Ech.1_5
  6
Continuous
 62
     7
370
    -3
100
AcDbPolyline
 90
        5
 70
     0
 43
0.0
 10
22552.28118254
 20
-29882.10126651
 10
22903.20349666
 20
-29636.38275828
 10
22903.20349666
 20
-29565.11022154
 10
22518.79404674
 20
-29834.27668027
 10
22552.28118254
 20
-29882.10126651
  0
CIRCLE
  5
1F4
330
64
100
AcDbEntity
  8
Ech.1_5
  6
Continuous
 62
     7
370
    -3
100
AcDbCircle
 10
22610.14807721
 20
-29907.57851315
 30
0.0
 40
2.518023729999999
  0
CIRCLE
  5
1F5
330
64
100
AcDbEntity
  8
Ech.1_5
  6
Continuous
 62
     7
370
    -3
100
AcDbCircle
 10
22584.33713344
 20
-29870.71667404
 30
0.0
 40
2.518023729999999
  0
CIRCLE
  5
1F6
330
64
100
AcDbEntity
  8
Ech.1_5
  6
Continuous
 62
     7
370
    -3
100
AcDbCircle
 10
22601.54442929
 20
-29895.29123345
 30
0.0
 40
2.518023729999999
  0
CIRCLE
  5
1F7
330
64
100
AcDbEntity
  8
Ech.1_5
  6
Continuous
 62
     7
370
    -3
100
AcDbCircle
 10
22618.75172513
 20
-29919.86579285
 30
0.0
 40
2.518023729999999
  0
CIRCLE
  5
1F8
330
64
100
AcDbEntity
  8
Ech.1_5
  6
Continuous
 62
     7
370
    -3
100
AcDbCircle
 10
22592.94078136
 20
-29883.00395374
 30
0.0
 40
2.518023729999999
  0
CIRCLE
  5
1F9
330
64
100
AcDbEntity
  8
Ech.1_5
  6
Continuous
 62
     7
370
    -3
100
AcDbCircle
 10
22575.73348552
 20
-29858.42939434
 30
0.0
 40
2.518023729999999
  0
CIRCLE
  5
1FA
330
64
100
AcDbEntity
  8
Ech.1_5
  6
Continuous
 62
     7
370
    -3
100
AcDbCircle
 10
22567.1298376
 20
-29846.14211464
 30
0.0
 40
2.518023729999999
  0
LWPOLYLINE
  5
1FB
330
64
100
AcDbEntity
  8
Ech.1_5
  6
Continuous
 62
     7
370
    -3
100
AcDbPolyline
 90
        4
 70
     1
 43
0.0
 10
21972.90897497
 20
-29881.47171384
 10
21940.1428932
 20
-29904.4147713
 10
21955.62945696
 20
-29926.53187647
 10
21988.39553873
 20
-29903.58881901
  0
LWPOLYLINE
  5
1FC
330
64
100
AcDbEntity
  8
Ech.1_5
  6
Continuous
 62
     7
370
    -3
100
AcDbPolyline
 90
        4
 70
     1
 43
0.0
 10
22262.68548307
 20
-29711.52893234
 10
22247.1989193
 20
-29689.41182717
 10
22214.43283753
 20
-29712.35488462
 10
22229.9194013
 20
-29734.47198979
  0
LWPOLYLINE
  5
1FD
330
64
100
AcDbEntity
  8
Ech.1_5
  6
Continuous
 62
     7
370
    -3
100
AcDbPolyline
 90
        4
 70
     1
 43
0.0
 10
22536.9754274
 20
-29519.46904566
 10
22521.48886366
 20
-29497.35194052
 10
22488.72278189
 20
-29520.29499797
 10
22504.20934567
 20
-29542.41210317
  0
TEXT
  5
1FE
330
64
100
AcDbEntity
  8
Ech.1_5
 62
     7
100
AcDbText
 10
21749.24009967
 20
-30277.23913963
 30
0.0
 40
8.000000119999999
  1
Echelle en mm
  7
ARIAL
100
AcDbText
  0
TEXT
  5
1FF
330
64
100
AcDbEntity
  8
Ech.1_5
 62
     7
100
AcDbText
 10
21735.25951492
 20
-30305.44897516
 30
0.0
 40
8.000000119999999
  1
0
  7
ARIAL
100
AcDbText
  0
TEXT
  5
200
330
64
100
AcDbEntity
  8
Ech.1_5
 62
     7
100
AcDbText
 10
21821.85657281
 20
-30305.44897516
 30
0.0
 40
8.000000119999999
  1
100
  7
ARIAL
100
AcDbText
  0
TEXT
  5
201
330
64
100
AcDbEntity
  8
Ech.1_5
 62
     7
100
AcDbText
 10
21783.11614125
 20
-30305.44897516
 30
0.0
 40
8.000000119999999
  1
50
  7
ARIAL
100
AcDbText
  0
INSERT
  5
202
330
64
100
AcDbEntity
  8
Ech.1_5
 62
     0
370
    -3
100
AcDbBlockReference
  2
*D48
 10
0.0
 20
0.0
 30
0.0
  0
INSERT
  5
203
330
64
100
AcDbEntity
  8
Ech.1_5
 62
     0
370
    -3
100
AcDbBlockReference
  2
*D49
 10
0.0
 20
0.0
 30
0.0
  0
ENDSEC
  0
SECTION
  2
OBJECTS
  0
DICTIONARY
  5
1
330
0
100
AcDbDictionary
281
     1
  3
ACAD_COLOR
350
23B
  3
ACAD_GROUP
350
2
  3
ACAD_LAYOUT
350
253
  3
ACAD_MATERIAL
350
209
  3
ACAD_MLEADERSTYLE
350
250
  3
ACAD_MLINESTYLE
350
3
  3
ACAD_PLOTSETTINGS
350
254
  3
ACAD_PLOTSTYLENAME
350
207
  3
ACAD_SCALELIST
350
23E
  3
ACAD_TABLESTYLE
350
23C
  3
ACAD_VISUALSTYLE
350
222
  3
ACDB_RECOMPOSE_DATA
350
2A3
  3
AcDbVariableDictionary
350
299
  3
DWGPROPS
350
2A4
  0
DICTIONARY
  5
25D
330
3E
100
AcDbDictionary
280
     1
281
     1
  3
ADSK_XREC_LAYER_RECONCILED
360
25E
  0
DICTIONARY
  5
25F
330
3F
100
AcDbDictionary
280
     1
281
     1
  3
ADSK_XREC_LAYER_RECONCILED
360
260
  0
DICTIONARY
  5
261
330
40
100
AcDbDictionary
280
     1
281
     1
  3
ADSK_XREC_LAYER_RECONCILED
360
262
  0
DICTIONARY
  5
263
330
41
100
AcDbDictionary
280
     1
281
     1
  3
ADSK_XREC_LAYER_RECONCILED
360
264
  0
DICTIONARY
  5
265
330
42
100
AcDbDictionary
280
     1
281
     1
  3
ADSK_XREC_LAYER_RECONCILED
360
266
  0
DICTIONARY
  5
267
330
43
100
AcDbDictionary
280
     1
281
     1
  3
ADSK_XREC_LAYER_RECONCILED
360
268
  0
DICTIONARY
  5
269
330
44
100
AcDbDictionary
280
     1
281
     1
  3
ADSK_XREC_LAYER_RECONCILED
360
26A
  0
DICTIONARY
  5
26B
330
45
100
AcDbDictionary
280
     1
281
     1
  3
ADSK_XREC_LAYER_RECONCILED
360
26C
  0
DICTIONARY
  5
26D
330
46
100
AcDbDictionary
280
     1
281
     1
  3
ADSK_XREC_LAYER_RECONCILED
360
26E
  0
DICTIONARY
  5
26F
330
47
100
AcDbDictionary
280
     1
281
     1
  3
ADSK_XREC_LAYER_RECONCILED
360
270
  0
DICTIONARY
  5
271
330
48
100
AcDbDictionary
280
     1
281
     1
  3
ADSK_XREC_LAYER_RECONCILED
360
272
  0
DICTIONARY
  5
273
330
49
100
AcDbDictionary
280
     1
281
     1
  3
ADSK_XREC_LAYER_RECONCILED
360
274
  0
DICTIONARY
  5
275
330
4A
100
AcDbDictionary
280
     1
281
     1
  3
ADSK_XREC_LAYER_RECONCILED
360
276
  0
DICTIONARY
  5
277
330
4B
100
AcDbDictionary
280
     1
281
     1
  3
ADSK_XREC_LAYER_RECONCILED
360
278
  0
DICTIONARY
  5
279
330
4C
100
AcDbDictionary
280
     1
281
     1
  3
ADSK_XREC_LAYER_RECONCILED
360
27A
  0
DICTIONARY
  5
27B
330
4D
100
AcDbDictionary
280
     1
281
     1
  3
ADSK_XREC_LAYER_RECONCILED
360
27C
  0
DICTIONARY
  5
27D
330
4E
100
AcDbDictionary
280
     1
281
     1
  3
ADSK_XREC_LAYER_RECONCILED
360
27E
  0
DICTIONARY
  5
27F
330
4F
100
AcDbDictionary
280
     1
281
     1
  3
ADSK_XREC_LAYER_RECONCILED
360
280
  0
DICTIONARY
  5
281
330
50
100
AcDbDictionary
280
     1
281
     1
  3
ADSK_XREC_LAYER_RECONCILED
360
282
  0
DICTIONARY
  5
283
330
51
100
AcDbDictionary
280
     1
281
     1
  3
ADSK_XREC_LAYER_RECONCILED
360
284
  0
DICTIONARY
  5
285
330
52
100
AcDbDictionary
280
     1
281
     1
  3
ADSK_XREC_LAYER_RECONCILED
360
286
  0
DICTIONARY
  5
287
330
54
100
AcDbDictionary
280
     1
281
     1
  3
ADSK_XREC_LAYER_RECONCILED
360
288
  0
DICTIONARY
  5
289
330
55
100
AcDbDictionary
280
     1
281
     1
  3
ADSK_XREC_LAYER_RECONCILED
360
28A
  0
DICTIONARY
  5
28B
330
57
100
AcDbDictionary
280
     1
281
     1
  3
ADSK_XREC_LAYER_RECONCILED
360
28C
  0
DICTIONARY
  5
28D
330
58
100
AcDbDictionary
280
     1
281
     1
  3
ADSK_XREC_LAYER_RECONCILED
360
28E
  0
DICTIONARY
  5
28F
330
59
100
AcDbDictionary
280
     1
281
     1
  3
ADSK_XREC_LAYER_RECONCILED
360
290
  0
DICTIONARY
  5
291
330
5A
100
AcDbDictionary
280
     1
281
     1
  3
ADSK_XREC_LAYER_RECONCILED
360
292
  0
DICTIONARY
  5
293
330
5B
100
AcDbDictionary
280
     1
281
     1
  3
ADSK_XREC_LAYER_RECONCILED
360
294
  0
DICTIONARY
  5
295
330
5C
100
AcDbDictionary
280
     1
281
     1
  3
ADSK_XREC_LAYER_RECONCILED
360
296
  0
DICTIONARY
  5
297
330
5D
100
AcDbDictionary
280
     1
281
     1
  3
ADSK_XREC_LAYER_RECONCILED
360
298
  0
DICTIONARY
  5
23B
102
{ACAD_REACTORS
330
1
102
}
330
1
100
AcDbDictionary
281
     1
  0
DICTIONARY
  5
2
330
1
100
AcDbDictionary
281
     1
  0
DICTIONARY
  5
253
102
{ACAD_REACTORS
330
1
102
}
330
1
100
AcDbDictionary
281
     1
  3
Model
350
255
  3
Présentation1
350
256
  0
DICTIONARY
  5
209
102
{ACAD_REACTORS
330
1
102
}
330
1
100
AcDbDictionary
281
     1
  3
ByBlock
350
212
  3
ByLayer
350
20A
  3
Global
350
21A
  0
DICTIONARY
  5
250
102
{ACAD_REACTORS
330
1
102
}
330
1
100
AcDbDictionary
281
     1
  3
Standard
350
251
  0
DICTIONARY
  5
3
330
1
100
AcDbDictionary
281
     1
  3
STANDARD
350
4
  0
DICTIONARY
  5
254
102
{ACAD_REACTORS
330
1
102
}
330
1
100
AcDbDictionary
281
     1
  0
ACDBDICTIONARYWDFLT
  5
207
102
{ACAD_REACTORS
330
1
102
}
330
1
100
AcDbDictionary
281
     1
  3
Normal
350
208
100
AcDbDictionaryWithDefault
340
208
  0
DICTIONARY
  5
23E
102
{ACAD_REACTORS
330
1
102
}
330
1
100
AcDbDictionary
281
     1
  3
A0
350
23F
  3
A1
350
240
  3
A2
350
241
  3
A3
350
242
  3
A4
350
243
  3
A5
350
244
  3
A6
350
245
  3
A7
350
246
  3
A8
350
247
  3
A9
350
248
  3
B0
350
249
  3
B1
350
24A
  3
B2
350
24B
  3
B3
350
24C
  3
B4
350
24D
  3
B5
350
24E
  3
B6
350
24F
  0
DICTIONARY
  5
23C
102
{ACAD_REACTORS
330
1
102
}
330
1
100
AcDbDictionary
281
     1
  3
Standard
350
23D
  0
DICTIONARY
  5
222
102
{ACAD_REACTORS
330
1
102
}
330
1
100
AcDbDictionary
281
     1
  3
2dWireframe
350
228
  3
Basic
350
227
  3
Brighten
350
22E
  3
ColorChange
350
232
  3
Conceptual
350
22B
  3
Dim
350
22D
  3
EdgeColorOff
350
23A
  3
Facepattern
350
231
  3
Flat
350
223
  3
FlatWithEdges
350
224
  3
Gouraud
350
225
  3
GouraudWithEdges
350
226
  3
Hidden
350
22A
  3
JitterOff
350
238
  3
Linepattern
350
230
  3
OverhangOff
350
239
  3
Realistic
350
22C
  3
Shaded
350
237
  3
Shaded with edges
350
236
  3
Shades of Gray
350
233
  3
Sketchy
350
234
  3
Thicken
350
22F
  3
Wireframe
350
229
  3
X-Ray
350
235
  0
XRECORD
  5
2A3
102
{ACAD_REACTORS
330
1
102
}
330
1
100
AcDbXrecord
280
     1
 90
        1
330
23D
  0
DICTIONARY
  5
299
102
{ACAD_REACTORS
330
1
102
}
330
1
100
AcDbDictionary
281
     1
  3
CANNOSCALE
350
29C
  3
CMLEADERSTYLE
350
29B
  3
CTABLESTYLE
350
29A
  3
DIMASSOC
350
29F
  3
INDEXCTL
350
29E
  3
SORTENTS
350
29D
  3
XCLIPFRAME
350
2A0
  0
XRECORD
  5
2A4
102
{ACAD_REACTORS
330
1
102
}
330
1
100
AcDbXrecord
280
     1
  1
DWGPROPS COOKIE
  2

  3

  4

  6

  7

  8
cazeaux
  9

300
=
301
=
302
=
303
=
304
=
305
=
306
=
307
=
308
=
309
=
 40
0.0003021643518519
 41
2456467.0
 42
2456468.487431898
  1

 90
        0
  0
XRECORD
  5
25E
102
{ACAD_REACTORS
330
25D
102
}
330
25D
100
AcDbXrecord
280
     1
290
     1
  0
XRECORD
  5
260
102
{ACAD_REACTORS
330
25F
102
}
330
25F
100
AcDbXrecord
280
     1
290
     1
  0
XRECORD
  5
262
102
{ACAD_REACTORS
330
261
102
}
330
261
100
AcDbXrecord
280
     1
290
     1
  0
XRECORD
  5
264
102
{ACAD_REACTORS
330
263
102
}
330
263
100
AcDbXrecord
280
     1
290
     1
  0
XRECORD
  5
266
102
{ACAD_REACTORS
330
265
102
}
330
265
100
AcDbXrecord
280
     1
290
     1
  0
XRECORD
  5
268
102
{ACAD_REACTORS
330
267
102
}
330
267
100
AcDbXrecord
280
     1
290
     1
  0
XRECORD
  5
26A
102
{ACAD_REACTORS
330
269
102
}
330
269
100
AcDbXrecord
280
     1
290
     1
  0
XRECORD
  5
26C
102
{ACAD_REACTORS
330
26B
102
}
330
26B
100
AcDbXrecord
280
     1
290
     1
  0
XRECORD
  5
26E
102
{ACAD_REACTORS
330
26D
102
}
330
26D
100
AcDbXrecord
280
     1
290
     1
  0
XRECORD
  5
270
102
{ACAD_REACTORS
330
26F
102
}
330
26F
100
AcDbXrecord
280
     1
290
     1
  0
XRECORD
  5
272
102
{ACAD_REACTORS
330
271
102
}
330
271
100
AcDbXrecord
280
     1
290
     1
  0
XRECORD
  5
274
102
{ACAD_REACTORS
330
273
102
}
330
273
100
AcDbXrecord
280
     1
290
     1
  0
XRECORD
  5
276
102
{ACAD_REACTORS
330
275
102
}
330
275
100
AcDbXrecord
280
     1
290
     1
  0
XRECORD
  5
278
102
{ACAD_REACTORS
330
277
102
}
330
277
100
AcDbXrecord
280
     1
290
     1
  0
XRECORD
  5
27A
102
{ACAD_REACTORS
330
279
102
}
330
279
100
AcDbXrecord
280
     1
290
     1
  0
XRECORD
  5
27C
102
{ACAD_REACTORS
330
27B
102
}
330
27B
100
AcDbXrecord
280
     1
290
     1
  0
XRECORD
  5
27E
102
{ACAD_REACTORS
330
27D
102
}
330
27D
100
AcDbXrecord
280
     1
290
     1
  0
XRECORD
  5
280
102
{ACAD_REACTORS
330
27F
102
}
330
27F
100
AcDbXrecord
280
     1
290
     1
  0
XRECORD
  5
282
102
{ACAD_REACTORS
330
281
102
}
330
281
100
AcDbXrecord
280
     1
290
     1
  0
XRECORD
  5
284
102
{ACAD_REACTORS
330
283
102
}
330
283
100
AcDbXrecord
280
     1
290
     1
  0
XRECORD
  5
286
102
{ACAD_REACTORS
330
285
102
}
330
285
100
AcDbXrecord
280
     1
290
     1
  0
XRECORD
  5
288
102
{ACAD_REACTORS
330
287
102
}
330
287
100
AcDbXrecord
280
     1
290
     1
  0
XRECORD
  5
28A
102
{ACAD_REACTORS
330
289
102
}
330
289
100
AcDbXrecord
280
     1
290
     1
  0
XRECORD
  5
28C
102
{ACAD_REACTORS
330
28B
102
}
330
28B
100
AcDbXrecord
280
     1
290
     1
  0
XRECORD
  5
28E
102
{ACAD_REACTORS
330
28D
102
}
330
28D
100
AcDbXrecord
280
     1
290
     1
  0
XRECORD
  5
290
102
{ACAD_REACTORS
330
28F
102
}
330
28F
100
AcDbXrecord
280
     1
290
     1
  0
XRECORD
  5
292
102
{ACAD_REACTORS
330
291
102
}
330
291
100
AcDbXrecord
280
     1
290
     1
  0
XRECORD
  5
294
102
{ACAD_REACTORS
330
293
102
}
330
293
100
AcDbXrecord
280
     1
290
     1
  0
XRECORD
  5
296
102
{ACAD_REACTORS
330
295
102
}
330
295
100
AcDbXrecord
280
     1
290
     1
  0
XRECORD
  5
298
102
{ACAD_REACTORS
330
297
102
}
330
297
100
AcDbXrecord
280
     1
290
     1
  0
LAYOUT
  5
255
102
{ACAD_XDICTIONARY
360
2DA
102
}
102
{ACAD_REACTORS
330
253
102
}
330
253
100
AcDbPlotSettings
  1

  2
Aucun(e)
  4

  6

 40
0.0
 41
0.0
 42
0.0
 43
0.0
 44
0.0
 45
0.0
 46
0.0
 47
0.0
 48
0.0
 49
0.0
140
0.0
141
0.0
142
1.0
143
1.0
 70
  1712
 72
     0
 73
     0
 74
     0
  7
acad.ctb
 75
     0
147
1.0
148
0.0
149
0.0
100
AcDbLayout
  1
Model
 70
     1
 71
     0
 10
0.0
 20
0.0
 11
12.0
 21
9.0
 12
0.0
 22
0.0
 32
0.0
 14
0.0
 24
0.0
 34
0.0
 15
0.0
 25
0.0
 35
0.0
146
0.0
 13
0.0
 23
0.0
 33
0.0
 16
1.0
 26
0.0
 36
0.0
 17
0.0
 27
1.0
 37
0.0
 76
     0
330
64
331
259
  0
LAYOUT
  5
256
102
{ACAD_XDICTIONARY
360
2DC
102
}
102
{ACAD_REACTORS
330
253
102
}
330
253
100
AcDbPlotSettings
  1

  2
Aucun(e)
  4

  6

 40
0.0
 41
0.0
 42
0.0
 43
0.0
 44
0.0
 45
0.0
 46
0.0
 47
0.0
 48
0.0
 49
0.0
140
0.0
141
0.0
142
1.0
143
1.0
 70
   688
 72
     0
 73
     0
 74
     5
  7
acad.ctb
 75
    16
147
1.0
148
0.0
149
0.0
100
AcDbLayout
  1
Présentation1
 70
     1
 71
     1
 10
0.0
 20
0.0
 11
12.0
 21
9.0
 12
0.0
 22
0.0
 32
0.0
 14
1.000000000000000E+20
 24
1.000000000000000E+20
 34
1.000000000000000E+20
 15
-1.000000000000000E+20
 25
-1.000000000000000E+20
 35
-1.000000000000000E+20
146
0.0
 13
0.0
 23
0.0
 33
0.0
 16
1.0
 26
0.0
 36
0.0
 17
0.0
 27
1.0
 37
0.0
 76
     0
330
65
  0
MATERIAL
  5
212
102
{ACAD_XDICTIONARY
360
213
102
}
102
{ACAD_REACTORS
330
209
102
}
330
209
100
AcDbMaterial
  1
ByBlock
 72
     0
 43
0.0208333333333333
 43
0.0
 43
0.0
 43
0.0
 43
0.0
 43
0.0208333333333333
 43
0.0
 43
0.0
 43
0.0
 43
0.0
 43
1.0
 43
0.0
 43
0.0
 43
0.0
 43
0.0
 43
1.0
 77
     0
 47
0.0208333333333333
 47
0.0
 47
0.0
 47
0.0
 47
0.0
 47
0.0208333333333333
 47
0.0
 47
0.0
 47
0.0
 47
0.0
 47
1.0
 47
0.0
 47
0.0
 47
0.0
 47
0.0
 47
1.0
171
     0
 49
0.0208333333333333
 49
0.0
 49
0.0
 49
0.0
 49
0.0
 49
0.0208333333333333
 49
0.0
 49
0.0
 49
0.0
 49
0.0
 49
1.0
 49
0.0
 49
0.0
 49
0.0
 49
0.0
 49
1.0
175
     0
142
0.0208333333333333
142
0.0
142
0.0
142
0.0
142
0.0
142
0.0208333333333333
142
0.0
142
0.0
142
0.0
142
0.0
142
1.0
142
0.0
142
0.0
142
0.0
142
0.0
142
1.0
179
     0
144
0.0208333333333333
144
0.0
144
0.0
144
0.0
144
0.0
144
0.0208333333333333
144
0.0
144
0.0
144
0.0
144
0.0
144
1.0
144
0.0
144
0.0
144
0.0
144
0.0
144
1.0
147
0.0208333333333333
147
0.0
147
0.0
147
0.0
147
0.0
147
0.0208333333333333
147
0.0
147
0.0
147
0.0
147
0.0
147
1.0
147
0.0
147
0.0
147
0.0
147
0.0
147
1.0
  0
MATERIAL
  5
20A
102
{ACAD_XDICTIONARY
360
20B
102
}
102
{ACAD_REACTORS
330
209
102
}
330
209
100
AcDbMaterial
  1
ByLayer
 72
     0
 43
0.0208333333333333
 43
0.0
 43
0.0
 43
0.0
 43
0.0
 43
0.0208333333333333
 43
0.0
 43
0.0
 43
0.0
 43
0.0
 43
1.0
 43
0.0
 43
0.0
 43
0.0
 43
0.0
 43
1.0
 77
     0
 47
0.0208333333333333
 47
0.0
 47
0.0
 47
0.0
 47
0.0
 47
0.0208333333333333
 47
0.0
 47
0.0
 47
0.0
 47
0.0
 47
1.0
 47
0.0
 47
0.0
 47
0.0
 47
0.0
 47
1.0
171
     0
 49
0.0208333333333333
 49
0.0
 49
0.0
 49
0.0
 49
0.0
 49
0.0208333333333333
 49
0.0
 49
0.0
 49
0.0
 49
0.0
 49
1.0
 49
0.0
 49
0.0
 49
0.0
 49
0.0
 49
1.0
175
     0
142
0.0208333333333333
142
0.0
142
0.0
142
0.0
142
0.0
142
0.0208333333333333
142
0.0
142
0.0
142
0.0
142
0.0
142
1.0
142
0.0
142
0.0
142
0.0
142
0.0
142
1.0
179
     0
144
0.0208333333333333
144
0.0
144
0.0
144
0.0
144
0.0
144
0.0208333333333333
144
0.0
144
0.0
144
0.0
144
0.0
144
1.0
144
0.0
144
0.0
144
0.0
144
0.0
144
1.0
147
0.0208333333333333
147
0.0
147
0.0
147
0.0
147
0.0
147
0.0208333333333333
147
0.0
147
0.0
147
0.0
147
0.0
147
1.0
147
0.0
147
0.0
147
0.0
147
0.0
147
1.0
  0
MATERIAL
  5
21A
102
{ACAD_XDICTIONARY
360
21B
102
}
102
{ACAD_REACTORS
330
209
102
}
330
209
100
AcDbMaterial
  1
Global
 72
     0
 43
0.0208333333333333
 43
0.0
 43
0.0
 43
0.0
 43
0.0
 43
0.0208333333333333
 43
0.0
 43
0.0
 43
0.0
 43
0.0
 43
1.0
 43
0.0
 43
0.0
 43
0.0
 43
0.0
 43
1.0
 77
     0
 47
0.0208333333333333
 47
0.0
 47
0.0
 47
0.0
 47
0.0
 47
0.0208333333333333
 47
0.0
 47
0.0
 47
0.0
 47
0.0
 47
1.0
 47
0.0
 47
0.0
 47
0.0
 47
0.0
 47
1.0
171
     0
 49
0.0208333333333333
 49
0.0
 49
0.0
 49
0.0
 49
0.0
 49
0.0208333333333333
 49
0.0
 49
0.0
 49
0.0
 49
0.0
 49
1.0
 49
0.0
 49
0.0
 49
0.0
 49
0.0
 49
1.0
175
     0
142
0.0208333333333333
142
0.0
142
0.0
142
0.0
142
0.0
142
0.0208333333333333
142
0.0
142
0.0
142
0.0
142
0.0
142
1.0
142
0.0
142
0.0
142
0.0
142
0.0
142
1.0
179
     0
144
0.0208333333333333
144
0.0
144
0.0
144
0.0
144
0.0
144
0.0208333333333333
144
0.0
144
0.0
144
0.0
144
0.0
144
1.0
144
0.0
144
0.0
144
0.0
144
0.0
144
1.0
147
0.0208333333333333
147
0.0
147
0.0
147
0.0
147
0.0
147
0.0208333333333333
147
0.0
147
0.0
147
0.0
147
0.0
147
1.0
147
0.0
147
0.0
147
0.0
147
0.0
147
1.0
  0
MLEADERSTYLE
  5
251
102
{ACAD_REACTORS
330
250
102
}
330
250
100
AcDbMLeaderStyle
170
     2
171
     1
172
     0
 90
        2
 40
0.0
 41
0.0
173
     1
 91
-1056964608
340
30
 92
       -2
290
     1
 42
2.0
291
     1
 43
0.36
  3
Standard
 44
4.0
300

342
2B
174
     1
178
     6
175
     1
176
     0
 93
-1056964608
 45
4.0
292
     0
297
     0
 46
4.0
 94
-1056964608
 47
1.0
 49
1.0
140
1.0
293
     1
141
0.0
294
     1
177
     0
142
1.0
295
     0
296
     0
143
0.125
1001
ACAD_MLEADERVER
1070
     2
  0
MLINESTYLE
  5
4
330
3
100
AcDbMlineStyle
  2
STANDARD
 70
     0
  3

 62
     0
 51
90.0
 52
90.0
 71
     2
 49
0.5
 62
   256
  6
BYLAYER
 49
-0.5
 62
   256
  6
BYLAYER
  0
ACDBPLACEHOLDER
  5
208
102
{ACAD_REACTORS
330
207
102
}
330
207
  0
SCALE
  5
23F
102
{ACAD_REACTORS
330
23E
102
}
330
23E
100
AcDbScale
 70
     0
300
1:1
140
1.0
141
1.0
290
     1
  0
SCALE
  5
240
102
{ACAD_REACTORS
330
23E
102
}
330
23E
100
AcDbScale
 70
     0
300
1:2
140
1.0
141
2.0
290
     0
  0
SCALE
  5
241
102
{ACAD_REACTORS
330
23E
102
}
330
23E
100
AcDbScale
 70
     0
300
1:4
140
1.0
141
4.0
290
     0
  0
SCALE
  5
242
102
{ACAD_REACTORS
330
23E
102
}
330
23E
100
AcDbScale
 70
     0
300
1:5
140
1.0
141
5.0
290
     0
  0
SCALE
  5
243
102
{ACAD_REACTORS
330
23E
102
}
330
23E
100
AcDbScale
 70
     0
300
1:8
140
1.0
141
8.0
290
     0
  0
SCALE
  5
244
102
{ACAD_REACTORS
330
23E
102
}
330
23E
100
AcDbScale
 70
     0
300
1:10
140
1.0
141
10.0
290
     0
  0
SCALE
  5
245
102
{ACAD_REACTORS
330
23E
102
}
330
23E
100
AcDbScale
 70
     0
300
1:16
140
1.0
141
16.0
290
     0
  0
SCALE
  5
246
102
{ACAD_REACTORS
330
23E
102
}
330
23E
100
AcDbScale
 70
     0
300
1:20
140
1.0
141
20.0
290
     0
  0
SCALE
  5
247
102
{ACAD_REACTORS
330
23E
102
}
330
23E
100
AcDbScale
 70
     0
300
1:30
140
1.0
141
30.0
290
     0
  0
SCALE
  5
248
102
{ACAD_REACTORS
330
23E
102
}
330
23E
100
AcDbScale
 70
     0
300
1:40
140
1.0
141
40.0
290
     0
  0
SCALE
  5
249
102
{ACAD_REACTORS
330
23E
102
}
330
23E
100
AcDbScale
 70
     0
300
1:50
140
1.0
141
50.0
290
     0
  0
SCALE
  5
24A
102
{ACAD_REACTORS
330
23E
102
}
330
23E
100
AcDbScale
 70
     0
300
1:100
140
1.0
141
100.0
290
     0
  0
SCALE
  5
24B
102
{ACAD_REACTORS
330
23E
102
}
330
23E
100
AcDbScale
 70
     0
300
2:1
140
2.0
141
1.0
290
     0
  0
SCALE
  5
24C
102
{ACAD_REACTORS
330
23E
102
}
330
23E
100
AcDbScale
 70
     0
300
4:1
140
4.0
141
1.0
290
     0
  0
SCALE
  5
24D
102
{ACAD_REACTORS
330
23E
102
}
330
23E
100
AcDbScale
 70
     0
300
8:1
140
8.0
141
1.0
290
     0
  0
SCALE
  5
24E
102
{ACAD_REACTORS
330
23E
102
}
330
23E
100
AcDbScale
 70
     0
300
10:1
140
10.0
141
1.0
290
     0
  0
SCALE
  5
24F
102
{ACAD_REACTORS
330
23E
102
}
330
23E
100
AcDbScale
 70
     0
300
100:1
140
100.0
141
1.0
290
     0
  0
TABLESTYLE
  5
23D
102
{ACAD_XDICTIONARY
360
2A1
102
}
102
{ACAD_REACTORS
330
23C
102
}
330
23C
100
AcDbTableStyle
  3
Standard
 70
     0
 71
     0
 40
1.5
 41
1.5
280
     0
281
     0
  7
STANDARD
140
4.5
170
     2
 62
     0
 63
     7
283
     0
274
    -2
284
     1
 64
     0
275
    -2
285
     1
 65
     0
276
    -2
286
     1
 66
     0
277
    -2
287
     1
 67
     0
278
    -2
288
     1
 68
     0
279
    -2
289
     1
 69
     0
  7
STANDARD
140
6.0
170
     5
 62
     0
 63
     7
283
     0
274
    -2
284
     1
 64
     0
275
    -2
285
     1
 65
     0
276
    -2
286
     1
 66
     0
277
    -2
287
     1
 67
     0
278
    -2
288
     1
 68
     0
279
    -2
289
     1
 69
     0
  7
STANDARD
140
4.5
170
     5
 62
     0
 63
     7
283
     0
274
    -2
284
     1
 64
     0
275
    -2
285
     1
 65
     0
276
    -2
286
     1
 66
     0
277
    -2
287
     1
 67
     0
278
    -2
288
     1
 68
     0
279
    -2
289
     1
 69
     0
  0
VISUALSTYLE
  5
228
102
{ACAD_XDICTIONARY
360
2B2
102
}
102
{ACAD_REACTORS
330
222
102
}
330
222
100
AcDbVisualStyle
  2
2dWireframe
 70
     4
 71
     0
 72
     2
 73
     0
 90
        0
 40
-0.6
 41
-30.0
 62
     5
 63
     7
 74
     1
 91
        4
 64
     7
 65
   257
 75
     1
175
     1
 42
1.0
 92
        0
 66
   257
 43
1.0
 76
     1
 77
     6
 78
     2
 67
     7
 79
     5
170
     0
171
     0
290
     0
174
     0
 93
        1
 44
0.0
173
     0
291
     0
 45
0.0
1001
ACAD
1000
AcDbSavedByObjectVersion
1070
     0
  0
VISUALSTYLE
  5
227
102
{ACAD_XDICTIONARY
360
2B0
102
}
102
{ACAD_REACTORS
330
222
102
}
330
222
100
AcDbVisualStyle
  2
Basic
 70
     7
 71
     1
 72
     0
 73
     1
 90
        0
 40
-0.6
 41
-30.0
 62
     5
 63
     7
 74
     0
 91
        4
 64
     7
 65
   257
 75
     1
175
     1
 42
1.0
 92
        8
 66
     7
 43
1.0
 76
     1
 77
     6
 78
     2
 67
     7
 79
     5
170
     0
171
     0
290
     0
174
     0
 93
        1
 44
0.0
173
     0
291
     1
 45
0.0
1001
ACAD
1000
AcDbSavedByObjectVersion
1070
     0
  0
VISUALSTYLE
  5
22E
102
{ACAD_XDICTIONARY
360
2BE
102
}
102
{ACAD_REACTORS
330
222
102
}
330
222
100
AcDbVisualStyle
  2
Brighten
 70
    12
 71
     2
 72
     2
 73
     0
 90
        0
 40
-0.6
 41
-30.0
 62
     5
 63
     7
 74
     1
 91
        4
 64
     7
 65
   257
 75
     1
175
     1
 42
1.0
 92
        8
 66
     7
 43
1.0
 76
     1
 77
     6
 78
     2
 67
     7
 79
     5
170
     0
171
     0
290
     0
174
     0
 93
        1
 44
50.0
173
     0
291
     1
 45
0.0
1001
ACAD
1000
AcDbSavedByObjectVersion
1070
     0
  0
VISUALSTYLE
  5
232
102
{ACAD_XDICTIONARY
360
2C6
102
}
102
{ACAD_REACTORS
330
222
102
}
330
222
100
AcDbVisualStyle
  2
ColorChange
 70
    16
 71
     2
 72
     2
 73
     3
 90
        0
 40
-0.6
 41
-30.0
 62
     5
 63
     8
 74
     1
 91
        4
 64
     7
 65
   257
 75
     1
175
     1
 42
1.0
 92
        8
 66
     8
 43
1.0
 76
     1
 77
     6
 78
     2
 67
     7
 79
     5
170
     0
171
     0
290
     0
174
     0
 93
        1
 44
0.0
173
     0
291
     1
 45
0.0
1001
ACAD
1000
AcDbSavedByObjectVersion
1070
     0
  0
VISUALSTYLE
  5
22B
102
{ACAD_XDICTIONARY
360
2B8
102
}
102
{ACAD_REACTORS
330
222
102
}
330
222
100
AcDbVisualStyle
  2
Conceptual
 70
     9
 71
     3
 72
     2
 73
     0
 90
        0
 40
-0.6
 41
-30.0
 62
     5
 63
     7
 74
     2
 91
        2
 64
     7
 65
   257
 75
     1
175
     1
 42
179.0
 92
        8
 66
     7
 43
1.0
 76
     1
 77
     6
 78
     2
 67
     7
 79
     3
170
     0
171
     0
290
     0
174
     0
 93
        1
 44
0.0
173
     0
291
     0
 45
0.0
1001
ACAD
1000
AcDbSavedByObjectVersion
1070
     0
  0
VISUALSTYLE
  5
22D
102
{ACAD_XDICTIONARY
360
2BC
102
}
102
{ACAD_REACTORS
330
222
102
}
330
222
100
AcDbVisualStyle
  2
Dim
 70
    11
 71
     2
 72
     2
 73
     0
 90
        0
 40
-0.6
 41
-30.0
 62
     5
 63
     7
 74
     1
 91
        4
 64
     7
 65
   257
 75
     1
175
     1
 42
1.0
 92
        8
 66
     7
 43
1.0
 76
     1
 77
     6
 78
     2
 67
     7
 79
     5
170
     0
171
     0
290
     0
174
     0
 93
        1
 44
-50.0
173
     0
291
     1
 45
0.0
1001
ACAD
1000
AcDbSavedByObjectVersion
1070
     0
  0
VISUALSTYLE
  5
23A
102
{ACAD_XDICTIONARY
360
2D6
102
}
102
{ACAD_REACTORS
330
222
102
}
330
222
100
AcDbVisualStyle
  2
EdgeColorOff
 70
    22
 71
     2
 72
     2
 73
     0
 90
        0
 40
-0.6
 41
-30.0
 62
     5
 63
     7
 74
     1
 91
        4
 64
     7
 65
   257
 75
     1
175
     1
 42
1.0
 92
        8
 66
     7
 43
1.0
 76
     1
 77
     6
 78
     2
 67
     7
 79
     5
170
     0
171
     0
290
     0
174
     0
 93
        1
 44
0.0
173
     0
291
     1
 45
0.0
1001
ACAD
1000
AcDbSavedByObjectVersion
1070
     0
  0
VISUALSTYLE
  5
231
102
{ACAD_XDICTIONARY
360
2C4
102
}
102
{ACAD_REACTORS
330
222
102
}
330
222
100
AcDbVisualStyle
  2
Facepattern
 70
    15
 71
     2
 72
     2
 73
     0
 90
        0
 40
-0.6
 41
-30.0
 62
     5
 63
     7
 74
     1
 91
        4
 64
     7
 65
   257
 75
     1
175
     1
 42
1.0
 92
        8
 66
     7
 43
1.0
 76
     1
 77
     6
 78
     2
 67
     7
 79
     5
170
     0
171
     0
290
     0
174
     0
 93
        1
 44
0.0
173
     0
291
     1
 45
0.0
1001
ACAD
1000
AcDbSavedByObjectVersion
1070
     0
  0
VISUALSTYLE
  5
223
102
{ACAD_XDICTIONARY
360
2A8
102
}
102
{ACAD_REACTORS
330
222
102
}
330
222
100
AcDbVisualStyle
  2
Flat
 70
     0
 71
     2
 72
     1
 73
     1
 90
        2
 40
-0.6
 41
30.0
 62
     5
 63
     7
 74
     0
 91
        0
 64
     7
 65
   257
 75
     1
175
     1
 42
1.0
 92
        8
 66
     7
 43
1.0
 76
     1
 77
     6
 78
     2
 67
     7
 79
     5
170
     0
171
     0
290
     0
174
     0
 93
       13
 44
0.0
173
     0
291
     1
 45
0.0
1001
ACAD
1000
AcDbSavedByObjectVersion
1070
     0
  0
VISUALSTYLE
  5
224
102
{ACAD_XDICTIONARY
360
2AA
102
}
102
{ACAD_REACTORS
330
222
102
}
330
222
100
AcDbVisualStyle
  2
FlatWithEdges
 70
     1
 71
     2
 72
     1
 73
     1
 90
        2
 40
-0.6
 41
30.0
 62
     5
 63
     7
 74
     1
 91
        0
 64
     7
 65
   257
 75
     1
175
     1
 42
1.0
 92
        0
 66
   257
 43
1.0
 76
     1
 77
     6
 78
     2
 67
     7
 79
     5
170
     0
171
     0
290
     0
174
     0
 93
       13
 44
0.0
173
     0
291
     1
 45
0.0
1001
ACAD
1000
AcDbSavedByObjectVersion
1070
     0
  0
VISUALSTYLE
  5
225
102
{ACAD_XDICTIONARY
360
2AC
102
}
102
{ACAD_REACTORS
330
222
102
}
330
222
100
AcDbVisualStyle
  2
Gouraud
 70
     2
 71
     2
 72
     2
 73
     1
 90
        2
 40
-0.6
 41
30.0
 62
     5
 63
     7
 74
     0
 91
        0
 64
     7
 65
   257
 75
     1
175
     1
 42
1.0
 92
        0
 66
     7
 43
1.0
 76
     1
 77
     6
 78
     2
 67
     7
 79
     5
170
     0
171
     0
290
     0
174
     0
 93
       13
 44
0.0
173
     0
291
     1
 45
0.0
1001
ACAD
1000
AcDbSavedByObjectVersion
1070
     0
  0
VISUALSTYLE
  5
226
102
{ACAD_XDICTIONARY
360
2AE
102
}
102
{ACAD_REACTORS
330
222
102
}
330
222
100
AcDbVisualStyle
  2
GouraudWithEdges
 70
     3
 71
     2
 72
     2
 73
     1
 90
        2
 40
-0.6
 41
30.0
 62
     5
 63
     7
 74
     1
 91
        0
 64
     7
 65
   257
 75
     1
175
     1
 42
1.0
 92
        0
 66
   257
 43
1.0
 76
     1
 77
     6
 78
     2
 67
     7
 79
     5
170
     0
171
     0
290
     0
174
     0
 93
       13
 44
0.0
173
     0
291
     1
 45
0.0
1001
ACAD
1000
AcDbSavedByObjectVersion
1070
     0
  0
VISUALSTYLE
  5
22A
102
{ACAD_XDICTIONARY
360
2B6
102
}
102
{ACAD_REACTORS
330
222
102
}
330
222
100
AcDbVisualStyle
  2
Hidden
 70
     6
 71
     1
 72
     2
 73
     2
 90
        0
 40
-0.6
 41
-30.0
 62
     5
 63
     7
 74
     2
 91
        2
 64
     7
 65
   257
 75
     2
175
     1
 42
40.0
 92
        0
 66
   257
 43
1.0
 76
     1
 77
     6
 78
     2
 67
     7
 79
     3
170
     0
171
     0
290
     0
174
     0
 93
        1
 44
0.0
173
     0
291
     0
 45
0.0
1001
ACAD
1000
AcDbSavedByObjectVersion
1070
     0
  0
VISUALSTYLE
  5
238
102
{ACAD_XDICTIONARY
360
2D2
102
}
102
{ACAD_REACTORS
330
222
102
}
330
222
100
AcDbVisualStyle
  2
JitterOff
 70
    20
 71
     2
 72
     2
 73
     0
 90
        0
 40
-0.6
 41
-30.0
 62
     5
 63
     7
 74
     1
 91
        4
 64
     7
 65
   257
 75
     1
175
     1
 42
1.0
 92
       10
 66
     7
 43
1.0
 76
     1
 77
     6
 78
     2
 67
     7
 79
     5
170
     0
171
     0
290
     0
174
     0
 93
        1
 44
0.0
173
     0
291
     1
 45
0.0
1001
ACAD
1000
AcDbSavedByObjectVersion
1070
     0
  0
VISUALSTYLE
  5
230
102
{ACAD_XDICTIONARY
360
2C2
102
}
102
{ACAD_REACTORS
330
222
102
}
330
222
100
AcDbVisualStyle
  2
Linepattern
 70
    14
 71
     2
 72
     2
 73
     0
 90
        0
 40
-0.6
 41
-30.0
 62
     5
 63
     7
 74
     1
 91
        4
 64
     7
 65
   257
 75
     7
175
     7
 42
1.0
 92
        8
 66
     7
 43
1.0
 76
     1
 77
     6
 78
     2
 67
     7
 79
     5
170
     0
171
     0
290
     0
174
     0
 93
        1
 44
0.0
173
     0
291
     1
 45
0.0
1001
ACAD
1000
AcDbSavedByObjectVersion
1070
     0
  0
VISUALSTYLE
  5
239
102
{ACAD_XDICTIONARY
360
2D4
102
}
102
{ACAD_REACTORS
330
222
102
}
330
222
100
AcDbVisualStyle
  2
OverhangOff
 70
    21
 71
     2
 72
     2
 73
     0
 90
        0
 40
-0.6
 41
-30.0
 62
     5
 63
     7
 74
     1
 91
        4
 64
     7
 65
   257
 75
     1
175
     1
 42
1.0
 92
        9
 66
     7
 43
1.0
 76
     1
 77
     6
 78
     2
 67
     7
 79
     5
170
     0
171
     0
290
     0
174
     0
 93
        1
 44
0.0
173
     0
291
     1
 45
0.0
1001
ACAD
1000
AcDbSavedByObjectVersion
1070
     0
  0
VISUALSTYLE
  5
22C
102
{ACAD_XDICTIONARY
360
2BA
102
}
102
{ACAD_REACTORS
330
222
102
}
330
222
100
AcDbVisualStyle
  2
Realistic
 70
     8
 71
     2
 72
     3
 73
     0
 90
        2
 40
-0.6
 41
30.0
 62
     5
 63
     7
 74
     0
 91
        0
 64
     7
 65
   257
 75
     1
175
     1
 42
1.0
 92
        8
 66
   257
 43
1.0
 76
     1
 77
     6
 78
     2
 67
     7
 79
     3
170
     0
171
     0
290
     0
174
     0
 93
       13
 44
0.0
173
     0
291
     0
 45
0.0
1001
ACAD
1000
AcDbSavedByObjectVersion
1070
     0
  0
VISUALSTYLE
  5
237
102
{ACAD_XDICTIONARY
360
2D0
102
}
102
{ACAD_REACTORS
330
222
102
}
330
222
100
AcDbVisualStyle
  2
Shaded
 70
    27
 71
     2
 72
     2
 73
     1
 90
        2
 40
-0.6
 41
30.0
 62
     5
 63
     7
 74
     0
 91
        4
 64
     7
 65
   257
 75
     1
175
     1
 42
1.0
 92
        8
 66
   257
 43
1.0
 76
     1
 77
     6
 78
     2
 67
     8
 79
     3
170
     0
171
     0
290
     0
174
     0
 93
        5
 44
0.0
173
     0
291
     0
 45
0.0
1001
ACAD
1000
AcDbSavedByObjectVersion
1070
     0
  0
VISUALSTYLE
  5
236
102
{ACAD_XDICTIONARY
360
2CE
102
}
102
{ACAD_REACTORS
330
222
102
}
330
222
100
AcDbVisualStyle
  2
Shaded with edges
 70
    26
 71
     2
 72
     2
 73
     1
 90
        2
 40
-0.6
 41
30.0
 62
     5
 63
     7
 74
     1
 91
       10
 64
     7
 65
   257
 75
     2
175
     1
 42
1.0
 92
        8
 66
   257
 43
1.0
 76
     1
 77
     6
 78
     2
 67
     7
 79
     3
170
     0
171
     0
290
     0
174
     0
 93
        5
 44
0.0
173
     0
291
     0
 45
0.0
1001
ACAD
1000
AcDbSavedByObjectVersion
1070
     0
  0
VISUALSTYLE
  5
233
102
{ACAD_XDICTIONARY
360
2C8
102
}
102
{ACAD_REACTORS
330
222
102
}
330
222
100
AcDbVisualStyle
  2
Shades of Gray
 70
    23
 71
     2
 72
     2
 73
     3
 90
        0
 40
-0.6
 41
-30.0
 62
     5
 63
     7
 74
     2
 91
        2
 64
     7
 65
     7
 75
     1
175
     1
 42
40.0
 92
        8
 66
     7
 43
1.0
 76
     1
 77
     6
 78
     2
 67
     7
 79
     3
170
     0
171
     0
290
     0
174
     0
 93
        1
 44
0.0
173
     0
291
     0
 45
0.0
1001
ACAD
1000
AcDbSavedByObjectVersion
1070
     0
  0
VISUALSTYLE
  5
234
102
{ACAD_XDICTIONARY
360
2CA
102
}
102
{ACAD_REACTORS
330
222
102
}
330
222
100
AcDbVisualStyle
  2
Sketchy
 70
    24
 71
     1
 72
     2
 73
     2
 90
        0
 40
-0.6
 41
-30.0
 62
     5
 63
     7
 74
     2
 91
        2
 64
     7
 65
     7
 75
     1
175
     1
 42
40.0
 92
       11
 66
     7
 43
1.0
 76
     1
 77
     6
 78
     2
 67
     7
 79
     6
170
     0
171
     0
290
     0
174
     0
 93
        1
 44
0.0
173
     0
291
     0
 45
0.0
1001
ACAD
1000
AcDbSavedByObjectVersion
1070
     0
  0
VISUALSTYLE
  5
22F
102
{ACAD_XDICTIONARY
360
2C0
102
}
102
{ACAD_REACTORS
330
222
102
}
330
222
100
AcDbVisualStyle
  2
Thicken
 70
    13
 71
     2
 72
     2
 73
     0
 90
        0
 40
-0.6
 41
-30.0
 62
     5
 63
     7
 74
     1
 91
        4
 64
     7
 65
   257
 75
     1
175
     1
 42
1.0
 92
       12
 66
     7
 43
1.0
 76
     1
 77
     6
 78
     2
 67
     7
 79
     5
170
     0
171
     0
290
     0
174
     0
 93
        1
 44
0.0
173
     0
291
     1
 45
0.0
1001
ACAD
1000
AcDbSavedByObjectVersion
1070
     0
  0
VISUALSTYLE
  5
229
102
{ACAD_XDICTIONARY
360
2B4
102
}
102
{ACAD_REACTORS
330
222
102
}
330
222
100
AcDbVisualStyle
  2
Wireframe
 70
     5
 71
     0
 72
     2
 73
     0
 90
        0
 40
-0.6
 41
-30.0
 62
     5
 63
     7
 74
     1
 91
        4
 64
     7
 65
   257
 75
     1
175
     1
 42
1.0
 92
        0
 66
   257
 43
1.0
 76
     1
 77
     6
 78
     2
 67
     7
 79
     3
170
     0
171
     0
290
     0
174
     0
 93
        1
 44
0.0
173
     0
291
     0
 45
0.0
1001
ACAD
1000
AcDbSavedByObjectVersion
1070
     0
  0
VISUALSTYLE
  5
235
102
{ACAD_XDICTIONARY
360
2CC
102
}
102
{ACAD_REACTORS
330
222
102
}
330
222
100
AcDbVisualStyle
  2
X-Ray
 70
    25
 71
     2
 72
     2
 73
     1
 90
        1
 40
0.5
 41
-30.0
 62
     5
 63
     7
 74
     1
 91
        0
 64
     7
 65
   257
 75
     1
175
     1
 42
1.0
 92
        8
 66
     7
 43
1.0
 76
     1
 77
     6
 78
     2
 67
     7
 79
     3
170
     0
171
     0
290
     0
174
     0
 93
       13
 44
0.0
173
     0
291
     0
 45
0.0
1001
ACAD
1000
AcDbSavedByObjectVersion
1070
     0
  0
DICTIONARYVAR
  5
29C
102
{ACAD_REACTORS
330
299
102
}
330
299
100
DictionaryVariables
280
     0
  1
1:1
  0
DICTIONARYVAR
  5
29B
102
{ACAD_REACTORS
330
299
102
}
330
299
100
DictionaryVariables
280
     0
  1
STANDARD
  0
DICTIONARYVAR
  5
29A
102
{ACAD_REACTORS
330
299
102
}
330
299
100
DictionaryVariables
280
     0
  1
STANDARD
  0
DICTIONARYVAR
  5
29F
102
{ACAD_REACTORS
330
299
102
}
330
299
100
DictionaryVariables
280
     0
  1
1
  0
DICTIONARYVAR
  5
29E
102
{ACAD_REACTORS
330
299
102
}
330
299
100
DictionaryVariables
280
     0
  1
0
  0
DICTIONARYVAR
  5
29D
102
{ACAD_REACTORS
330
299
102
}
330
299
100
DictionaryVariables
280
     0
  1
127
  0
DICTIONARYVAR
  5
2A0
102
{ACAD_REACTORS
330
299
102
}
330
299
100
DictionaryVariables
280
     0
  1
2
  0
DICTIONARY
  5
2DA
330
255
100
AcDbDictionary
280
     1
281
     1
  3
ACAD_XREC_ROUNDTRIP
360
2DB
  0
DICTIONARY
  5
2DC
330
256
100
AcDbDictionary
280
     1
281
     1
  3
ACAD_XREC_ROUNDTRIP
360
2DD
  0
DICTIONARY
  5
213
330
212
100
AcDbDictionary
280
     1
281
     1
  3
ACAD_XREC_ROUNDTRIP
360
2A6
  3
BUMPTILE
360
215
  3
DIFFUSETILE
360
214
  3
OPACITYTILE
360
218
  3
REFLECTIONTILE
360
217
  3
REFRACTIONTILE
360
219
  3
SPECULARTILE
360
216
  0
DICTIONARY
  5
20B
330
20A
100
AcDbDictionary
280
     1
281
     1
  3
ACAD_XREC_ROUNDTRIP
360
2A5
  3
BUMPTILE
360
20D
  3
DIFFUSETILE
360
20C
  3
OPACITYTILE
360
210
  3
REFLECTIONTILE
360
20F
  3
REFRACTIONTILE
360
211
  3
SPECULARTILE
360
20E
  0
DICTIONARY
  5
21B
330
21A
100
AcDbDictionary
280
     1
281
     1
  3
ACAD_XREC_ROUNDTRIP
360
2A7
  3
BUMPTILE
360
21D
  3
DIFFUSETILE
360
21C
  3
OPACITYTILE
360
220
  3
REFLECTIONTILE
360
21F
  3
REFRACTIONTILE
360
221
  3
SPECULARTILE
360
21E
  0
DICTIONARY
  5
2A1
330
23D
100
AcDbDictionary
280
     1
281
     1
  3
ACAD_ROUNDTRIP_2008_TABLESTYLE_CELLSTYLEMAP
360
2A2
  3
ACAD_XREC_ROUNDTRIP
360
2D8
  0
DICTIONARY
  5
2B2
330
228
100
AcDbDictionary
280
     1
281
     1
  3
ACAD_XREC_ROUNDTRIP
360
2B3
  0
DICTIONARY
  5
2B0
330
227
100
AcDbDictionary
280
     1
281
     1
  3
ACAD_XREC_ROUNDTRIP
360
2B1
  0
DICTIONARY
  5
2BE
330
22E
100
AcDbDictionary
280
     1
281
     1
  3
ACAD_XREC_ROUNDTRIP
360
2BF
  0
DICTIONARY
  5
2C6
330
232
100
AcDbDictionary
280
     1
281
     1
  3
ACAD_XREC_ROUNDTRIP
360
2C7
  0
DICTIONARY
  5
2B8
330
22B
100
AcDbDictionary
280
     1
281
     1
  3
ACAD_XREC_ROUNDTRIP
360
2B9
  0
DICTIONARY
  5
2BC
330
22D
100
AcDbDictionary
280
     1
281
     1
  3
ACAD_XREC_ROUNDTRIP
360
2BD
  0
DICTIONARY
  5
2D6
330
23A
100
AcDbDictionary
280
     1
281
     1
  3
ACAD_XREC_ROUNDTRIP
360
2D7
  0
DICTIONARY
  5
2C4
330
231
100
AcDbDictionary
280
     1
281
     1
  3
ACAD_XREC_ROUNDTRIP
360
2C5
  0
DICTIONARY
  5
2A8
330
223
100
AcDbDictionary
280
     1
281
     1
  3
ACAD_XREC_ROUNDTRIP
360
2A9
  0
DICTIONARY
  5
2AA
330
224
100
AcDbDictionary
280
     1
281
     1
  3
ACAD_XREC_ROUNDTRIP
360
2AB
  0
DICTIONARY
  5
2AC
330
225
100
AcDbDictionary
280
     1
281
     1
  3
ACAD_XREC_ROUNDTRIP
360
2AD
  0
DICTIONARY
  5
2AE
330
226
100
AcDbDictionary
280
     1
281
     1
  3
ACAD_XREC_ROUNDTRIP
360
2AF
  0
DICTIONARY
  5
2B6
330
22A
100
AcDbDictionary
280
     1
281
     1
  3
ACAD_XREC_ROUNDTRIP
360
2B7
  0
DICTIONARY
  5
2D2
330
238
100
AcDbDictionary
280
     1
281
     1
  3
ACAD_XREC_ROUNDTRIP
360
2D3
  0
DICTIONARY
  5
2C2
330
230
100
AcDbDictionary
280
     1
281
     1
  3
ACAD_XREC_ROUNDTRIP
360
2C3
  0
DICTIONARY
  5
2D4
330
239
100
AcDbDictionary
280
     1
281
     1
  3
ACAD_XREC_ROUNDTRIP
360
2D5
  0
DICTIONARY
  5
2BA
330
22C
100
AcDbDictionary
280
     1
281
     1
  3
ACAD_XREC_ROUNDTRIP
360
2BB
  0
DICTIONARY
  5
2D0
330
237
100
AcDbDictionary
280
     1
281
     1
  3
ACAD_XREC_ROUNDTRIP
360
2D1
  0
DICTIONARY
  5
2CE
330
236
100
AcDbDictionary
280
     1
281
     1
  3
ACAD_XREC_ROUNDTRIP
360
2CF
  0
DICTIONARY
  5
2C8
330
233
100
AcDbDictionary
280
     1
281
     1
  3
ACAD_XREC_ROUNDTRIP
360
2C9
  0
DICTIONARY
  5
2CA
330
234
100
AcDbDictionary
280
     1
281
     1
  3
ACAD_XREC_ROUNDTRIP
360
2CB
  0
DICTIONARY
  5
2C0
330
22F
100
AcDbDictionary
280
     1
281
     1
  3
ACAD_XREC_ROUNDTRIP
360
2C1
  0
DICTIONARY
  5
2B4
330
229
100
AcDbDictionary
280
     1
281
     1
  3
ACAD_XREC_ROUNDTRIP
360
2B5
  0
DICTIONARY
  5
2CC
330
235
100
AcDbDictionary
280
     1
281
     1
  3
ACAD_XREC_ROUNDTRIP
360
2CD
  0
XRECORD
  5
2DB
102
{ACAD_REACTORS
330
2DA
102
}
330
2DA
100
AcDbXrecord
280
     1
102
SHADEPLOT
 70
     0
102
SHADEPLOTRESLEVEL
 70
     2
102
SHADEPLOTCUSTOMDPI
 70
   300
  0
XRECORD
  5
2DD
102
{ACAD_REACTORS
330
2DC
102
}
330
2DC
100
AcDbXrecord
280
     1
102
SHADEPLOT
 70
     0
102
SHADEPLOTRESLEVEL
 70
     2
102
SHADEPLOTCUSTOMDPI
 70
   300
  0
XRECORD
  5
2A6
102
{ACAD_REACTORS
330
213
102
}
330
213
100
AcDbXrecord
280
     1
102
MATERIAL
148
0.0
149
0.0
149
0.0
 93
        0
 94
      127
282
     0
 72
     0
 77
     0
171
     0
175
     0
179
     0
273
     0
  0
XRECORD
  5
215
102
{ACAD_REACTORS
330
213
102
}
330
213
100
AcDbXrecord
280
     1
270
     1
271
     1
  0
XRECORD
  5
214
102
{ACAD_REACTORS
330
213
102
}
330
213
100
AcDbXrecord
280
     1
270
     1
271
     1
  0
XRECORD
  5
218
102
{ACAD_REACTORS
330
213
102
}
330
213
100
AcDbXrecord
280
     1
270
     1
271
     1
  0
XRECORD
  5
217
102
{ACAD_REACTORS
330
213
102
}
330
213
100
AcDbXrecord
280
     1
270
     1
271
     1
  0
XRECORD
  5
219
102
{ACAD_REACTORS
330
213
102
}
330
213
100
AcDbXrecord
280
     1
270
     1
271
     1
  0
XRECORD
  5
216
102
{ACAD_REACTORS
330
213
102
}
330
213
100
AcDbXrecord
280
     1
270
     1
271
     1
  0
XRECORD
  5
2A5
102
{ACAD_REACTORS
330
20B
102
}
330
20B
100
AcDbXrecord
280
     1
102
MATERIAL
148
0.0
149
0.0
149
0.0
 93
        0
 94
      127
282
     0
 72
     0
 77
     0
171
     0
175
     0
179
     0
273
     0
  0
XRECORD
  5
20D
102
{ACAD_REACTORS
330
20B
102
}
330
20B
100
AcDbXrecord
280
     1
270
     1
271
     1
  0
XRECORD
  5
20C
102
{ACAD_REACTORS
330
20B
102
}
330
20B
100
AcDbXrecord
280
     1
270
     1
271
     1
  0
XRECORD
  5
210
102
{ACAD_REACTORS
330
20B
102
}
330
20B
100
AcDbXrecord
280
     1
270
     1
271
     1
  0
XRECORD
  5
20F
102
{ACAD_REACTORS
330
20B
102
}
330
20B
100
AcDbXrecord
280
     1
270
     1
271
     1
  0
XRECORD
  5
211
102
{ACAD_REACTORS
330
20B
102
}
330
20B
100
AcDbXrecord
280
     1
270
     1
271
     1
  0
XRECORD
  5
20E
102
{ACAD_REACTORS
330
20B
102
}
330
20B
100
AcDbXrecord
280
     1
270
     1
271
     1
  0
XRECORD
  5
2A7
102
{ACAD_REACTORS
330
21B
102
}
330
21B
100
AcDbXrecord
280
     1
102
MATERIAL
148
0.0
149
0.0
149
0.0
 93
        0
 94
      127
282
     0
 72
     0
 77
     0
171
     0
175
     0
179
     0
273
     0
  0
XRECORD
  5
21D
102
{ACAD_REACTORS
330
21B
102
}
330
21B
100
AcDbXrecord
280
     1
270
     1
271
     1
  0
XRECORD
  5
21C
102
{ACAD_REACTORS
330
21B
102
}
330
21B
100
AcDbXrecord
280
     1
270
     1
271
     1
  0
XRECORD
  5
220
102
{ACAD_REACTORS
330
21B
102
}
330
21B
100
AcDbXrecord
280
     1
270
     1
271
     1
  0
XRECORD
  5
21F
102
{ACAD_REACTORS
330
21B
102
}
330
21B
100
AcDbXrecord
280
     1
270
     1
271
     1
  0
XRECORD
  5
221
102
{ACAD_REACTORS
330
21B
102
}
330
21B
100
AcDbXrecord
280
     1
270
     1
271
     1
  0
XRECORD
  5
21E
102
{ACAD_REACTORS
330
21B
102
}
330
21B
100
AcDbXrecord
280
     1
270
     1
271
     1
  0
CELLSTYLEMAP
  5
2A2
102
{ACAD_REACTORS
330
2A1
102
}
330
2A1
100
AcDbCellStyleMap
 90
        3
300
CELLSTYLE
  1
TABLEFORMAT_BEGIN
 90
        5
170
     1
 91
        0
 92
    32768
 62
   257
 93
        1
300
CONTENTFORMAT
  1
CONTENTFORMAT_BEGIN
 90
        0
 91
        0
 92
      512
 93
        0
300

 40
0.0
140
1.0
 94
        5
 62
     0
340
2B
144
6.0
309
CONTENTFORMAT_END
171
     1
301
MARGIN
  1
CELLMARGIN_BEGIN
 40
1.5
 40
1.5
 40
1.5
 40
1.5
 40
4.5
 40
4.5
309
CELLMARGIN_END
 94
        6
 95
        1
302
GRIDFORMAT
  1
GRIDFORMAT_BEGIN
 90
        0
 91
        1
 62
     0
 92
       -2
340
0
 93
        0
 40
1.125
309
GRIDFORMAT_END
 95
        2
302
GRIDFORMAT
  1
GRIDFORMAT_BEGIN
 90
        0
 91
        1
 62
     0
 92
       -2
340
0
 93
        0
 40
1.125
309
GRIDFORMAT_END
 95
        4
302
GRIDFORMAT
  1
GRIDFORMAT_BEGIN
 90
        0
 91
        1
 62
     0
 92
       -2
340
0
 93
        0
 40
1.125
309
GRIDFORMAT_END
 95
        8
302
GRIDFORMAT
  1
GRIDFORMAT_BEGIN
 90
        0
 91
        1
 62
     0
 92
       -2
340
0
 93
        0
 40
1.125
309
GRIDFORMAT_END
 95
       16
302
GRIDFORMAT
  1
GRIDFORMAT_BEGIN
 90
        0
 91
        1
 62
     0
 92
       -2
340
0
 93
        0
 40
1.125
309
GRIDFORMAT_END
 95
       32
302
GRIDFORMAT
  1
GRIDFORMAT_BEGIN
 90
        0
 91
        1
 62
     0
 92
       -2
340
0
 93
        0
 40
1.125
309
GRIDFORMAT_END
309
TABLEFORMAT_END
  1
CELLSTYLE_BEGIN
 90
        1
 91
        1
300
_TITLE
309
CELLSTYLE_END
300
CELLSTYLE
  1
TABLEFORMAT_BEGIN
 90
        5
170
     1
 91
        0
 92
        0
 62
   257
 93
        1
300
CONTENTFORMAT
  1
CONTENTFORMAT_BEGIN
 90
        0
 91
        0
 92
      512
 93
        0
300

 40
0.0
140
1.0
 94
        5
 62
     0
340
2B
144
4.5
309
CONTENTFORMAT_END
171
     1
301
MARGIN
  1
CELLMARGIN_BEGIN
 40
1.5
 40
1.5
 40
1.5
 40
1.5
 40
4.5
 40
4.5
309
CELLMARGIN_END
 94
        6
 95
        1
302
GRIDFORMAT
  1
GRIDFORMAT_BEGIN
 90
        0
 91
        1
 62
     0
 92
       -2
340
0
 93
        0
 40
1.125
309
GRIDFORMAT_END
 95
        2
302
GRIDFORMAT
  1
GRIDFORMAT_BEGIN
 90
        0
 91
        1
 62
     0
 92
       -2
340
0
 93
        0
 40
1.125
309
GRIDFORMAT_END
 95
        4
302
GRIDFORMAT
  1
GRIDFORMAT_BEGIN
 90
        0
 91
        1
 62
     0
 92
       -2
340
0
 93
        0
 40
1.125
309
GRIDFORMAT_END
 95
        8
302
GRIDFORMAT
  1
GRIDFORMAT_BEGIN
 90
        0
 91
        1
 62
     0
 92
       -2
340
0
 93
        0
 40
1.125
309
GRIDFORMAT_END
 95
       16
302
GRIDFORMAT
  1
GRIDFORMAT_BEGIN
 90
        0
 91
        1
 62
     0
 92
       -2
340
0
 93
        0
 40
1.125
309
GRIDFORMAT_END
 95
       32
302
GRIDFORMAT
  1
GRIDFORMAT_BEGIN
 90
        0
 91
        1
 62
     0
 92
       -2
340
0
 93
        0
 40
1.125
309
GRIDFORMAT_END
309
TABLEFORMAT_END
  1
CELLSTYLE_BEGIN
 90
        2
 91
        1
300
_HEADER
309
CELLSTYLE_END
300
CELLSTYLE
  1
TABLEFORMAT_BEGIN
 90
        5
170
     1
 91
        0
 92
        0
 62
   257
 93
        1
300
CONTENTFORMAT
  1
CONTENTFORMAT_BEGIN
 90
        0
 91
        0
 92
      512
 93
        0
300

 40
0.0
140
1.0
 94
        2
 62
     0
340
2B
144
4.5
309
CONTENTFORMAT_END
171
     1
301
MARGIN
  1
CELLMARGIN_BEGIN
 40
1.5
 40
1.5
 40
1.5
 40
1.5
 40
4.5
 40
4.5
309
CELLMARGIN_END
 94
        6
 95
        1
302
GRIDFORMAT
  1
GRIDFORMAT_BEGIN
 90
        0
 91
        1
 62
     0
 92
       -2
340
0
 93
        0
 40
1.125
309
GRIDFORMAT_END
 95
        2
302
GRIDFORMAT
  1
GRIDFORMAT_BEGIN
 90
        0
 91
        1
 62
     0
 92
       -2
340
0
 93
        0
 40
1.125
309
GRIDFORMAT_END
 95
        4
302
GRIDFORMAT
  1
GRIDFORMAT_BEGIN
 90
        0
 91
        1
 62
     0
 92
       -2
340
0
 93
        0
 40
1.125
309
GRIDFORMAT_END
 95
        8
302
GRIDFORMAT
  1
GRIDFORMAT_BEGIN
 90
        0
 91
        1
 62
     0
 92
       -2
340
0
 93
        0
 40
1.125
309
GRIDFORMAT_END
 95
       16
302
GRIDFORMAT
  1
GRIDFORMAT_BEGIN
 90
        0
 91
        1
 62
     0
 92
       -2
340
0
 93
        0
 40
1.125
309
GRIDFORMAT_END
 95
       32
302
GRIDFORMAT
  1
GRIDFORMAT_BEGIN
 90
        0
 91
        1
 62
     0
 92
       -2
340
0
 93
        0
 40
1.125
309
GRIDFORMAT_END
309
TABLEFORMAT_END
  1
CELLSTYLE_BEGIN
 90
        3
 91
        2
300
_DATA
309
CELLSTYLE_END
  0
XRECORD
  5
2D8
102
{ACAD_REACTORS
330
2A1
102
}
330
2A1
100
AcDbXrecord
280
     1
102
ACAD_ROUNDTRIP_PRE2007_TABLESTYLE
 90
      512
 91
        0
  1

 92
      512
 93
        0
  2

 94
      512
 95
        0
  3

  0
XRECORD
  5
2B3
102
{ACAD_REACTORS
330
2B2
102
}
330
2B2
100
AcDbXrecord
280
     1
102
RTVSPropertyOp0
 70
     1
102
RTVSPropertyOp1
 70
     1
102
RTVSPropertyOp2
 70
     1
102
RTVSPropertyOp3
 70
     1
102
RTVSPropertyOp4
 70
     1
102
RTVSPropertyOp5
 70
     1
102
RTVSPropertyOp6
 70
     1
102
RTVSPropertyOp7
 70
     1
102
RTVSPropertyOp8
 70
     1
102
RTVSPropertyOp9
 70
     1
102
RTVSPropertyOp10
 70
     1
102
RTVSPropertyOp11
 70
     1
102
RTVSPropertyOp12
 70
     1
102
RTVSPropertyOp13
 70
     1
102
RTVSPropertyOp14
 70
     1
102
RTVSPropertyOp15
 70
     1
102
RTVSPropertyOp16
 70
     1
102
RTVSPropertyOp17
 70
     1
102
RTVSPropertyOp18
 70
     1
102
RTVSPropertyOp19
 70
     1
102
RTVSPropertyOp20
 70
     1
102
RTVSPropertyOp21
 70
     1
102
RTVSPropertyOp22
 70
     1
102
RTVSPropertyOp23
 70
     1
102
RTVSPropertyOp24
 70
     1
102
RTVSPropertyOp25
 70
     1
102
RTVSPropertyOp26
 70
     1
102
RTVSPropertyOp27
 70
     1
102
RTVSPropertyOp28
 70
     1
102
RTVSPropertyOp29
 70
     1
102
RTVSPropertyOp30
 70
     1
102
RTVSPropertyOp31
 70
     1
102
RTVSPropertyOp32
 70
     1
  0
XRECORD
  5
2B1
102
{ACAD_REACTORS
330
2B0
102
}
330
2B0
100
AcDbXrecord
280
     1
102
RTVSPropertyOp0
 70
     1
102
RTVSPropertyOp1
 70
     1
102
RTVSPropertyOp2
 70
     1
102
RTVSPropertyOp3
 70
     1
102
RTVSPropertyOp4
 70
     1
102
RTVSPropertyOp5
 70
     1
102
RTVSPropertyOp6
 70
     1
102
RTVSPropertyOp7
 70
     1
102
RTVSPropertyOp8
 70
     1
102
RTVSPropertyOp9
 70
     1
102
RTVSPropertyOp10
 70
     1
102
RTVSPropertyOp11
 70
     1
102
RTVSPropertyOp12
 70
     1
102
RTVSPropertyOp13
 70
     1
102
RTVSPropertyOp14
 70
     1
102
RTVSPropertyOp15
 70
     1
102
RTVSPropertyOp16
 70
     1
102
RTVSPropertyOp17
 70
     1
102
RTVSPropertyOp18
 70
     1
102
RTVSPropertyOp19
 70
     1
102
RTVSPropertyOp20
 70
     1
102
RTVSPropertyOp21
 70
     1
102
RTVSPropertyOp22
 70
     1
102
RTVSPropertyOp23
 70
     1
102
RTVSPropertyOp24
 70
     1
102
RTVSPropertyOp25
 70
     1
102
RTVSPropertyOp26
 70
     1
102
RTVSPropertyOp27
 70
     1
102
RTVSPropertyOp28
 70
     1
102
RTVSPropertyOp29
 70
     1
102
RTVSPropertyOp30
 70
     1
102
RTVSPropertyOp31
 70
     1
102
RTVSPropertyOp32
 70
     1
  0
XRECORD
  5
2BF
102
{ACAD_REACTORS
330
2BE
102
}
330
2BE
100
AcDbXrecord
280
     1
102
RTVSPropertyOp0
 70
     1
102
RTVSPropertyOp1
 70
     1
102
RTVSPropertyOp2
 70
     1
102
RTVSPropertyOp3
 70
     1
102
RTVSPropertyOp4
 70
     1
102
RTVSPropertyOp5
 70
     1
102
RTVSPropertyOp6
 70
     1
102
RTVSPropertyOp7
 70
     1
102
RTVSPropertyOp8
 70
     1
102
RTVSPropertyOp9
 70
     1
102
RTVSPropertyOp10
 70
     1
102
RTVSPropertyOp11
 70
     1
102
RTVSPropertyOp12
 70
     1
102
RTVSPropertyOp13
 70
     1
102
RTVSPropertyOp14
 70
     1
102
RTVSPropertyOp15
 70
     1
102
RTVSPropertyOp16
 70
     1
102
RTVSPropertyOp17
 70
     1
102
RTVSPropertyOp18
 70
     1
102
RTVSPropertyOp19
 70
     1
102
RTVSPropertyOp20
 70
     1
102
RTVSPropertyOp21
 70
     1
102
RTVSPropertyOp22
 70
     1
102
RTVSPropertyOp23
 70
     1
102
RTVSPropertyOp24
 70
     1
102
RTVSPropertyOp25
 70
     1
102
RTVSPropertyOp26
 70
     1
102
RTVSPropertyOp27
 70
     1
102
RTVSPropertyOp28
 70
     1
102
RTVSPropertyOp29
 70
     1
102
RTVSPropertyOp30
 70
     1
102
RTVSPropertyOp31
 70
     1
102
RTVSPropertyOp32
 70
     1
  0
XRECORD
  5
2C7
102
{ACAD_REACTORS
330
2C6
102
}
330
2C6
100
AcDbXrecord
280
     1
102
RTVSPropertyOp0
 70
     1
102
RTVSPropertyOp1
 70
     1
102
RTVSPropertyOp2
 70
     1
102
RTVSPropertyOp3
 70
     1
102
RTVSPropertyOp4
 70
     1
102
RTVSPropertyOp5
 70
     1
102
RTVSPropertyOp6
 70
     1
102
RTVSPropertyOp7
 70
     1
102
RTVSPropertyOp8
 70
     1
102
RTVSPropertyOp9
 70
     1
102
RTVSPropertyOp10
 70
     1
102
RTVSPropertyOp11
 70
     1
102
RTVSPropertyOp12
 70
     1
102
RTVSPropertyOp13
 70
     1
102
RTVSPropertyOp14
 70
     1
102
RTVSPropertyOp15
 70
     1
102
RTVSPropertyOp16
 70
     1
102
RTVSPropertyOp17
 70
     1
102
RTVSPropertyOp18
 70
     1
102
RTVSPropertyOp19
 70
     1
102
RTVSPropertyOp20
 70
     1
102
RTVSPropertyOp21
 70
     1
102
RTVSPropertyOp22
 70
     1
102
RTVSPropertyOp23
 70
     1
102
RTVSPropertyOp24
 70
     1
102
RTVSPropertyOp25
 70
     1
102
RTVSPropertyOp26
 70
     1
102
RTVSPropertyOp27
 70
     1
102
RTVSPropertyOp28
 70
     1
102
RTVSPropertyOp29
 70
     1
102
RTVSPropertyOp30
 70
     1
102
RTVSPropertyOp31
 70
     1
102
RTVSPropertyOp32
 70
     1
  0
XRECORD
  5
2B9
102
{ACAD_REACTORS
330
2B8
102
}
330
2B8
100
AcDbXrecord
280
     1
102
RTVSPropertyOp0
 70
     1
102
RTVSPropertyOp1
 70
     1
102
RTVSPropertyOp2
 70
     1
102
RTVSPropertyOp3
 70
     1
102
RTVSPropertyOp4
 70
     1
102
RTVSPropertyOp5
 70
     1
102
RTVSPropertyOp6
 70
     1
102
RTVSPropertyOp7
 70
     1
102
RTVSPropertyOp8
 70
     1
102
RTVSPropertyOp9
 70
     1
102
RTVSPropertyOp10
 70
     1
102
RTVSPropertyOp11
 70
     1
102
RTVSPropertyOp12
 70
     1
102
RTVSPropertyOp13
 70
     1
102
RTVSPropertyOp14
 70
     1
102
RTVSPropertyOp15
 70
     1
102
RTVSPropertyOp16
 70
     1
102
RTVSPropertyOp17
 70
     1
102
RTVSPropertyOp18
 70
     1
102
RTVSPropertyOp19
 70
     1
102
RTVSPropertyOp20
 70
     1
102
RTVSPropertyOp21
 70
     1
102
RTVSPropertyOp22
 70
     1
102
RTVSPropertyOp23
 70
     1
102
RTVSPropertyOp24
 70
     1
102
RTVSPropertyOp25
 70
     1
102
RTVSPropertyOp26
 70
     1
102
RTVSPropertyOp27
 70
     1
102
RTVSPropertyOp28
 70
     1
102
RTVSPropertyOp29
 70
     1
102
RTVSPropertyOp30
 70
     1
102
RTVSPropertyOp31
 70
     1
102
RTVSPropertyOp32
 70
     1
  0
XRECORD
  5
2BD
102
{ACAD_REACTORS
330
2BC
102
}
330
2BC
100
AcDbXrecord
280
     1
102
RTVSPropertyOp0
 70
     1
102
RTVSPropertyOp1
 70
     1
102
RTVSPropertyOp2
 70
     1
102
RTVSPropertyOp3
 70
     1
102
RTVSPropertyOp4
 70
     1
102
RTVSPropertyOp5
 70
     1
102
RTVSPropertyOp6
 70
     1
102
RTVSPropertyOp7
 70
     1
102
RTVSPropertyOp8
 70
     1
102
RTVSPropertyOp9
 70
     1
102
RTVSPropertyOp10
 70
     1
102
RTVSPropertyOp11
 70
     1
102
RTVSPropertyOp12
 70
     1
102
RTVSPropertyOp13
 70
     1
102
RTVSPropertyOp14
 70
     1
102
RTVSPropertyOp15
 70
     1
102
RTVSPropertyOp16
 70
     1
102
RTVSPropertyOp17
 70
     1
102
RTVSPropertyOp18
 70
     1
102
RTVSPropertyOp19
 70
     1
102
RTVSPropertyOp20
 70
     1
102
RTVSPropertyOp21
 70
     1
102
RTVSPropertyOp22
 70
     1
102
RTVSPropertyOp23
 70
     1
102
RTVSPropertyOp24
 70
     1
102
RTVSPropertyOp25
 70
     1
102
RTVSPropertyOp26
 70
     1
102
RTVSPropertyOp27
 70
     1
102
RTVSPropertyOp28
 70
     1
102
RTVSPropertyOp29
 70
     1
102
RTVSPropertyOp30
 70
     1
102
RTVSPropertyOp31
 70
     1
102
RTVSPropertyOp32
 70
     1
  0
XRECORD
  5
2D7
102
{ACAD_REACTORS
330
2D6
102
}
330
2D6
100
AcDbXrecord
280
     1
102
RTVSPropertyOp0
 70
     0
102
RTVSPropertyOp1
 70
     0
102
RTVSPropertyOp2
 70
     0
102
RTVSPropertyOp3
 70
     0
102
RTVSPropertyOp4
 70
     0
102
RTVSPropertyOp5
 70
     0
102
RTVSPropertyOp6
 70
     0
102
RTVSPropertyOp7
 70
     0
102
RTVSPropertyOp8
 70
     0
102
RTVSPropertyOp9
 70
     0
102
RTVSPropertyOp10
 70
     0
102
RTVSPropertyOp11
 70
     0
102
RTVSPropertyOp12
 70
     0
102
RTVSPropertyOp13
 70
     0
102
RTVSPropertyOp14
 70
     2
102
RTVSPropertyOp15
 70
     0
102
RTVSPropertyOp16
 70
     0
102
RTVSPropertyOp17
 70
     0
102
RTVSPropertyOp18
 70
     0
102
RTVSPropertyOp19
 70
     0
102
RTVSPropertyOp20
 70
     0
102
RTVSPropertyOp21
 70
     0
102
RTVSPropertyOp22
 70
     0
102
RTVSPropertyOp23
 70
     0
102
RTVSPropertyOp24
 70
     0
102
RTVSPropertyOp25
 70
     0
102
RTVSPropertyOp26
 70
     0
102
RTVSPropertyOp27
 70
     0
102
RTVSPropertyOp28
 70
     0
102
RTVSPropertyOp29
 70
     0
102
RTVSPropertyOp30
 70
     0
102
RTVSPropertyOp31
 70
     0
102
RTVSPropertyOp32
 70
     0
  0
XRECORD
  5
2C5
102
{ACAD_REACTORS
330
2C4
102
}
330
2C4
100
AcDbXrecord
280
     1
102
RTVSPropertyOp0
 70
     1
102
RTVSPropertyOp1
 70
     1
102
RTVSPropertyOp2
 70
     1
102
RTVSPropertyOp3
 70
     1
102
RTVSPropertyOp4
 70
     1
102
RTVSPropertyOp5
 70
     1
102
RTVSPropertyOp6
 70
     1
102
RTVSPropertyOp7
 70
     1
102
RTVSPropertyOp8
 70
     1
102
RTVSPropertyOp9
 70
     1
102
RTVSPropertyOp10
 70
     1
102
RTVSPropertyOp11
 70
     1
102
RTVSPropertyOp12
 70
     1
102
RTVSPropertyOp13
 70
     1
102
RTVSPropertyOp14
 70
     1
102
RTVSPropertyOp15
 70
     1
102
RTVSPropertyOp16
 70
     1
102
RTVSPropertyOp17
 70
     1
102
RTVSPropertyOp18
 70
     1
102
RTVSPropertyOp19
 70
     1
102
RTVSPropertyOp20
 70
     1
102
RTVSPropertyOp21
 70
     1
102
RTVSPropertyOp22
 70
     1
102
RTVSPropertyOp23
 70
     1
102
RTVSPropertyOp24
 70
     1
102
RTVSPropertyOp25
 70
     1
102
RTVSPropertyOp26
 70
     1
102
RTVSPropertyOp27
 70
     1
102
RTVSPropertyOp28
 70
     1
102
RTVSPropertyOp29
 70
     1
102
RTVSPropertyOp30
 70
     1
102
RTVSPropertyOp31
 70
     1
102
RTVSPropertyOp32
 70
     1
  0
XRECORD
  5
2A9
102
{ACAD_REACTORS
330
2A8
102
}
330
2A8
100
AcDbXrecord
280
     1
102
RTVSPropertyOp0
 70
     1
102
RTVSPropertyOp1
 70
     1
102
RTVSPropertyOp2
 70
     1
102
RTVSPropertyOp3
 70
     1
102
RTVSPropertyOp4
 70
     1
102
RTVSPropertyOp5
 70
     1
102
RTVSPropertyOp6
 70
     1
102
RTVSPropertyOp7
 70
     1
102
RTVSPropertyOp8
 70
     1
102
RTVSPropertyOp9
 70
     1
102
RTVSPropertyOp10
 70
     1
102
RTVSPropertyOp11
 70
     1
102
RTVSPropertyOp12
 70
     1
102
RTVSPropertyOp13
 70
     1
102
RTVSPropertyOp14
 70
     1
102
RTVSPropertyOp15
 70
     1
102
RTVSPropertyOp16
 70
     1
102
RTVSPropertyOp17
 70
     1
102
RTVSPropertyOp18
 70
     1
102
RTVSPropertyOp19
 70
     1
102
RTVSPropertyOp20
 70
     1
102
RTVSPropertyOp21
 70
     1
102
RTVSPropertyOp22
 70
     1
102
RTVSPropertyOp23
 70
     1
102
RTVSPropertyOp24
 70
     1
102
RTVSPropertyOp25
 70
     1
102
RTVSPropertyOp26
 70
     1
102
RTVSPropertyOp27
 70
     1
102
RTVSPropertyOp28
 70
     1
102
RTVSPropertyOp29
 70
     1
102
RTVSPropertyOp30
 70
     1
102
RTVSPropertyOp31
 70
     1
102
RTVSPropertyOp32
 70
     1
  0
XRECORD
  5
2AB
102
{ACAD_REACTORS
330
2AA
102
}
330
2AA
100
AcDbXrecord
280
     1
102
RTVSPropertyOp0
 70
     1
102
RTVSPropertyOp1
 70
     1
102
RTVSPropertyOp2
 70
     1
102
RTVSPropertyOp3
 70
     1
102
RTVSPropertyOp4
 70
     1
102
RTVSPropertyOp5
 70
     1
102
RTVSPropertyOp6
 70
     1
102
RTVSPropertyOp7
 70
     1
102
RTVSPropertyOp8
 70
     1
102
RTVSPropertyOp9
 70
     1
102
RTVSPropertyOp10
 70
     1
102
RTVSPropertyOp11
 70
     1
102
RTVSPropertyOp12
 70
     1
102
RTVSPropertyOp13
 70
     1
102
RTVSPropertyOp14
 70
     1
102
RTVSPropertyOp15
 70
     1
102
RTVSPropertyOp16
 70
     1
102
RTVSPropertyOp17
 70
     1
102
RTVSPropertyOp18
 70
     1
102
RTVSPropertyOp19
 70
     1
102
RTVSPropertyOp20
 70
     1
102
RTVSPropertyOp21
 70
     1
102
RTVSPropertyOp22
 70
     1
102
RTVSPropertyOp23
 70
     1
102
RTVSPropertyOp24
 70
     1
102
RTVSPropertyOp25
 70
     1
102
RTVSPropertyOp26
 70
     1
102
RTVSPropertyOp27
 70
     1
102
RTVSPropertyOp28
 70
     1
102
RTVSPropertyOp29
 70
     1
102
RTVSPropertyOp30
 70
     1
102
RTVSPropertyOp31
 70
     1
102
RTVSPropertyOp32
 70
     1
  0
XRECORD
  5
2AD
102
{ACAD_REACTORS
330
2AC
102
}
330
2AC
100
AcDbXrecord
280
     1
102
RTVSPropertyOp0
 70
     1
102
RTVSPropertyOp1
 70
     1
102
RTVSPropertyOp2
 70
     1
102
RTVSPropertyOp3
 70
     1
102
RTVSPropertyOp4
 70
     1
102
RTVSPropertyOp5
 70
     1
102
RTVSPropertyOp6
 70
     1
102
RTVSPropertyOp7
 70
     1
102
RTVSPropertyOp8
 70
     1
102
RTVSPropertyOp9
 70
     1
102
RTVSPropertyOp10
 70
     1
102
RTVSPropertyOp11
 70
     1
102
RTVSPropertyOp12
 70
     1
102
RTVSPropertyOp13
 70
     1
102
RTVSPropertyOp14
 70
     1
102
RTVSPropertyOp15
 70
     1
102
RTVSPropertyOp16
 70
     1
102
RTVSPropertyOp17
 70
     1
102
RTVSPropertyOp18
 70
     1
102
RTVSPropertyOp19
 70
     1
102
RTVSPropertyOp20
 70
     1
102
RTVSPropertyOp21
 70
     1
102
RTVSPropertyOp22
 70
     1
102
RTVSPropertyOp23
 70
     1
102
RTVSPropertyOp24
 70
     1
102
RTVSPropertyOp25
 70
     1
102
RTVSPropertyOp26
 70
     1
102
RTVSPropertyOp27
 70
     1
102
RTVSPropertyOp28
 70
     1
102
RTVSPropertyOp29
 70
     1
102
RTVSPropertyOp30
 70
     1
102
RTVSPropertyOp31
 70
     1
102
RTVSPropertyOp32
 70
     1
  0
XRECORD
  5
2AF
102
{ACAD_REACTORS
330
2AE
102
}
330
2AE
100
AcDbXrecord
280
     1
102
RTVSPropertyOp0
 70
     1
102
RTVSPropertyOp1
 70
     1
102
RTVSPropertyOp2
 70
     1
102
RTVSPropertyOp3
 70
     1
102
RTVSPropertyOp4
 70
     1
102
RTVSPropertyOp5
 70
     1
102
RTVSPropertyOp6
 70
     1
102
RTVSPropertyOp7
 70
     1
102
RTVSPropertyOp8
 70
     1
102
RTVSPropertyOp9
 70
     1
102
RTVSPropertyOp10
 70
     1
102
RTVSPropertyOp11
 70
     1
102
RTVSPropertyOp12
 70
     1
102
RTVSPropertyOp13
 70
     1
102
RTVSPropertyOp14
 70
     1
102
RTVSPropertyOp15
 70
     1
102
RTVSPropertyOp16
 70
     1
102
RTVSPropertyOp17
 70
     1
102
RTVSPropertyOp18
 70
     1
102
RTVSPropertyOp19
 70
     1
102
RTVSPropertyOp20
 70
     1
102
RTVSPropertyOp21
 70
     1
102
RTVSPropertyOp22
 70
     1
102
RTVSPropertyOp23
 70
     1
102
RTVSPropertyOp24
 70
     1
102
RTVSPropertyOp25
 70
     1
102
RTVSPropertyOp26
 70
     1
102
RTVSPropertyOp27
 70
     1
102
RTVSPropertyOp28
 70
     1
102
RTVSPropertyOp29
 70
     1
102
RTVSPropertyOp30
 70
     1
102
RTVSPropertyOp31
 70
     1
102
RTVSPropertyOp32
 70
     1
  0
XRECORD
  5
2B7
102
{ACAD_REACTORS
330
2B6
102
}
330
2B6
100
AcDbXrecord
280
     1
102
RTVSPropertyOp0
 70
     1
102
RTVSPropertyOp1
 70
     1
102
RTVSPropertyOp2
 70
     1
102
RTVSPropertyOp3
 70
     1
102
RTVSPropertyOp4
 70
     1
102
RTVSPropertyOp5
 70
     1
102
RTVSPropertyOp6
 70
     1
102
RTVSPropertyOp7
 70
     1
102
RTVSPropertyOp8
 70
     1
102
RTVSPropertyOp9
 70
     1
102
RTVSPropertyOp10
 70
     1
102
RTVSPropertyOp11
 70
     1
102
RTVSPropertyOp12
 70
     1
102
RTVSPropertyOp13
 70
     1
102
RTVSPropertyOp14
 70
     1
102
RTVSPropertyOp15
 70
     1
102
RTVSPropertyOp16
 70
     1
102
RTVSPropertyOp17
 70
     1
102
RTVSPropertyOp18
 70
     1
102
RTVSPropertyOp19
 70
     1
102
RTVSPropertyOp20
 70
     1
102
RTVSPropertyOp21
 70
     1
102
RTVSPropertyOp22
 70
     1
102
RTVSPropertyOp23
 70
     1
102
RTVSPropertyOp24
 70
     1
102
RTVSPropertyOp25
 70
     1
102
RTVSPropertyOp26
 70
     1
102
RTVSPropertyOp27
 70
     1
102
RTVSPropertyOp28
 70
     1
102
RTVSPropertyOp29
 70
     1
102
RTVSPropertyOp30
 70
     1
102
RTVSPropertyOp31
 70
     1
102
RTVSPropertyOp32
 70
     1
  0
XRECORD
  5
2D3
102
{ACAD_REACTORS
330
2D2
102
}
330
2D2
100
AcDbXrecord
280
     1
102
RTVSPropertyOp0
 70
     0
102
RTVSPropertyOp1
 70
     0
102
RTVSPropertyOp2
 70
     0
102
RTVSPropertyOp3
 70
     0
102
RTVSPropertyOp4
 70
     0
102
RTVSPropertyOp5
 70
     0
102
RTVSPropertyOp6
 70
     0
102
RTVSPropertyOp7
 70
     0
102
RTVSPropertyOp8
 70
     0
102
RTVSPropertyOp9
 70
     0
102
RTVSPropertyOp10
 70
     0
102
RTVSPropertyOp11
 70
     0
102
RTVSPropertyOp12
 70
     0
102
RTVSPropertyOp13
 70
     0
102
RTVSPropertyOp14
 70
     2
102
RTVSPropertyOp15
 70
     0
102
RTVSPropertyOp16
 70
     0
102
RTVSPropertyOp17
 70
     0
102
RTVSPropertyOp18
 70
     0
102
RTVSPropertyOp19
 70
     0
102
RTVSPropertyOp20
 70
     0
102
RTVSPropertyOp21
 70
     0
102
RTVSPropertyOp22
 70
     0
102
RTVSPropertyOp23
 70
     0
102
RTVSPropertyOp24
 70
     0
102
RTVSPropertyOp25
 70
     0
102
RTVSPropertyOp26
 70
     0
102
RTVSPropertyOp27
 70
     0
102
RTVSPropertyOp28
 70
     0
102
RTVSPropertyOp29
 70
     0
102
RTVSPropertyOp30
 70
     0
102
RTVSPropertyOp31
 70
     0
102
RTVSPropertyOp32
 70
     0
  0
XRECORD
  5
2C3
102
{ACAD_REACTORS
330
2C2
102
}
330
2C2
100
AcDbXrecord
280
     1
102
RTVSPropertyOp0
 70
     1
102
RTVSPropertyOp1
 70
     1
102
RTVSPropertyOp2
 70
     1
102
RTVSPropertyOp3
 70
     1
102
RTVSPropertyOp4
 70
     1
102
RTVSPropertyOp5
 70
     1
102
RTVSPropertyOp6
 70
     1
102
RTVSPropertyOp7
 70
     1
102
RTVSPropertyOp8
 70
     1
102
RTVSPropertyOp9
 70
     1
102
RTVSPropertyOp10
 70
     1
102
RTVSPropertyOp11
 70
     1
102
RTVSPropertyOp12
 70
     1
102
RTVSPropertyOp13
 70
     1
102
RTVSPropertyOp14
 70
     1
102
RTVSPropertyOp15
 70
     1
102
RTVSPropertyOp16
 70
     1
102
RTVSPropertyOp17
 70
     1
102
RTVSPropertyOp18
 70
     1
102
RTVSPropertyOp19
 70
     1
102
RTVSPropertyOp20
 70
     1
102
RTVSPropertyOp21
 70
     1
102
RTVSPropertyOp22
 70
     1
102
RTVSPropertyOp23
 70
     1
102
RTVSPropertyOp24
 70
     1
102
RTVSPropertyOp25
 70
     1
102
RTVSPropertyOp26
 70
     1
102
RTVSPropertyOp27
 70
     1
102
RTVSPropertyOp28
 70
     1
102
RTVSPropertyOp29
 70
     1
102
RTVSPropertyOp30
 70
     1
102
RTVSPropertyOp31
 70
     1
102
RTVSPropertyOp32
 70
     1
  0
XRECORD
  5
2D5
102
{ACAD_REACTORS
330
2D4
102
}
330
2D4
100
AcDbXrecord
280
     1
102
RTVSPropertyOp0
 70
     0
102
RTVSPropertyOp1
 70
     0
102
RTVSPropertyOp2
 70
     0
102
RTVSPropertyOp3
 70
     0
102
RTVSPropertyOp4
 70
     0
102
RTVSPropertyOp5
 70
     0
102
RTVSPropertyOp6
 70
     0
102
RTVSPropertyOp7
 70
     0
102
RTVSPropertyOp8
 70
     0
102
RTVSPropertyOp9
 70
     0
102
RTVSPropertyOp10
 70
     0
102
RTVSPropertyOp11
 70
     0
102
RTVSPropertyOp12
 70
     0
102
RTVSPropertyOp13
 70
     0
102
RTVSPropertyOp14
 70
     2
102
RTVSPropertyOp15
 70
     0
102
RTVSPropertyOp16
 70
     0
102
RTVSPropertyOp17
 70
     0
102
RTVSPropertyOp18
 70
     0
102
RTVSPropertyOp19
 70
     0
102
RTVSPropertyOp20
 70
     0
102
RTVSPropertyOp21
 70
     0
102
RTVSPropertyOp22
 70
     0
102
RTVSPropertyOp23
 70
     0
102
RTVSPropertyOp24
 70
     0
102
RTVSPropertyOp25
 70
     0
102
RTVSPropertyOp26
 70
     0
102
RTVSPropertyOp27
 70
     0
102
RTVSPropertyOp28
 70
     0
102
RTVSPropertyOp29
 70
     0
102
RTVSPropertyOp30
 70
     0
102
RTVSPropertyOp31
 70
     0
102
RTVSPropertyOp32
 70
     0
  0
XRECORD
  5
2BB
102
{ACAD_REACTORS
330
2BA
102
}
330
2BA
100
AcDbXrecord
280
     1
102
RTVSPropertyOp0
 70
     1
102
RTVSPropertyOp1
 70
     1
102
RTVSPropertyOp2
 70
     1
102
RTVSPropertyOp3
 70
     1
102
RTVSPropertyOp4
 70
     1
102
RTVSPropertyOp5
 70
     1
102
RTVSPropertyOp6
 70
     1
102
RTVSPropertyOp7
 70
     1
102
RTVSPropertyOp8
 70
     1
102
RTVSPropertyOp9
 70
     1
102
RTVSPropertyOp10
 70
     1
102
RTVSPropertyOp11
 70
     1
102
RTVSPropertyOp12
 70
     1
102
RTVSPropertyOp13
 70
     1
102
RTVSPropertyOp14
 70
     1
102
RTVSPropertyOp15
 70
     1
102
RTVSPropertyOp16
 70
     1
102
RTVSPropertyOp17
 70
     1
102
RTVSPropertyOp18
 70
     1
102
RTVSPropertyOp19
 70
     1
102
RTVSPropertyOp20
 70
     1
102
RTVSPropertyOp21
 70
     1
102
RTVSPropertyOp22
 70
     1
102
RTVSPropertyOp23
 70
     1
102
RTVSPropertyOp24
 70
     1
102
RTVSPropertyOp25
 70
     1
102
RTVSPropertyOp26
 70
     1
102
RTVSPropertyOp27
 70
     1
102
RTVSPropertyOp28
 70
     1
102
RTVSPropertyOp29
 70
     1
102
RTVSPropertyOp30
 70
     1
102
RTVSPropertyOp31
 70
     1
102
RTVSPropertyOp32
 70
     1
  0
XRECORD
  5
2D1
102
{ACAD_REACTORS
330
2D0
102
}
330
2D0
100
AcDbXrecord
280
     1
102
RTVSPropertyOp0
 70
     1
102
RTVSPropertyOp1
 70
     1
102
RTVSPropertyOp2
 70
     1
102
RTVSPropertyOp3
 70
     1
102
RTVSPropertyOp4
 70
     1
102
RTVSPropertyOp5
 70
     1
102
RTVSPropertyOp6
 70
     1
102
RTVSPropertyOp7
 70
     1
102
RTVSPropertyOp8
 70
     1
102
RTVSPropertyOp9
 70
     1
102
RTVSPropertyOp10
 70
     1
102
RTVSPropertyOp11
 70
     1
102
RTVSPropertyOp12
 70
     1
102
RTVSPropertyOp13
 70
     1
102
RTVSPropertyOp14
 70
     1
102
RTVSPropertyOp15
 70
     1
102
RTVSPropertyOp16
 70
     1
102
RTVSPropertyOp17
 70
     1
102
RTVSPropertyOp18
 70
     1
102
RTVSPropertyOp19
 70
     1
102
RTVSPropertyOp20
 70
     1
102
RTVSPropertyOp21
 70
     1
102
RTVSPropertyOp22
 70
     1
102
RTVSPropertyOp23
 70
     1
102
RTVSPropertyOp24
 70
     1
102
RTVSPropertyOp25
 70
     1
102
RTVSPropertyOp26
 70
     1
102
RTVSPropertyOp27
 70
     1
102
RTVSPropertyOp28
 70
     1
102
RTVSPropertyOp29
 70
     1
102
RTVSPropertyOp30
 70
     1
102
RTVSPropertyOp31
 70
     1
102
RTVSPropertyOp32
 70
     1
  0
XRECORD
  5
2CF
102
{ACAD_REACTORS
330
2CE
102
}
330
2CE
100
AcDbXrecord
280
     1
102
RTVSPropertyOp0
 70
     1
102
RTVSPropertyOp1
 70
     1
102
RTVSPropertyOp2
 70
     1
102
RTVSPropertyOp3
 70
     1
102
RTVSPropertyOp4
 70
     1
102
RTVSPropertyOp5
 70
     1
102
RTVSPropertyOp6
 70
     1
102
RTVSPropertyOp7
 70
     1
102
RTVSPropertyOp8
 70
     1
102
RTVSPropertyOp9
 70
     1
102
RTVSPropertyOp10
 70
     1
102
RTVSPropertyOp11
 70
     1
102
RTVSPropertyOp12
 70
     1
102
RTVSPropertyOp13
 70
     1
102
RTVSPropertyOp14
 70
     1
102
RTVSPropertyOp15
 70
     1
102
RTVSPropertyOp16
 70
     1
102
RTVSPropertyOp17
 70
     1
102
RTVSPropertyOp18
 70
     1
102
RTVSPropertyOp19
 70
     1
102
RTVSPropertyOp20
 70
     1
102
RTVSPropertyOp21
 70
     1
102
RTVSPropertyOp22
 70
     1
102
RTVSPropertyOp23
 70
     1
102
RTVSPropertyOp24
 70
     1
102
RTVSPropertyOp25
 70
     1
102
RTVSPropertyOp26
 70
     1
102
RTVSPropertyOp27
 70
     1
102
RTVSPropertyOp28
 70
     1
102
RTVSPropertyOp29
 70
     1
102
RTVSPropertyOp30
 70
     1
102
RTVSPropertyOp31
 70
     1
102
RTVSPropertyOp32
 70
     1
  0
XRECORD
  5
2C9
102
{ACAD_REACTORS
330
2C8
102
}
330
2C8
100
AcDbXrecord
280
     1
102
RTVSPropertyOp0
 70
     1
102
RTVSPropertyOp1
 70
     1
102
RTVSPropertyOp2
 70
     1
102
RTVSPropertyOp3
 70
     1
102
RTVSPropertyOp4
 70
     1
102
RTVSPropertyOp5
 70
     1
102
RTVSPropertyOp6
 70
     1
102
RTVSPropertyOp7
 70
     1
102
RTVSPropertyOp8
 70
     1
102
RTVSPropertyOp9
 70
     1
102
RTVSPropertyOp10
 70
     1
102
RTVSPropertyOp11
 70
     1
102
RTVSPropertyOp12
 70
     1
102
RTVSPropertyOp13
 70
     1
102
RTVSPropertyOp14
 70
     1
102
RTVSPropertyOp15
 70
     1
102
RTVSPropertyOp16
 70
     1
102
RTVSPropertyOp17
 70
     1
102
RTVSPropertyOp18
 70
     1
102
RTVSPropertyOp19
 70
     1
102
RTVSPropertyOp20
 70
     1
102
RTVSPropertyOp21
 70
     1
102
RTVSPropertyOp22
 70
     1
102
RTVSPropertyOp23
 70
     1
102
RTVSPropertyOp24
 70
     1
102
RTVSPropertyOp25
 70
     1
102
RTVSPropertyOp26
 70
     1
102
RTVSPropertyOp27
 70
     1
102
RTVSPropertyOp28
 70
     1
102
RTVSPropertyOp29
 70
     1
102
RTVSPropertyOp30
 70
     1
102
RTVSPropertyOp31
 70
     1
102
RTVSPropertyOp32
 70
     1
  0
XRECORD
  5
2CB
102
{ACAD_REACTORS
330
2CA
102
}
330
2CA
100
AcDbXrecord
280
     1
102
RTVSPropertyOp0
 70
     1
102
RTVSPropertyOp1
 70
     1
102
RTVSPropertyOp2
 70
     1
102
RTVSPropertyOp3
 70
     1
102
RTVSPropertyOp4
 70
     1
102
RTVSPropertyOp5
 70
     1
102
RTVSPropertyOp6
 70
     1
102
RTVSPropertyOp7
 70
     1
102
RTVSPropertyOp8
 70
     1
102
RTVSPropertyOp9
 70
     1
102
RTVSPropertyOp10
 70
     1
102
RTVSPropertyOp11
 70
     1
102
RTVSPropertyOp12
 70
     1
102
RTVSPropertyOp13
 70
     1
102
RTVSPropertyOp14
 70
     1
102
RTVSPropertyOp15
 70
     1
102
RTVSPropertyOp16
 70
     1
102
RTVSPropertyOp17
 70
     1
102
RTVSPropertyOp18
 70
     1
102
RTVSPropertyOp19
 70
     1
102
RTVSPropertyOp20
 70
     1
102
RTVSPropertyOp21
 70
     1
102
RTVSPropertyOp22
 70
     1
102
RTVSPropertyOp23
 70
     1
102
RTVSPropertyOp24
 70
     1
102
RTVSPropertyOp25
 70
     1
102
RTVSPropertyOp26
 70
     1
102
RTVSPropertyOp27
 70
     1
102
RTVSPropertyOp28
 70
     1
102
RTVSPropertyOp29
 70
     1
102
RTVSPropertyOp30
 70
     1
102
RTVSPropertyOp31
 70
     1
102
RTVSPropertyOp32
 70
     1
  0
XRECORD
  5
2C1
102
{ACAD_REACTORS
330
2C0
102
}
330
2C0
100
AcDbXrecord
280
     1
102
RTVSPropertyOp0
 70
     1
102
RTVSPropertyOp1
 70
     1
102
RTVSPropertyOp2
 70
     1
102
RTVSPropertyOp3
 70
     1
102
RTVSPropertyOp4
 70
     1
102
RTVSPropertyOp5
 70
     1
102
RTVSPropertyOp6
 70
     1
102
RTVSPropertyOp7
 70
     1
102
RTVSPropertyOp8
 70
     1
102
RTVSPropertyOp9
 70
     1
102
RTVSPropertyOp10
 70
     1
102
RTVSPropertyOp11
 70
     1
102
RTVSPropertyOp12
 70
     1
102
RTVSPropertyOp13
 70
     1
102
RTVSPropertyOp14
 70
     1
102
RTVSPropertyOp15
 70
     1
102
RTVSPropertyOp16
 70
     1
102
RTVSPropertyOp17
 70
     1
102
RTVSPropertyOp18
 70
     1
102
RTVSPropertyOp19
 70
     1
102
RTVSPropertyOp20
 70
     1
102
RTVSPropertyOp21
 70
     1
102
RTVSPropertyOp22
 70
     1
102
RTVSPropertyOp23
 70
     1
102
RTVSPropertyOp24
 70
     1
102
RTVSPropertyOp25
 70
     1
102
RTVSPropertyOp26
 70
     1
102
RTVSPropertyOp27
 70
     1
102
RTVSPropertyOp28
 70
     1
102
RTVSPropertyOp29
 70
     1
102
RTVSPropertyOp30
 70
     1
102
RTVSPropertyOp31
 70
     1
102
RTVSPropertyOp32
 70
     1
  0
XRECORD
  5
2B5
102
{ACAD_REACTORS
330
2B4
102
}
330
2B4
100
AcDbXrecord
280
     1
102
RTVSPropertyOp0
 70
     1
102
RTVSPropertyOp1
 70
     1
102
RTVSPropertyOp2
 70
     1
102
RTVSPropertyOp3
 70
     1
102
RTVSPropertyOp4
 70
     1
102
RTVSPropertyOp5
 70
     1
102
RTVSPropertyOp6
 70
     1
102
RTVSPropertyOp7
 70
     1
102
RTVSPropertyOp8
 70
     1
102
RTVSPropertyOp9
 70
     1
102
RTVSPropertyOp10
 70
     1
102
RTVSPropertyOp11
 70
     1
102
RTVSPropertyOp12
 70
     1
102
RTVSPropertyOp13
 70
     1
102
RTVSPropertyOp14
 70
     1
102
RTVSPropertyOp15
 70
     1
102
RTVSPropertyOp16
 70
     1
102
RTVSPropertyOp17
 70
     1
102
RTVSPropertyOp18
 70
     1
102
RTVSPropertyOp19
 70
     1
102
RTVSPropertyOp20
 70
     1
102
RTVSPropertyOp21
 70
     1
102
RTVSPropertyOp22
 70
     1
102
RTVSPropertyOp23
 70
     1
102
RTVSPropertyOp24
 70
     1
102
RTVSPropertyOp25
 70
     1
102
RTVSPropertyOp26
 70
     1
102
RTVSPropertyOp27
 70
     1
102
RTVSPropertyOp28
 70
     1
102
RTVSPropertyOp29
 70
     1
102
RTVSPropertyOp30
 70
     1
102
RTVSPropertyOp31
 70
     1
102
RTVSPropertyOp32
 70
     1
  0
XRECORD
  5
2CD
102
{ACAD_REACTORS
330
2CC
102
}
330
2CC
100
AcDbXrecord
280
     1
102
RTVSPropertyOp0
 70
     1
102
RTVSPropertyOp1
 70
     1
102
RTVSPropertyOp2
 70
     1
102
RTVSPropertyOp3
 70
     1
102
RTVSPropertyOp4
 70
     1
102
RTVSPropertyOp5
 70
     1
102
RTVSPropertyOp6
 70
     1
102
RTVSPropertyOp7
 70
     1
102
RTVSPropertyOp8
 70
     1
102
RTVSPropertyOp9
 70
     1
102
RTVSPropertyOp10
 70
     1
102
RTVSPropertyOp11
 70
     1
102
RTVSPropertyOp12
 70
     1
102
RTVSPropertyOp13
 70
     1
102
RTVSPropertyOp14
 70
     1
102
RTVSPropertyOp15
 70
     1
102
RTVSPropertyOp16
 70
     1
102
RTVSPropertyOp17
 70
     1
102
RTVSPropertyOp18
 70
     1
102
RTVSPropertyOp19
 70
     1
102
RTVSPropertyOp20
 70
     1
102
RTVSPropertyOp21
 70
     1
102
RTVSPropertyOp22
 70
     1
102
RTVSPropertyOp23
 70
     1
102
RTVSPropertyOp24
 70
     1
102
RTVSPropertyOp25
 70
     1
102
RTVSPropertyOp26
 70
     1
102
RTVSPropertyOp27
 70
     1
102
RTVSPropertyOp28
 70
     1
102
RTVSPropertyOp29
 70
     1
102
RTVSPropertyOp30
 70
     1
102
RTVSPropertyOp31
 70
     1
102
RTVSPropertyOp32
 70
     1
  0
ENDSEC
  0
EOF
