  0
SECTION
  2
HEADER
  9
$ACADVER
  1
AC1014
  9
$DWGCODEPAGE
  3
ANSI_1252
  9
$INSBASE
 10
0.0
 20
0.0
 30
0.0
  9
$EXTMIN
 10
16.95292807
 20
-41472.29492927
  9
$EXTMAX
 10
39212.93812994
 20
784.39574146
  9
$LIMMIN
 10
16.95292807
 20
-41472.29492927
  9
$LIMMAX
 10
39212.93812994
 20
784.39574146
  9
$ORTHOMODE
 70
     0
  9
$REGENMODE
 70
     1
  9
$FILLMODE
 70
     1
  9
$QTEXTMODE
 70
     0
  9
$MIRRTEXT
 70
     1
  9
$DRAGMODE
 70
     2
  9
$LTSCALE
 40
5.0
  9
$OSMODE
 70
     0
  9
$ATTMODE
 70
     1
  9
$TEXTSIZE
 40
3.5
  9
$TRACEWID
 40
1.0
  9
$TEXTSTYLE
  7
STANDARD
  9
$CLAYER
  8
0
  9
$CELTYPE
  6
BYLAYER
  9
$CECOLOR
 62
   256
  9
$DIMSCALE
 40
1.0
  9
$DIMASZ
 40
2.0
  9
$DIMEXO
 40
5.0
  9
$DIMDLI
 40
10.0
  9
$DIMRND
 40
0.0
  9
$DIMDLE
 40
2.0
  9
$DIMEXE
 40
2.0
  9
$DIMTP
 40
0.0
  9
$DIMTM
 40
0.0
  9
$DIMTXT
 40
2.5
  9
$DIMCEN
 40
1.5
  9
$DIMTSZ
 40
0.0
  9
$DIMTOL
 70
     0
  9
$DIMLIM
 70
     0
  9
$DIMTIH
 70
     1
  9
$DIMTOH
 70
     0
  9
$DIMSE1
 70
     0
  9
$DIMSE2
 70
     0
  9
$DIMTAD
 70
     1
  9
$DIMZIN
 70
     8
  9
$DIMBLK
  1

  9
$DIMASO
 70
     1
  9
$DIMSHO
 70
     1
  9
$DIMPOST
  1

  9
$DIMAPOST
  1

  9
$DIMALT
 70
     0
  9
$DIMALTD
 70
     2
  9
$DIMALTF
 40
25.4
  9
$DIMLFAC
 40
1.0
  9
$DIMTOFL
 70
     0
  9
$DIMTVP
 40
0.0
  9
$DIMTIX
 70
     0
  9
$DIMSOXD
 70
     0
  9
$DIMSAH
 70
     0
  9
$DIMBLK1
  1

  9
$DIMBLK2
  1

  9
$DIMSTYLE
  2
*UNNAMED
  9
$DIMCLRD
 70
   190
  9
$DIMCLRE
 70
   190
  9
$DIMCLRT
 70
   190
  9
$DIMTFAC
 40
1.0
  9
$DIMGAP
 40
0.09
  9
$DIMUNIT
 70
     2
  9
$LUNITS
 70
     2
  9
$LUPREC
 70
     6
  9
$AXISMODE
 70
     0
  9
$AXISUNIT
 10
0.0
 20
0.0
  9
$SKETCHINC
 40
0.1
  9
$FILLETRAD
 40
0.0
  9
$AUNITS
 70
     0
  9
$AUPREC
 70
     0
  9
$MENU
  1
ACAD
  9
$ELEVATION
 40
0.0
  9
$PELEVATION
 40
0.0
  9
$THICKNESS
 40
0.0
  9
$LIMCHECK
 70
     0
  9
$BLIPMODE
 70
     1
  9
$CHAMFERA
 40
0.0
  9
$CHAMFERB
 40
0.0
  9
$SKPOLY
 70
     1
  9
$TDCREATE
 40
2457811.0000000000
  9
$TDUPDATE
 40
2457811.0000000000
  9
$TDINDWG
 40
0.0
  9
$TDUSRTIMER
 40
0.0
  9
$USRTIMER
 70
     1
  9
$ANGBASE
 50
0.0
  9
$ANGDIR
 70
     0
  9
$PDMODE
 70
     0
  9
$PDSIZE
 40
0.0
  9
$PLINEWID
 40
0.0
  9
$COORDS
 70
     2
  9
$SPLFRAME
 70
     0
  9
$SPLINETYPE
 70
     6
  9
$SPLINESEGS
 70
     8
  9
$ATTDIA
 70
     1
  9
$ATTREQ
 70
     1
  9
$HANDLING
 70
     1
  9
$HANDSEED
  5
     2DF
  9
$SURFTAB1
 70
     6
  9
$SURFTAB2
 70
     6
  9
$SURFTYPE
 70
     6
  9
$SURFU
 70
     6
  9
$SURFV
 70
     6
  9
$UCSNAME
  2

  9
$UCSORG
 10
0.0
 20
0.0
 30
0.0
  9
$UCSXDIR
 10
1.0
 20
0.0
 30
0.0
  9
$UCSYDIR
 10
0.0
 20
1.0
 30
0.0
  9
$PUCSNAME
  2

  9
$PUCSORG
 10
0.0
 20
0.0
 30
0.0
  9
$PUCSXDIR
 10
1.0
 20
0.0
 30
0.0
  9
$PUCSYDIR
 10
0.0
 20
1.0
 30
0.0
  9
$USERI1
 70
     0
  9
$USERI2
 70
     0
  9
$USERI3
 70
     0
  9
$USERI4
 70
     0
  9
$USERI5
 70
     0
  9
$USERR1
 40
0.0
  9
$USERR2
 40
0.0
  9
$USERR3
 40
0.0
  9
$USERR4
 40
0.0
  9
$USERR5
 40
0.0
  9
$WORLDVIEW
 70
     1
  9
$SHADEDGE
 70
     3
  9
$SHADEDIF
 70
    70
  9
$TILEMODE
 70
     1
  9
$MAXACTVP
 70
    16
  9
$PINSBASE
 10
0.0
 20
0.0
 30
0.0
  9
$PLIMCHECK
 70
     0
  9
$PEXTMIN
 10
1.0000000000000E+20
 20
1.0000000000000E+20
 30
1.0000000000000E+20
  9
$PEXTMAX
 10
-1.0000000000000E+20
 20
-1.0000000000000E+20
 30
-1.0000000000000E+20
  9
$PLIMMIN
 10
0.0
 20
0.0
  9
$UNITMODE
 70
     0
  9
$VISRETAIN
 70
     0
  9
$MEASUREMENT
 70
     1
  0
ENDSEC
  0
SECTION
  2
TABLES
  0
TABLE
  2
VPORT
  5
E9
100
AcDbSymbolTable
 70
     1
  0
ENDTAB
  0
TABLE
  2
STYLE
  5
EA
100
AcDbSymbolTable
 70
     3
  0
STYLE
  5
EB
100
AcDbSymbolTableRecord
100
AcDbTextStyleTableRecord
  2
STANDARD
 70
     0
 40
0.0
 41
1.0
 50
0.0
 71
     0
 42
3.5
  3
MONOTXT
  4

  0
STYLE
  5
EC
100
AcDbSymbolTableRecord
100
AcDbTextStyleTableRecord
  2
SYMAP
 70
     0
 40
0.0
 41
1.0
 50
0.0
 71
     0
 42
3.5
  3
SYMAP
  4

  0
STYLE
  5
ED
100
AcDbSymbolTableRecord
100
AcDbTextStyleTableRecord
  2
CADWORK1
 70
     0
 40
0.0
 41
1.0
 50
0.0
 71
     0
 42
3.5
  3
MONOTXT
  4

  0
STYLE
  5
EE
100
AcDbSymbolTableRecord
100
AcDbTextStyleTableRecord
  2
MONOTXT
 70
     0
 40
0.0
 41
1.0
 50
0.0
 71
     0
 42
3.5
  3
MONOTXT
  4

  0
STYLE
  5
EF
100
AcDbSymbolTableRecord
100
AcDbTextStyleTableRecord
  2
ARIAL
 70
     0
 40
0.0
 41
1.0
 50
0.0
 71
     0
 42
3.5
  3

  4

1001
ACAD
1000
Arial
1071
        0
  0
ENDTAB
  0
TABLE
  2
LTYPE
  5
F0
100
AcDbSymbolTable
 70
    13
  0
LTYPE
  5
F1
100
AcDbSymbolTableRecord
100
AcDbLinetypeTableRecord
  2
BYBLOCK
 70
    64
  3

 72
    65
 73
     0
 40
0.0
  0
LTYPE
  5
F2
100
AcDbSymbolTableRecord
100
AcDbLinetypeTableRecord
  2
BYLAYER
 70
    64
  3

 72
    65
 73
     0
 40
0.0
  0
LTYPE
  5
F3
100
AcDbSymbolTableRecord
100
AcDbLinetypeTableRecord
  2
CONTINUOUS
 70
    64
  3
Solid line
 72
    65
 73
     0
 40
0.0
  0
LTYPE
  5
F4
100
AcDbSymbolTableRecord
100
AcDbLinetypeTableRecord
  2
DOT2
 70
    64
  3
...............................................
 72
    65
 73
     2
 40
1.25
 49
0.0
 74
     0
 49
-1.25
 74
     0
  0
LTYPE
  5
F5
100
AcDbSymbolTableRecord
100
AcDbLinetypeTableRecord
  2
DASHDOT
 70
    64
  3
 __ . __ . __ . __ . __ . __ . __ . __ . __ . __
 72
    65
 73
     4
 40
10.0
 49
5.0
 74
     0
 49
-2.5
 74
     0
 49
0.0
 74
     0
 49
-2.5
 74
     0
  0
LTYPE
  5
F6
100
AcDbSymbolTableRecord
100
AcDbLinetypeTableRecord
  2
DASHEDX2
 70
    64
  3
____  ____  ____  ____  ____  ____  ____  ____
 72
    65
 73
     2
 40
3.75
 49
2.5
 74
     0
 49
-1.25
 74
     0
  0
LTYPE
  5
F7
100
AcDbSymbolTableRecord
100
AcDbLinetypeTableRecord
  2
CADWORK_22
 70
    64
  3
22 =======================================
 72
    65
 73
     0
 40
0.0
  0
LTYPE
  5
F8
100
AcDbSymbolTableRecord
100
AcDbLinetypeTableRecord
  2
DAL
 70
    64
  3
Solid line (for MAPS)
 72
    65
 73
     0
 40
0.0
  0
LTYPE
  5
F9
100
AcDbSymbolTableRecord
100
AcDbLinetypeTableRecord
  2
MUR
 70
    64
  3
Solid line (for MAPS)
 72
    65
 73
     0
 40
0.0
  0
LTYPE
  5
FA
100
AcDbSymbolTableRecord
100
AcDbLinetypeTableRecord
  2
SOM
 70
    64
  3
Solid line (for MAPS)
 72
    65
 73
     0
 40
0.0
  0
LTYPE
  5
FB
100
AcDbSymbolTableRecord
100
AcDbLinetypeTableRecord
  2
COL
 70
    64
  3
Solid line (for MAPS)
 72
    65
 73
     0
 40
0.0
  0
LTYPE
  5
FC
100
AcDbSymbolTableRecord
100
AcDbLinetypeTableRecord
  2
LGN
 70
    64
  3
Solid line (for MAPS)
 72
    65
 73
     0
 40
0.0
  0
LTYPE
  5
FD
100
AcDbSymbolTableRecord
100
AcDbLinetypeTableRecord
  2
PNT
 70
    64
  3
Solid line (for MAPS)
 72
    65
 73
     0
 40
0.0
  0
ENDTAB
  0
TABLE
  2
LAYER
  5
FE
100
AcDbSymbolTable
 70
    32
  0
LAYER
  5
FF
100
AcDbSymbolTableRecord
100
AcDbLayerTableRecord
  2
Standard
 70
     0
 62
     7
  6
CONTINUOUS
370
    -3
  0
LAYER
  5
100
100
AcDbSymbolTableRecord
100
AcDbLayerTableRecord
  2
Ech.1_1
 70
     0
 62
     7
  6
CONTINUOUS
370
    -3
  0
LAYER
  5
101
100
AcDbSymbolTableRecord
100
AcDbLayerTableRecord
  2
Ech.1_2
 70
     0
 62
     7
  6
CONTINUOUS
370
    -3
  0
LAYER
  5
102
100
AcDbSymbolTableRecord
100
AcDbLayerTableRecord
  2
Ech.1_5
 70
     0
 62
     7
  6
CONTINUOUS
370
    -3
  0
LAYER
  5
103
100
AcDbSymbolTableRecord
100
AcDbLayerTableRecord
  2
Ech.1_10
 70
     0
 62
     7
  6
CONTINUOUS
370
    -3
  0
LAYER
  5
104
100
AcDbSymbolTableRecord
100
AcDbLayerTableRecord
  2
Ech.1_20
 70
     0
 62
     7
  6
CONTINUOUS
370
    -3
  0
LAYER
  5
105
100
AcDbSymbolTableRecord
100
AcDbLayerTableRecord
  2
Ech.1_25
 70
     0
 62
     7
  6
CONTINUOUS
370
    -3
  0
LAYER
  5
106
100
AcDbSymbolTableRecord
100
AcDbLayerTableRecord
  2
Ech.1_33
 70
     0
 62
     7
  6
CONTINUOUS
370
    -3
  0
LAYER
  5
107
100
AcDbSymbolTableRecord
100
AcDbLayerTableRecord
  2
Ech.1_50
 70
     0
 62
     7
  6
CONTINUOUS
370
    -3
  0
LAYER
  5
108
100
AcDbSymbolTableRecord
100
AcDbLayerTableRecord
  2
Ech.1_75
 70
     0
 62
     7
  6
CONTINUOUS
370
    -3
  0
LAYER
  5
109
100
AcDbSymbolTableRecord
100
AcDbLayerTableRecord
  2
Ech.1_100
 70
     0
 62
     7
  6
CONTINUOUS
370
    -3
  0
LAYER
  5
10A
100
AcDbSymbolTableRecord
100
AcDbLayerTableRecord
  2
Ech.1_200
 70
     0
 62
     7
  6
CONTINUOUS
370
    -3
  0
LAYER
  5
10B
100
AcDbSymbolTableRecord
100
AcDbLayerTableRecord
  2
Ech.1_500
 70
     0
 62
     7
  6
CONTINUOUS
370
    -3
  0
LAYER
  5
10C
100
AcDbSymbolTableRecord
100
AcDbLayerTableRecord
  2
Ech.1_1000
 70
     0
 62
     7
  6
CONTINUOUS
370
    -3
  0
LAYER
  5
10D
100
AcDbSymbolTableRecord
100
AcDbLayerTableRecord
  2
Cadres traceur
 70
     0
 62
     7
  6
CONTINUOUS
370
    18
  0
LAYER
  5
10E
100
AcDbSymbolTableRecord
100
AcDbLayerTableRecord
  2
Cadres laser
 70
     0
 62
     7
  6
CONTINUOUS
370
    18
  0
LAYER
  5
10F
100
AcDbSymbolTableRecord
100
AcDbLayerTableRecord
  2
Légende d_aide
 70
     0
 62
     7
  6
CONTINUOUS
370
    18
  0
LAYER
  5
110
100
AcDbSymbolTableRecord
100
AcDbLayerTableRecord
  2
hachures ok
 70
     0
 62
     7
  6
CONTINUOUS
370
    18
  0
LAYER
  5
111
100
AcDbSymbolTableRecord
100
AcDbLayerTableRecord
  2
ossature bois
 70
     0
 62
     7
  6
CONTINUOUS
370
    18
  0
LAYER
  5
112
100
AcDbSymbolTableRecord
100
AcDbLayerTableRecord
  2
VR
 70
     0
 62
     7
  6
CONTINUOUS
370
    25
  0
LAYER
  5
113
100
AcDbSymbolTableRecord
100
AcDbLayerTableRecord
  2
Calque1
 70
     0
 62
     7
  6
CONTINUOUS
370
     9
  0
LAYER
  5
114
100
AcDbSymbolTableRecord
100
AcDbLayerTableRecord
  2
0
 70
     0
 62
     7
  6
CONTINUOUS
370
    -3
  0
LAYER
  5
115
100
AcDbSymbolTableRecord
100
AcDbLayerTableRecord
  2
menuiserie
 70
     0
 62
     7
  6
CONTINUOUS
370
    -3
  0
LAYER
  5
116
100
AcDbSymbolTableRecord
100
AcDbLayerTableRecord
  2
cotation
 70
     0
 62
   250
  6
CONTINUOUS
370
     9
  0
LAYER
  5
117
100
AcDbSymbolTableRecord
100
AcDbLayerTableRecord
  2
Defpoints
 70
     0
 62
    10
  6
CONTINUOUS
370
    -3
  0
LAYER
  5
118
100
AcDbSymbolTableRecord
100
AcDbLayerTableRecord
  2
HACHURE
 70
     0
 62
   254
  6
CONTINUOUS
370
    25
  0
LAYER
  5
119
100
AcDbSymbolTableRecord
100
AcDbLayerTableRecord
  2
mat1
 70
     0
 62
     7
  6
CONTINUOUS
370
    30
  0
LAYER
  5
11A
100
AcDbSymbolTableRecord
100
AcDbLayerTableRecord
  2
mat2
 70
     0
 62
     7
  6
CONTINUOUS
370
     5
  0
LAYER
  5
11B
100
AcDbSymbolTableRecord
100
AcDbLayerTableRecord
  2
hach
 70
     0
 62
     8
  6
CONTINUOUS
370
     5
  0
LAYER
  5
11C
100
AcDbSymbolTableRecord
100
AcDbLayerTableRecord
  2
menuiseries
 70
     0
 62
     7
  6
CONTINUOUS
370
     9
  0
LAYER
  5
11D
100
AcDbSymbolTableRecord
100
AcDbLayerTableRecord
  2
BétonMétal
 70
     0
 62
     7
  6
CONTINUOUS
370
    80
  0
LAYER
  5
11E
100
AcDbSymbolTableRecord
100
AcDbLayerTableRecord
  2
bois
 70
     0
 62
     7
  6
CONTINUOUS
370
    60
  0
ENDTAB
  0
TABLE
  2
VIEW
  5
11F
100
AcDbSymbolTable
 70
     0
  0
ENDTAB
  0
TABLE
  2
UCS
  5
120
100
AcDbSymbolTable
 70
     0
  0
ENDTAB
  0
TABLE
  2
APPID
  5
121
100
AcDbSymbolTable
 70
     1
  0
APPID
  5
122
100
AcDbSymbolTableRecord
100
AcDbRegAppTableRecord
  2
ACAD
 70
     0
  0
ENDTAB
  0
TABLE
  2
DIMSTYLE
  5
123
100
AcDbSymbolTable
 70
     0
  0
ENDTAB
  0
TABLE
  2
BLOCK_RECORD
  5
124
100
AcDbSymbolTable
 70
     0
  0
BLOCK_RECORD
  5
125
100
AcDbSymbolTableRecord
100
AcDbBlockTableRecord
  2
*MODEL_SPACE
  0
BLOCK_RECORD
  5
126
100
AcDbSymbolTableRecord
100
AcDbBlockTableRecord
  2
*PAPER_SPACE
  0
BLOCK_RECORD
  5
127
100
AcDbSymbolTableRecord
100
AcDbBlockTableRecord
  2
CDWK_EXTR_0
  0
BLOCK_RECORD
  5
128
100
AcDbSymbolTableRecord
100
AcDbBlockTableRecord
  2
CDWK_EXTR_1D
  0
BLOCK_RECORD
  5
129
100
AcDbSymbolTableRecord
100
AcDbBlockTableRecord
  2
CDWK_EXTR_1G
  0
BLOCK_RECORD
  5
12A
100
AcDbSymbolTableRecord
100
AcDbBlockTableRecord
  2
CDWK_EXTR_2
  0
BLOCK_RECORD
  5
12B
100
AcDbSymbolTableRecord
100
AcDbBlockTableRecord
  2
CDWK_EXTR_3
  0
BLOCK_RECORD
  5
12C
100
AcDbSymbolTableRecord
100
AcDbBlockTableRecord
  2
CDWK_EXTR_4
  0
BLOCK_RECORD
  5
12D
100
AcDbSymbolTableRecord
100
AcDbBlockTableRecord
  2
CDWK_PTTYP0
  0
BLOCK_RECORD
  5
12E
100
AcDbSymbolTableRecord
100
AcDbBlockTableRecord
  2
CDWK_PTTYP1
  0
BLOCK_RECORD
  5
12F
100
AcDbSymbolTableRecord
100
AcDbBlockTableRecord
  2
CDWK_PTTYP2
  0
BLOCK_RECORD
  5
130
100
AcDbSymbolTableRecord
100
AcDbBlockTableRecord
  2
CDWK_PTTYP3
  0
BLOCK_RECORD
  5
131
100
AcDbSymbolTableRecord
100
AcDbBlockTableRecord
  2
CDWK_PTTYP4
  0
BLOCK_RECORD
  5
132
100
AcDbSymbolTableRecord
100
AcDbBlockTableRecord
  2
CDWK_PTTYP5
  0
BLOCK_RECORD
  5
133
100
AcDbSymbolTableRecord
100
AcDbBlockTableRecord
  2
CDWK_PTTYP6
  0
BLOCK_RECORD
  5
134
100
AcDbSymbolTableRecord
100
AcDbBlockTableRecord
  2
CDWK_PTTYP7
  0
BLOCK_RECORD
  5
135
100
AcDbSymbolTableRecord
100
AcDbBlockTableRecord
  2
CDWK_PTTYP8
  0
BLOCK_RECORD
  5
136
100
AcDbSymbolTableRecord
100
AcDbBlockTableRecord
  2
CDWK_PTTYP9
  0
BLOCK_RECORD
  5
137
100
AcDbSymbolTableRecord
100
AcDbBlockTableRecord
  2
CDWK_PTTYP10
  0
BLOCK_RECORD
  5
138
100
AcDbSymbolTableRecord
100
AcDbBlockTableRecord
  2
CDWK_PTTYP11
  0
BLOCK_RECORD
  5
139
100
AcDbSymbolTableRecord
100
AcDbBlockTableRecord
  2
CDWK_PTTYP12
  0
BLOCK_RECORD
  5
13A
100
AcDbSymbolTableRecord
100
AcDbBlockTableRecord
  2
CDWK_PTTYP13
  0
BLOCK_RECORD
  5
13B
100
AcDbSymbolTableRecord
100
AcDbBlockTableRecord
  2
CDWK_PTTYP14
  0
BLOCK_RECORD
  5
13C
100
AcDbSymbolTableRecord
100
AcDbBlockTableRecord
  2
CDWK_PTTYP15
  0
BLOCK_RECORD
  5
13D
100
AcDbSymbolTableRecord
100
AcDbBlockTableRecord
  2
CDWK_PTTYP16
  0
BLOCK_RECORD
  5
13E
100
AcDbSymbolTableRecord
100
AcDbBlockTableRecord
  2
CDWK_PTTYP17
  0
BLOCK_RECORD
  5
13F
100
AcDbSymbolTableRecord
100
AcDbBlockTableRecord
  2
CDWK_PTTYP18
  0
BLOCK_RECORD
  5
140
100
AcDbSymbolTableRecord
100
AcDbBlockTableRecord
  2
CDWK_PTTYP19
  0
BLOCK_RECORD
  5
141
100
AcDbSymbolTableRecord
100
AcDbBlockTableRecord
  2
CDWK_PTTYP20
  0
BLOCK_RECORD
  5
142
100
AcDbSymbolTableRecord
100
AcDbBlockTableRecord
  2
CDWK_PTTYP21
  0
BLOCK_RECORD
  5
143
100
AcDbSymbolTableRecord
100
AcDbBlockTableRecord
  2
CDWK_PTTYP22
  0
BLOCK_RECORD
  5
144
100
AcDbSymbolTableRecord
100
AcDbBlockTableRecord
  2
CDWK_PTTYP23
  0
BLOCK_RECORD
  5
145
100
AcDbSymbolTableRecord
100
AcDbBlockTableRecord
  2
CDWK_PTTYP24
  0
BLOCK_RECORD
  5
146
100
AcDbSymbolTableRecord
100
AcDbBlockTableRecord
  2
CDWK_PTTYP25
  0
BLOCK_RECORD
  5
147
100
AcDbSymbolTableRecord
100
AcDbBlockTableRecord
  2
CDWK_PTTYP26
  0
BLOCK_RECORD
  5
148
100
AcDbSymbolTableRecord
100
AcDbBlockTableRecord
  2
CDWK_PTTYP27
  0
BLOCK_RECORD
  5
149
100
AcDbSymbolTableRecord
100
AcDbBlockTableRecord
  2
CDWK_PTTYP28
  0
BLOCK_RECORD
  5
14A
100
AcDbSymbolTableRecord
100
AcDbBlockTableRecord
  2
CDWK_PTTYP29
  0
BLOCK_RECORD
  5
14B
100
AcDbSymbolTableRecord
100
AcDbBlockTableRecord
  2
CDWK_PTTYP30
  0
BLOCK_RECORD
  5
14C
100
AcDbSymbolTableRecord
100
AcDbBlockTableRecord
  2
CDWK_PTTYP31
  0
BLOCK_RECORD
  5
14D
100
AcDbSymbolTableRecord
100
AcDbBlockTableRecord
  2
CDWK_PTTYP32
  0
BLOCK_RECORD
  5
14E
100
AcDbSymbolTableRecord
100
AcDbBlockTableRecord
  2
CDWK_PTTYP33
  0
BLOCK_RECORD
  5
14F
100
AcDbSymbolTableRecord
100
AcDbBlockTableRecord
  2
CDWK_PTTYP34
  0
BLOCK_RECORD
  5
150
100
AcDbSymbolTableRecord
100
AcDbBlockTableRecord
  2
CDWK_PTTYP35
  0
BLOCK_RECORD
  5
151
100
AcDbSymbolTableRecord
100
AcDbBlockTableRecord
  2
CDWK_PTTYP36
  0
BLOCK_RECORD
  5
152
100
AcDbSymbolTableRecord
100
AcDbBlockTableRecord
  2
CDWK_PTTYP37
  0
BLOCK_RECORD
  5
153
100
AcDbSymbolTableRecord
100
AcDbBlockTableRecord
  2
CDWK_PTTYP38
  0
BLOCK_RECORD
  5
154
100
AcDbSymbolTableRecord
100
AcDbBlockTableRecord
  2
*D3
  0
BLOCK_RECORD
  5
155
100
AcDbSymbolTableRecord
100
AcDbBlockTableRecord
  2
*D4
  0
ENDTAB
  0
ENDSEC
  0
SECTION
  2
BLOCKS
  0
BLOCK
  5
156
100
AcDbEntity
  8
0
100
AcDbBlockBegin
  2
*MODEL_SPACE
 70
     0
 10
0.0
 20
0.0
 30
0.0
  3
*MODEL_SPACE
  1

  0
ENDBLK
  5
157
100
AcDbEntity
100
AcDbBlockEnd
  0
BLOCK
  5
158
100
AcDbEntity
  8
0
100
AcDbBlockBegin
  2
*PAPER_SPACE
 70
     0
 10
0.0
 20
0.0
 30
0.0
  3
*PAPER_SPACE
  1

  0
ENDBLK
  5
159
100
AcDbEntity
100
AcDbBlockEnd
  0
BLOCK
  5
15A
100
AcDbEntity
  8
0
100
AcDbBlockBegin
  2
CDWK_EXTR_0
 70
     0
 10
0.0
 20
0.0
 30
0.0
  3
CDWK_EXTR_0
  1

  4
Cadwork line-extremity
  0
LINE
  5
15B
100
AcDbEntity
  8
0
 62
     0
370
    -2
100
AcDbLine
 10
0.0
 20
0.0
 30
0.0
 11
2.0
 21
0.5
 31
0.0
  0
LINE
  5
15C
100
AcDbEntity
  8
0
 62
     0
370
    -2
100
AcDbLine
 10
0.0
 20
0.0
 30
0.0
 11
2.0
 21
-0.5
 31
0.0
  0
LINE
  5
15D
100
AcDbEntity
  8
0
 62
     0
370
    -2
100
AcDbLine
 10
2.0
 20
0.5
 30
0.0
 11
2.0
 21
-0.5
 31
0.0
  0
ENDBLK
  5
15E
100
AcDbEntity
100
AcDbBlockEnd
  0
BLOCK
  5
15F
100
AcDbEntity
  8
0
100
AcDbBlockBegin
  2
CDWK_EXTR_1D
 70
     0
 10
0.0
 20
0.0
 30
0.0
  3
CDWK_EXTR_1D
  1

  4
Cadwork line-extremity
  0
LINE
  5
160
100
AcDbEntity
  8
0
 62
     0
370
    -2
100
AcDbLine
 10
0.0
 20
0.0
 30
0.0
 11
0.0
 21
1.0
 31
0.0
  0
LINE
  5
161
100
AcDbEntity
  8
0
 62
     0
370
    -2
100
AcDbLine
 10
0.0
 20
1.0
 30
0.0
 11
0.5
 21
1.5
 31
0.0
  0
LINE
  5
162
100
AcDbEntity
  8
0
 62
     0
370
    -2
100
AcDbLine
 10
0.5
 20
1.5
 30
0.0
 11
1.5
 21
1.5
 31
0.0
  0
ENDBLK
  5
163
100
AcDbEntity
100
AcDbBlockEnd
  0
BLOCK
  5
164
100
AcDbEntity
  8
0
100
AcDbBlockBegin
  2
CDWK_EXTR_1G
 70
     0
 10
0.0
 20
0.0
 30
0.0
  3
CDWK_EXTR_1G
  1

  4
Cadwork line-extremity
  0
LINE
  5
165
100
AcDbEntity
  8
0
 62
     0
370
    -2
100
AcDbLine
 10
0.0
 20
0.0
 30
0.0
 11
0.0
 21
-1.0
 31
0.0
  0
LINE
  5
166
100
AcDbEntity
  8
0
 62
     0
370
    -2
100
AcDbLine
 10
0.0
 20
-1.0
 30
0.0
 11
0.5
 21
-1.5
 31
0.0
  0
LINE
  5
167
100
AcDbEntity
  8
0
 62
     0
370
    -2
100
AcDbLine
 10
0.5
 20
-1.5
 30
0.0
 11
1.5
 21
-1.5
 31
0.0
  0
ENDBLK
  5
168
100
AcDbEntity
100
AcDbBlockEnd
  0
BLOCK
  5
169
100
AcDbEntity
  8
0
100
AcDbBlockBegin
  2
CDWK_EXTR_2
 70
     0
 10
0.0
 20
0.0
 30
0.0
  3
CDWK_EXTR_2
  1

  4
Cadwork line-extremity
  0
SOLID
  5
16A
100
AcDbEntity
  8
0
 62
     0
100
AcDbTrace
 10
0.0
 20
0.0
 11
2.0
 21
0.5
 12
2.0
 22
-0.5
 13
2.0
 23
-0.5
  0
ENDBLK
  5
16B
100
AcDbEntity
100
AcDbBlockEnd
  0
BLOCK
  5
16C
100
AcDbEntity
  8
0
100
AcDbBlockBegin
  2
CDWK_EXTR_3
 70
     0
 10
0.0
 20
0.0
 30
0.0
  3
CDWK_EXTR_3
  1

  4
Cadwork line-extremity
  0
SOLID
  5
16D
100
AcDbEntity
  8
0
 62
     0
100
AcDbTrace
 10
0.0
 20
0.0
 11
2.0
 21
0.5
 12
2.0
 22
-0.5
 13
2.0
 23
-0.5
  0
LINE
  5
16E
100
AcDbEntity
  8
0
 62
     0
370
    -2
100
AcDbLine
 10
0.0
 20
1.0
 30
0.0
 11
0.0
 21
-1.0
 31
0.0
  0
ENDBLK
  5
16F
100
AcDbEntity
100
AcDbBlockEnd
  0
BLOCK
  5
170
100
AcDbEntity
  8
0
100
AcDbBlockBegin
  2
CDWK_EXTR_4
 70
     0
 10
0.0
 20
0.0
 30
0.0
  3
CDWK_EXTR_4
  1

  4
Cadwork line-extremity
  0
HATCH
  5
171
100
AcDbEntity
  8
0
 62
     0
370
    -2
100
AcDbHatch
 10
0.0
 20
0.0
 30
0.0
210
0.0
220
0.0
230
1.0
  2
SOLID
 70
     1
 71
     0
 91
        1
 92
        1
 93
        1
 72
     2
 10
0.0
 20
0.0
 40
0.5
 50
0.0
 51
360.0
 73
     1
 97
        0
 75
     0
 76
     1
 98
        1
 10
0.0
 20
0.0
  0
ENDBLK
  5
172
100
AcDbEntity
100
AcDbBlockEnd
  0
BLOCK
  5
173
100
AcDbEntity
  8
0
100
AcDbBlockBegin
  2
CDWK_PTTYP0
 70
     0
 10
0.0
 20
0.0
 30
0.0
  3
CDWK_PTTYP0
  1

  4
Cadwork point
  0
POINT
  5
174
100
AcDbEntity
  8
0
 62
     0
100
AcDbPoint
 10
0.0
 20
0.0
 30
0.0
  0
ENDBLK
  5
175
100
AcDbEntity
100
AcDbBlockEnd
  0
BLOCK
  5
176
100
AcDbEntity
  8
0
100
AcDbBlockBegin
  2
CDWK_PTTYP1
 70
     0
 10
0.0
 20
0.0
 30
0.0
  3
CDWK_PTTYP1
  1

  4
Cadwork node
  0
LINE
  5
177
100
AcDbEntity
  8
0
 62
     0
370
    -2
100
AcDbLine
 10
-0.5
 20
0.5
 30
0.0
 11
0.5
 21
0.5
 31
0.0
  0
LINE
  5
178
100
AcDbEntity
  8
0
 62
     0
370
    -2
100
AcDbLine
 10
0.5
 20
0.5
 30
0.0
 11
0.5
 21
-0.5
 31
0.0
  0
LINE
  5
179
100
AcDbEntity
  8
0
 62
     0
370
    -2
100
AcDbLine
 10
0.5
 20
-0.5
 30
0.0
 11
-0.5
 21
-0.5
 31
0.0
  0
LINE
  5
17A
100
AcDbEntity
  8
0
 62
     0
370
    -2
100
AcDbLine
 10
-0.5
 20
-0.5
 30
0.0
 11
-0.5
 21
0.5
 31
0.0
  0
ENDBLK
  5
17B
100
AcDbEntity
100
AcDbBlockEnd
  0
BLOCK
  5
17C
100
AcDbEntity
  8
0
100
AcDbBlockBegin
  2
CDWK_PTTYP2
 70
     0
 10
0.0
 20
0.0
 30
0.0
  3
CDWK_PTTYP2
  1

  4
Cadwork node
  0
LINE
  5
17D
100
AcDbEntity
  8
0
 62
     0
370
    -2
100
AcDbLine
 10
0.0
 20
0.5
 30
0.0
 11
0.0
 21
-0.5
 31
0.0
  0
LINE
  5
17E
100
AcDbEntity
  8
0
 62
     0
370
    -2
100
AcDbLine
 10
-0.5
 20
0.0
 30
0.0
 11
0.5
 21
0.0
 31
0.0
  0
ENDBLK
  5
17F
100
AcDbEntity
100
AcDbBlockEnd
  0
BLOCK
  5
180
100
AcDbEntity
  8
0
100
AcDbBlockBegin
  2
CDWK_PTTYP3
 70
     0
 10
0.0
 20
0.0
 30
0.0
  3
CDWK_PTTYP3
  1

  4
Cadwork node
  0
CIRCLE
  5
181
100
AcDbEntity
  8
0
 62
     0
370
    -2
100
AcDbCircle
 10
0.0
 20
0.0
 30
0.0
 40
0.5
  0
ENDBLK
  5
182
100
AcDbEntity
100
AcDbBlockEnd
  0
BLOCK
  5
183
100
AcDbEntity
  8
0
100
AcDbBlockBegin
  2
CDWK_PTTYP4
 70
     0
 10
0.0
 20
0.0
 30
0.0
  3
CDWK_PTTYP4
  1

  4
Cadwork node
  0
HATCH
  5
184
100
AcDbEntity
  8
0
 62
     0
370
    -2
100
AcDbHatch
 10
0.0
 20
0.0
 30
0.0
210
0.0
220
0.0
230
1.0
  2
SOLID
 70
     1
 71
     0
 91
        1
 92
        1
 93
        1
 72
     2
 10
0.0
 20
0.0
 40
0.5
 50
0.0
 51
360.0
 73
     1
 97
        0
 75
     0
 76
     1
 98
        1
 10
0.0
 20
0.0
  0
ENDBLK
  5
185
100
AcDbEntity
100
AcDbBlockEnd
  0
BLOCK
  5
186
100
AcDbEntity
  8
0
100
AcDbBlockBegin
  2
CDWK_PTTYP5
 70
     0
 10
0.0
 20
0.0
 30
0.0
  3
CDWK_PTTYP5
  1

  4
Cadwork node
  0
LINE
  5
187
100
AcDbEntity
  8
0
 62
     0
370
    -2
100
AcDbLine
 10
-0.5
 20
0.5
 30
0.0
 11
0.5
 21
0.5
 31
0.0
  0
LINE
  5
188
100
AcDbEntity
  8
0
 62
     0
370
    -2
100
AcDbLine
 10
0.5
 20
0.5
 30
0.0
 11
0.5
 21
-0.5
 31
0.0
  0
LINE
  5
189
100
AcDbEntity
  8
0
 62
     0
370
    -2
100
AcDbLine
 10
0.5
 20
-0.5
 30
0.0
 11
-0.5
 21
-0.5
 31
0.0
  0
LINE
  5
18A
100
AcDbEntity
  8
0
 62
     0
370
    -2
100
AcDbLine
 10
-0.5
 20
-0.5
 30
0.0
 11
-0.5
 21
0.5
 31
0.0
  0
SOLID
  5
18B
100
AcDbEntity
  8
0
 62
     0
100
AcDbTrace
 10
-0.5
 20
-0.5
 11
-0.5
 21
0.0
 12
0.0
 22
-0.5
 13
0.0
 23
0.0
  0
SOLID
  5
18C
100
AcDbEntity
  8
0
 62
     0
100
AcDbTrace
 10
0.0
 20
0.0
 11
0.0
 21
0.5
 12
0.5
 22
0.0
 13
0.5
 23
0.5
  0
ENDBLK
  5
18D
100
AcDbEntity
100
AcDbBlockEnd
  0
BLOCK
  5
18E
100
AcDbEntity
  8
0
100
AcDbBlockBegin
  2
CDWK_PTTYP6
 70
     0
 10
0.0
 20
0.0
 30
0.0
  3
CDWK_PTTYP6
  1

  4
Cadwork node
  0
LINE
  5
18F
100
AcDbEntity
  8
0
 62
     0
370
    -2
100
AcDbLine
 10
-0.5
 20
0.5
 30
0.0
 11
0.5
 21
0.5
 31
0.0
  0
LINE
  5
190
100
AcDbEntity
  8
0
 62
     0
370
    -2
100
AcDbLine
 10
0.5
 20
0.5
 30
0.0
 11
0.5
 21
-0.5
 31
0.0
  0
LINE
  5
191
100
AcDbEntity
  8
0
 62
     0
370
    -2
100
AcDbLine
 10
0.5
 20
-0.5
 30
0.0
 11
-0.5
 21
-0.5
 31
0.0
  0
LINE
  5
192
100
AcDbEntity
  8
0
 62
     0
370
    -2
100
AcDbLine
 10
-0.5
 20
-0.5
 30
0.0
 11
-0.5
 21
0.5
 31
0.0
  0
SOLID
  5
193
100
AcDbEntity
  8
0
 62
     0
100
AcDbTrace
 10
-0.5
 20
-0.5
 11
-0.5
 21
0.5
 12
0.5
 22
0.5
 13
0.5
 23
0.5
  0
ENDBLK
  5
194
100
AcDbEntity
100
AcDbBlockEnd
  0
BLOCK
  5
195
100
AcDbEntity
  8
0
100
AcDbBlockBegin
  2
CDWK_PTTYP7
 70
     0
 10
0.0
 20
0.0
 30
0.0
  3
CDWK_PTTYP7
  1

  4
Cadwork node
  0
LINE
  5
196
100
AcDbEntity
  8
0
 62
     0
370
    -2
100
AcDbLine
 10
-0.5
 20
0.5
 30
0.0
 11
0.5
 21
0.5
 31
0.0
  0
LINE
  5
197
100
AcDbEntity
  8
0
 62
     0
370
    -2
100
AcDbLine
 10
0.5
 20
0.5
 30
0.0
 11
0.5
 21
-0.5
 31
0.0
  0
LINE
  5
198
100
AcDbEntity
  8
0
 62
     0
370
    -2
100
AcDbLine
 10
0.5
 20
-0.5
 30
0.0
 11
-0.5
 21
-0.5
 31
0.0
  0
LINE
  5
199
100
AcDbEntity
  8
0
 62
     0
370
    -2
100
AcDbLine
 10
-0.5
 20
-0.5
 30
0.0
 11
-0.5
 21
0.5
 31
0.0
  0
LINE
  5
19A
100
AcDbEntity
  8
0
 62
     0
370
    -2
100
AcDbLine
 10
0.0
 20
0.5
 30
0.0
 11
0.0
 21
-0.5
 31
0.0
  0
LINE
  5
19B
100
AcDbEntity
  8
0
 62
     0
370
    -2
100
AcDbLine
 10
-0.5
 20
0.0
 30
0.0
 11
0.5
 21
0.0
 31
0.0
  0
ENDBLK
  5
19C
100
AcDbEntity
100
AcDbBlockEnd
  0
BLOCK
  5
19D
100
AcDbEntity
  8
0
100
AcDbBlockBegin
  2
CDWK_PTTYP8
 70
     0
 10
0.0
 20
0.0
 30
0.0
  3
CDWK_PTTYP8
  1

  4
Cadwork node
  0
SOLID
  5
19E
100
AcDbEntity
  8
0
 62
     0
100
AcDbTrace
 10
-0.5
 20
0.5
 11
0.5
 21
0.5
 12
-0.5
 22
-0.5
 13
0.5
 23
-0.5
  0
ENDBLK
  5
19F
100
AcDbEntity
100
AcDbBlockEnd
  0
BLOCK
  5
1A0
100
AcDbEntity
  8
0
100
AcDbBlockBegin
  2
CDWK_PTTYP9
 70
     0
 10
0.0
 20
0.0
 30
0.0
  3
CDWK_PTTYP9
  1

  4
Cadwork node
  0
CIRCLE
  5
1A1
100
AcDbEntity
  8
0
 62
     0
370
    -2
100
AcDbCircle
 10
0.0
 20
0.0
 30
0.0
 40
0.5
  0
CIRCLE
  5
1A2
100
AcDbEntity
  8
0
 62
     0
370
    -2
100
AcDbCircle
 10
0.0
 20
0.0
 30
0.0
 40
0.16666667
  0
ENDBLK
  5
1A3
100
AcDbEntity
100
AcDbBlockEnd
  0
BLOCK
  5
1A4
100
AcDbEntity
  8
0
100
AcDbBlockBegin
  2
CDWK_PTTYP10
 70
     0
 10
0.0
 20
0.0
 30
0.0
  3
CDWK_PTTYP10
  1

  4
Cadwork node
  0
CIRCLE
  5
1A5
100
AcDbEntity
  8
0
 62
     0
370
    -2
100
AcDbCircle
 10
0.0
 20
0.0
 30
0.0
 40
0.5
  0
ENDBLK
  5
1A6
100
AcDbEntity
100
AcDbBlockEnd
  0
BLOCK
  5
1A7
100
AcDbEntity
  8
0
100
AcDbBlockBegin
  2
CDWK_PTTYP11
 70
     0
 10
0.0
 20
0.0
 30
0.0
  3
CDWK_PTTYP11
  1

  4
Cadwork node
  0
CIRCLE
  5
1A8
100
AcDbEntity
  8
0
 62
     0
370
    -2
100
AcDbCircle
 10
0.0
 20
0.0
 30
0.0
 40
0.5
  0
CIRCLE
  5
1A9
100
AcDbEntity
  8
0
 62
     0
370
    -2
100
AcDbCircle
 10
0.0
 20
0.0
 30
0.0
 40
0.25
  0
ENDBLK
  5
1AA
100
AcDbEntity
100
AcDbBlockEnd
  0
BLOCK
  5
1AB
100
AcDbEntity
  8
0
100
AcDbBlockBegin
  2
CDWK_PTTYP12
 70
     0
 10
0.0
 20
0.0
 30
0.0
  3
CDWK_PTTYP12
  1

  4
Cadwork node
  0
CIRCLE
  5
1AC
100
AcDbEntity
  8
0
 62
     0
370
    -2
100
AcDbCircle
 10
0.0
 20
0.0
 30
0.0
 40
0.5
  0
CIRCLE
  5
1AD
100
AcDbEntity
  8
0
 62
     0
370
    -2
100
AcDbCircle
 10
0.25
 20
0.0
 30
0.0
 40
0.25
  0
ENDBLK
  5
1AE
100
AcDbEntity
100
AcDbBlockEnd
  0
BLOCK
  5
1AF
100
AcDbEntity
  8
0
100
AcDbBlockBegin
  2
CDWK_PTTYP13
 70
     0
 10
0.0
 20
0.0
 30
0.0
  3
CDWK_PTTYP13
  1

  4
Cadwork node
  0
CIRCLE
  5
1B0
100
AcDbEntity
  8
0
 62
     0
370
    -2
100
AcDbCircle
 10
0.0
 20
0.0
 30
0.0
 40
0.5
  0
CIRCLE
  5
1B1
100
AcDbEntity
  8
0
 62
     0
370
    -2
100
AcDbCircle
 10
0.25
 20
0.0
 30
0.0
 40
0.25
  0
CIRCLE
  5
1B2
100
AcDbEntity
  8
0
 62
     0
370
    -2
100
AcDbCircle
 10
-0.25
 20
0.0
 30
0.0
 40
0.25
  0
ENDBLK
  5
1B3
100
AcDbEntity
100
AcDbBlockEnd
  0
BLOCK
  5
1B4
100
AcDbEntity
  8
0
100
AcDbBlockBegin
  2
CDWK_PTTYP14
 70
     0
 10
0.0
 20
0.0
 30
0.0
  3
CDWK_PTTYP14
  1

  4
Cadwork node
  0
POINT
  5
1B5
100
AcDbEntity
  8
0
 62
     0
100
AcDbPoint
 10
0.0
 20
0.0
 30
0.0
  0
ENDBLK
  5
1B6
100
AcDbEntity
100
AcDbBlockEnd
  0
BLOCK
  5
1B7
100
AcDbEntity
  8
0
100
AcDbBlockBegin
  2
CDWK_PTTYP15
 70
     0
 10
0.0
 20
0.0
 30
0.0
  3
CDWK_PTTYP15
  1

  4
Cadwork node
  0
POINT
  5
1B8
100
AcDbEntity
  8
0
 62
     0
100
AcDbPoint
 10
0.0
 20
0.0
 30
0.0
  0
ENDBLK
  5
1B9
100
AcDbEntity
100
AcDbBlockEnd
  0
BLOCK
  5
1BA
100
AcDbEntity
  8
0
100
AcDbBlockBegin
  2
CDWK_PTTYP16
 70
     0
 10
0.0
 20
0.0
 30
0.0
  3
CDWK_PTTYP16
  1

  4
Cadwork node
  0
LINE
  5
1BB
100
AcDbEntity
  8
0
 62
     0
370
    -2
100
AcDbLine
 10
-0.5
 20
-0.28867513
 30
0.0
 11
0.5
 21
-0.28867513
 31
0.0
  0
LINE
  5
1BC
100
AcDbEntity
  8
0
 62
     0
370
    -2
100
AcDbLine
 10
0.5
 20
-0.28867513
 30
0.0
 11
0.0
 21
0.57735027
 31
0.0
  0
LINE
  5
1BD
100
AcDbEntity
  8
0
 62
     0
370
    -2
100
AcDbLine
 10
0.0
 20
0.57735027
 30
0.0
 11
-0.5
 21
-0.28867513
 31
0.0
  0
CIRCLE
  5
1BE
100
AcDbEntity
  8
0
 62
     0
370
    -2
100
AcDbCircle
 10
0.0
 20
0.0
 30
0.0
 40
0.28867513
  0
ENDBLK
  5
1BF
100
AcDbEntity
100
AcDbBlockEnd
  0
BLOCK
  5
1C0
100
AcDbEntity
  8
0
100
AcDbBlockBegin
  2
CDWK_PTTYP17
 70
     0
 10
0.0
 20
0.0
 30
0.0
  3
CDWK_PTTYP17
  1

  4
Cadwork node
  0
CIRCLE
  5
1C1
100
AcDbEntity
  8
0
 62
     0
370
    -2
100
AcDbCircle
 10
0.0
 20
0.0
 30
0.0
 40
0.5
  0
HATCH
  5
1C2
100
AcDbEntity
  8
0
 62
     0
370
    -2
100
AcDbHatch
 10
0.0
 20
0.0
 30
0.0
210
0.0
220
0.0
230
1.0
  2
SOLID
 70
     1
 71
     0
 91
        1
 92
        1
 93
        1
 72
     2
 10
0.0
 20
0.0
 40
0.25
 50
0.0
 51
360.0
 73
     1
 97
        0
 75
     0
 76
     1
 98
        1
 10
0.0
 20
0.0
  0
ENDBLK
  5
1C3
100
AcDbEntity
100
AcDbBlockEnd
  0
BLOCK
  5
1C4
100
AcDbEntity
  8
0
100
AcDbBlockBegin
  2
CDWK_PTTYP18
 70
     0
 10
0.0
 20
0.0
 30
0.0
  3
CDWK_PTTYP18
  1

  4
Cadwork node
  0
CIRCLE
  5
1C5
100
AcDbEntity
  8
0
 62
     0
370
    -2
100
AcDbCircle
 10
0.0
 20
0.0
 30
0.0
 40
0.5
  0
CIRCLE
  5
1C6
100
AcDbEntity
  8
0
 62
     0
370
    -2
100
AcDbCircle
 10
0.0
 20
0.0
 30
0.0
 40
0.2
  0
ENDBLK
  5
1C7
100
AcDbEntity
100
AcDbBlockEnd
  0
BLOCK
  5
1C8
100
AcDbEntity
  8
0
100
AcDbBlockBegin
  2
CDWK_PTTYP19
 70
     0
 10
0.0
 20
0.0
 30
0.0
  3
CDWK_PTTYP19
  1

  4
Cadwork node
  0
CIRCLE
  5
1C9
100
AcDbEntity
  8
0
 62
     0
370
    -2
100
AcDbCircle
 10
0.0
 20
0.0
 30
0.0
 40
0.4
  0
CIRCLE
  5
1CA
100
AcDbEntity
  8
0
 62
     0
370
    -2
100
AcDbCircle
 10
0.0
 20
0.0
 30
0.0
 40
0.25
  0
LINE
  5
1CB
100
AcDbEntity
  8
0
 62
     0
370
    -2
100
AcDbLine
 10
-0.25
 20
0.0
 30
0.0
 11
0.25
 21
0.0
 31
0.0
  0
ENDBLK
  5
1CC
100
AcDbEntity
100
AcDbBlockEnd
  0
BLOCK
  5
1CD
100
AcDbEntity
  8
0
100
AcDbBlockBegin
  2
CDWK_PTTYP20
 70
     0
 10
0.0
 20
0.0
 30
0.0
  3
CDWK_PTTYP20
  1

  4
Cadwork node
  0
CIRCLE
  5
1CE
100
AcDbEntity
  8
0
 62
     0
370
    -2
100
AcDbCircle
 10
0.0
 20
0.0
 30
0.0
 40
0.5
  0
CIRCLE
  5
1CF
100
AcDbEntity
  8
0
 62
     0
370
    -2
100
AcDbCircle
 10
0.0
 20
0.0
 30
0.0
 40
0.3
  0
ENDBLK
  5
1D0
100
AcDbEntity
100
AcDbBlockEnd
  0
BLOCK
  5
1D1
100
AcDbEntity
  8
0
100
AcDbBlockBegin
  2
CDWK_PTTYP21
 70
     0
 10
0.0
 20
0.0
 30
0.0
  3
CDWK_PTTYP21
  1

  4
Cadwork node
  0
CIRCLE
  5
1D2
100
AcDbEntity
  8
0
 62
     0
370
    -2
100
AcDbCircle
 10
0.0
 20
0.0
 30
0.0
 40
0.5
  0
LINE
  5
1D3
100
AcDbEntity
  8
0
 62
     0
370
    -2
100
AcDbLine
 10
-0.5
 20
0.0
 30
0.0
 11
0.5
 21
0.0
 31
0.0
  0
ENDBLK
  5
1D4
100
AcDbEntity
100
AcDbBlockEnd
  0
BLOCK
  5
1D5
100
AcDbEntity
  8
0
100
AcDbBlockBegin
  2
CDWK_PTTYP22
 70
     0
 10
0.0
 20
0.0
 30
0.0
  3
CDWK_PTTYP22
  1

  4
Cadwork node
  0
POINT
  5
1D6
100
AcDbEntity
  8
0
 62
     0
100
AcDbPoint
 10
0.0
 20
0.0
 30
0.0
  0
ENDBLK
  5
1D7
100
AcDbEntity
100
AcDbBlockEnd
  0
BLOCK
  5
1D8
100
AcDbEntity
  8
0
100
AcDbBlockBegin
  2
CDWK_PTTYP23
 70
     0
 10
0.0
 20
0.0
 30
0.0
  3
CDWK_PTTYP23
  1

  4
Cadwork node
  0
POINT
  5
1D9
100
AcDbEntity
  8
0
 62
     0
100
AcDbPoint
 10
0.0
 20
0.0
 30
0.0
  0
ENDBLK
  5
1DA
100
AcDbEntity
100
AcDbBlockEnd
  0
BLOCK
  5
1DB
100
AcDbEntity
  8
0
100
AcDbBlockBegin
  2
CDWK_PTTYP24
 70
     0
 10
0.0
 20
0.0
 30
0.0
  3
CDWK_PTTYP24
  1

  4
Cadwork node
  0
POINT
  5
1DC
100
AcDbEntity
  8
0
 62
     0
100
AcDbPoint
 10
0.0
 20
0.0
 30
0.0
  0
ENDBLK
  5
1DD
100
AcDbEntity
100
AcDbBlockEnd
  0
BLOCK
  5
1DE
100
AcDbEntity
  8
0
100
AcDbBlockBegin
  2
CDWK_PTTYP25
 70
     0
 10
0.0
 20
0.0
 30
0.0
  3
CDWK_PTTYP25
  1

  4
Cadwork node
  0
LINE
  5
1DF
100
AcDbEntity
  8
0
 62
     0
370
    -2
100
AcDbLine
 10
-0.43290044
 20
-0.25
 30
0.0
 11
0.43290044
 21
-0.25
 31
0.0
  0
LINE
  5
1E0
100
AcDbEntity
  8
0
 62
     0
370
    -2
100
AcDbLine
 10
-0.43290044
 20
-0.25
 30
0.0
 11
0.0
 21
0.5
 31
0.0
  0
LINE
  5
1E1
100
AcDbEntity
  8
0
 62
     0
370
    -2
100
AcDbLine
 10
0.43290044
 20
-0.25
 30
0.0
 11
0.0
 21
0.5
 31
0.0
  0
CIRCLE
  5
1E2
100
AcDbEntity
  8
0
 62
     0
370
    -2
100
AcDbCircle
 10
0.0
 20
0.0
 30
0.0
 40
0.5
  0
ENDBLK
  5
1E3
100
AcDbEntity
100
AcDbBlockEnd
  0
BLOCK
  5
1E4
100
AcDbEntity
  8
0
100
AcDbBlockBegin
  2
CDWK_PTTYP26
 70
     0
 10
0.0
 20
0.0
 30
0.0
  3
CDWK_PTTYP26
  1

  4
Cadwork node
  0
LINE
  5
1E5
100
AcDbEntity
  8
0
 62
     0
370
    -2
100
AcDbLine
 10
-0.5
 20
-0.28850001
 30
0.0
 11
0.5
 21
-0.28850001
 31
0.0
  0
LINE
  5
1E6
100
AcDbEntity
  8
0
 62
     0
370
    -2
100
AcDbLine
 10
-0.5
 20
-0.28850001
 30
0.0
 11
0.0
 21
0.57736721
 31
0.0
  0
LINE
  5
1E7
100
AcDbEntity
  8
0
 62
     0
370
    -2
100
AcDbLine
 10
0.5
 20
-0.28850001
 30
0.0
 11
0.0
 21
0.57736721
 31
0.0
  0
CIRCLE
  5
1E8
100
AcDbEntity
  8
0
 62
     0
370
    -2
100
AcDbCircle
 10
0.0
 20
0.0
 30
0.0
 40
0.1312336
  0
ENDBLK
  5
1E9
100
AcDbEntity
100
AcDbBlockEnd
  0
BLOCK
  5
1EA
100
AcDbEntity
  8
0
100
AcDbBlockBegin
  2
CDWK_PTTYP27
 70
     0
 10
0.0
 20
0.0
 30
0.0
  3
CDWK_PTTYP27
  1

  4
Cadwork node
  0
LINE
  5
1EB
100
AcDbEntity
  8
0
 62
     0
370
    -2
100
AcDbLine
 10
-0.43290044
 20
-0.25
 30
0.0
 11
0.43290044
 21
-0.25
 31
0.0
  0
LINE
  5
1EC
100
AcDbEntity
  8
0
 62
     0
370
    -2
100
AcDbLine
 10
-0.43290044
 20
-0.25
 30
0.0
 11
0.0
 21
0.5
 31
0.0
  0
LINE
  5
1ED
100
AcDbEntity
  8
0
 62
     0
370
    -2
100
AcDbLine
 10
0.43290044
 20
-0.25
 30
0.0
 11
0.0
 21
0.5
 31
0.0
  0
CIRCLE
  5
1EE
100
AcDbEntity
  8
0
 62
     0
370
    -2
100
AcDbCircle
 10
0.0
 20
0.0
 30
0.0
 40
0.5
  0
CIRCLE
  5
1EF
100
AcDbEntity
  8
0
 62
     0
370
    -2
100
AcDbCircle
 10
0.0
 20
0.0
 30
0.0
 40
0.1312336
  0
ENDBLK
  5
1F0
100
AcDbEntity
100
AcDbBlockEnd
  0
BLOCK
  5
1F1
100
AcDbEntity
  8
0
100
AcDbBlockBegin
  2
CDWK_PTTYP28
 70
     0
 10
0.0
 20
0.0
 30
0.0
  3
CDWK_PTTYP28
  1

  4
Cadwork node
  0
POINT
  5
1F2
100
AcDbEntity
  8
0
 62
     0
100
AcDbPoint
 10
0.0
 20
0.0
 30
0.0
  0
ENDBLK
  5
1F3
100
AcDbEntity
100
AcDbBlockEnd
  0
BLOCK
  5
1F4
100
AcDbEntity
  8
0
100
AcDbBlockBegin
  2
CDWK_PTTYP29
 70
     0
 10
0.0
 20
0.0
 30
0.0
  3
CDWK_PTTYP29
  1

  4
Cadwork node
  0
CIRCLE
  5
1F5
100
AcDbEntity
  8
0
 62
     0
370
    -2
100
AcDbCircle
 10
0.0
 20
0.0
 30
0.0
 40
0.5
  0
CIRCLE
  5
1F6
100
AcDbEntity
  8
0
 62
     0
370
    -2
100
AcDbCircle
 10
0.0
 20
0.0
 30
0.0
 40
0.375
  0
CIRCLE
  5
1F7
100
AcDbEntity
  8
0
 62
     0
370
    -2
100
AcDbCircle
 10
0.0
 20
0.0
 30
0.0
 40
0.21875
  0
ENDBLK
  5
1F8
100
AcDbEntity
100
AcDbBlockEnd
  0
BLOCK
  5
1F9
100
AcDbEntity
  8
0
100
AcDbBlockBegin
  2
CDWK_PTTYP30
 70
     0
 10
0.0
 20
0.0
 30
0.0
  3
CDWK_PTTYP30
  1

  4
Cadwork node
  0
LINE
  5
1FA
100
AcDbEntity
  8
0
 62
     0
370
    -2
100
AcDbLine
 10
0.17680339
 20
0.17680339
 30
0.0
 11
0.5
 21
0.5
 31
0.0
  0
LINE
  5
1FB
100
AcDbEntity
  8
0
 62
     0
370
    -2
100
AcDbLine
 10
-0.17680339
 20
0.17680339
 30
0.0
 11
-0.5
 21
0.5
 31
0.0
  0
LINE
  5
1FC
100
AcDbEntity
  8
0
 62
     0
370
    -2
100
AcDbLine
 10
0.17680339
 20
-0.17680339
 30
0.0
 11
0.5
 21
-0.5
 31
0.0
  0
LINE
  5
1FD
100
AcDbEntity
  8
0
 62
     0
370
    -2
100
AcDbLine
 10
-0.17680339
 20
-0.17680339
 30
0.0
 11
-0.5
 21
-0.5
 31
0.0
  0
ENDBLK
  5
1FE
100
AcDbEntity
100
AcDbBlockEnd
  0
BLOCK
  5
1FF
100
AcDbEntity
  8
0
100
AcDbBlockBegin
  2
CDWK_PTTYP31
 70
     0
 10
0.0
 20
0.0
 30
0.0
  3
CDWK_PTTYP31
  1

  4
Cadwork node
  0
CIRCLE
  5
200
100
AcDbEntity
  8
0
 62
     0
370
    -2
100
AcDbCircle
 10
0.0
 20
0.0
 30
0.0
 40
0.075
  0
LINE
  5
201
100
AcDbEntity
  8
0
 62
     0
370
    -2
100
AcDbLine
 10
0.075
 20
0.0
 30
0.0
 11
0.5
 21
0.0
 31
0.0
  0
LINE
  5
202
100
AcDbEntity
  8
0
 62
     0
370
    -2
100
AcDbLine
 10
-0.075
 20
0.0
 30
0.0
 11
-0.5
 21
0.0
 31
0.0
  0
LINE
  5
203
100
AcDbEntity
  8
0
 62
     0
370
    -2
100
AcDbLine
 10
0.0
 20
0.075
 30
0.0
 11
0.0
 21
0.5
 31
0.0
  0
LINE
  5
204
100
AcDbEntity
  8
0
 62
     0
370
    -2
100
AcDbLine
 10
0.0
 20
-0.075
 30
0.0
 11
0.0
 21
-0.5
 31
0.0
  0
ENDBLK
  5
205
100
AcDbEntity
100
AcDbBlockEnd
  0
BLOCK
  5
206
100
AcDbEntity
  8
0
100
AcDbBlockBegin
  2
CDWK_PTTYP32
 70
     0
 10
0.0
 20
0.0
 30
0.0
  3
CDWK_PTTYP32
  1

  4
Cadwork node
  0
CIRCLE
  5
207
100
AcDbEntity
  8
0
 62
     0
370
    -2
100
AcDbCircle
 10
0.0
 20
0.0
 30
0.0
 40
0.5
  0
CIRCLE
  5
208
100
AcDbEntity
  8
0
 62
     0
370
    -2
100
AcDbCircle
 10
0.0
 20
0.0
 30
0.0
 40
0.16666667
  0
LINE
  5
209
100
AcDbEntity
  8
0
 62
     0
370
    -2
100
AcDbLine
 10
0.11786893
 20
0.11786893
 30
0.0
 11
0.35360678
 21
0.35360678
 31
0.0
  0
LINE
  5
20A
100
AcDbEntity
  8
0
 62
     0
370
    -2
100
AcDbLine
 10
-0.11786893
 20
0.11786893
 30
0.0
 11
-0.35360678
 21
0.35360678
 31
0.0
  0
LINE
  5
20B
100
AcDbEntity
  8
0
 62
     0
370
    -2
100
AcDbLine
 10
0.11786893
 20
-0.11786893
 30
0.0
 11
0.35360678
 21
-0.35360678
 31
0.0
  0
LINE
  5
20C
100
AcDbEntity
  8
0
 62
     0
370
    -2
100
AcDbLine
 10
-0.11786893
 20
-0.11786893
 30
0.0
 11
-0.35360678
 21
-0.35360678
 31
0.0
  0
ENDBLK
  5
20D
100
AcDbEntity
100
AcDbBlockEnd
  0
BLOCK
  5
20E
100
AcDbEntity
  8
0
100
AcDbBlockBegin
  2
CDWK_PTTYP33
 70
     0
 10
0.0
 20
0.0
 30
0.0
  3
CDWK_PTTYP33
  1

  4
Cadwork node
  0
CIRCLE
  5
20F
100
AcDbEntity
  8
0
 62
     0
370
    -2
100
AcDbCircle
 10
0.0
 20
0.0
 30
0.0
 40
0.5
  0
LINE
  5
210
100
AcDbEntity
  8
0
 62
     0
370
    -2
100
AcDbLine
 10
0.0
 20
0.5
 30
0.0
 11
0.0
 21
-0.5
 31
0.0
  0
LINE
  5
211
100
AcDbEntity
  8
0
 62
     0
370
    -2
100
AcDbLine
 10
-0.5
 20
0.0
 30
0.0
 11
0.5
 21
0.0
 31
0.0
  0
ENDBLK
  5
212
100
AcDbEntity
100
AcDbBlockEnd
  0
BLOCK
  5
213
100
AcDbEntity
  8
0
100
AcDbBlockBegin
  2
CDWK_PTTYP34
 70
     0
 10
0.0
 20
0.0
 30
0.0
  3
CDWK_PTTYP34
  1

  4
Cadwork node
  0
CIRCLE
  5
214
100
AcDbEntity
  8
0
 62
     0
370
    -2
100
AcDbCircle
 10
0.0
 20
0.0
 30
0.0
 40
0.5
  0
LINE
  5
215
100
AcDbEntity
  8
0
 62
     0
370
    -2
100
AcDbLine
 10
-0.30360678
 20
-0.40360678
 30
0.0
 11
0.40360678
 21
0.30360678
 31
0.0
  0
LINE
  5
216
100
AcDbEntity
  8
0
 62
     0
370
    -2
100
AcDbLine
 10
-0.40360678
 20
-0.30360678
 30
0.0
 11
0.30360678
 21
0.40360678
 31
0.0
  0
ENDBLK
  5
217
100
AcDbEntity
100
AcDbBlockEnd
  0
BLOCK
  5
218
100
AcDbEntity
  8
0
100
AcDbBlockBegin
  2
CDWK_PTTYP35
 70
     0
 10
0.0
 20
0.0
 30
0.0
  3
CDWK_PTTYP35
  1

  4
Cadwork node
  0
CIRCLE
  5
219
100
AcDbEntity
  8
0
 62
     0
370
    -2
100
AcDbCircle
 10
0.0
 20
0.0
 30
0.0
 40
0.21431634
  0
LINE
  5
21A
100
AcDbEntity
  8
0
 62
     0
370
    -2
100
AcDbLine
 10
0.0
 20
0.21431634
 30
0.0
 11
0.0
 21
0.5
 31
0.0
  0
LINE
  5
21B
100
AcDbEntity
  8
0
 62
     0
370
    -2
100
AcDbLine
 10
0.0
 20
-0.21431634
 30
0.0
 11
0.0
 21
-0.5
 31
0.0
  0
ENDBLK
  5
21C
100
AcDbEntity
100
AcDbBlockEnd
  0
BLOCK
  5
21D
100
AcDbEntity
  8
0
100
AcDbBlockBegin
  2
CDWK_PTTYP36
 70
     0
 10
0.0
 20
0.0
 30
0.0
  3
CDWK_PTTYP36
  1

  4
Cadwork node
  0
LINE
  5
21E
100
AcDbEntity
  8
0
 62
     0
370
    -2
100
AcDbLine
 10
-0.5
 20
-0.16666667
 30
0.0
 11
0.5
 21
-0.16666667
 31
0.0
  0
LINE
  5
21F
100
AcDbEntity
  8
0
 62
     0
370
    -2
100
AcDbLine
 10
0.5
 20
-0.16666667
 30
0.0
 11
0.5
 21
0.16666667
 31
0.0
  0
LINE
  5
220
100
AcDbEntity
  8
0
 62
     0
370
    -2
100
AcDbLine
 10
0.5
 20
0.16666667
 30
0.0
 11
-0.5
 21
0.16666667
 31
0.0
  0
LINE
  5
221
100
AcDbEntity
  8
0
 62
     0
370
    -2
100
AcDbLine
 10
-0.5
 20
0.16666667
 30
0.0
 11
-0.5
 21
-0.16666667
 31
0.0
  0
SOLID
  5
222
100
AcDbEntity
  8
0
 62
     0
100
AcDbTrace
 10
-0.5
 20
-0.16666667
 11
0.5
 21
0.16666667
 12
0.5
 22
-0.16666667
 13
0.5
 23
-0.16666667
  0
ENDBLK
  5
223
100
AcDbEntity
100
AcDbBlockEnd
  0
BLOCK
  5
224
100
AcDbEntity
  8
0
100
AcDbBlockBegin
  2
CDWK_PTTYP37
 70
     0
 10
0.0
 20
0.0
 30
0.0
  3
CDWK_PTTYP37
  1

  4
Cadwork node
  0
CIRCLE
  5
225
100
AcDbEntity
  8
0
 62
     0
370
    -2
100
AcDbCircle
 10
0.0
 20
0.0
 30
0.0
 40
0.5
  0
SOLID
  5
226
100
AcDbEntity
  8
0
 62
     0
100
AcDbTrace
 10
0.0
 20
0.0
 11
0.35350001
 21
0.35350001
 12
0.5
 22
0.0
 13
0.46200001
 23
0.19149999
  0
SOLID
  5
227
100
AcDbEntity
  8
0
 62
     0
100
AcDbTrace
 10
0.0
 20
0.0
 11
0.35350001
 21
-0.35350001
 12
0.5
 22
0.0
 13
0.46200001
 23
-0.19149999
  0
SOLID
  5
228
100
AcDbEntity
  8
0
 62
     0
100
AcDbTrace
 10
0.0
 20
0.0
 11
0.0
 21
-0.5
 12
0.35350001
 22
-0.35350001
 13
0.19149999
 23
-0.46200001
  0
SOLID
  5
229
100
AcDbEntity
  8
0
 62
     0
100
AcDbTrace
 10
0.0
 20
0.0
 11
0.0
 21
-0.5
 12
-0.35350001
 22
-0.35350001
 13
-0.19149999
 23
-0.46200001
  0
ENDBLK
  5
22A
100
AcDbEntity
100
AcDbBlockEnd
  0
BLOCK
  5
22B
100
AcDbEntity
  8
0
100
AcDbBlockBegin
  2
CDWK_PTTYP38
 70
     0
 10
0.0
 20
0.0
 30
0.0
  3
CDWK_PTTYP38
  1

  4
Cadwork node
  0
CIRCLE
  5
22C
100
AcDbEntity
  8
0
 62
     0
370
    -2
100
AcDbCircle
 10
0.0
 20
0.0
 30
0.0
 40
0.5
  0
SOLID
  5
22D
100
AcDbEntity
  8
0
 62
     0
100
AcDbTrace
 10
0.0
 20
0.0
 11
0.35350001
 21
0.35350001
 12
0.0
 22
0.5
 13
0.19149999
 23
0.46200001
  0
SOLID
  5
22E
100
AcDbEntity
  8
0
 62
     0
100
AcDbTrace
 10
0.0
 20
0.0
 11
0.5
 21
0.0
 12
0.35350001
 22
0.35350001
 13
0.46200001
 23
0.19149999
  0
SOLID
  5
22F
100
AcDbEntity
  8
0
 62
     0
100
AcDbTrace
 10
0.0
 20
0.0
 11
0.0
 21
-0.5
 12
-0.35350001
 22
-0.35350001
 13
-0.19149999
 23
-0.46200001
  0
SOLID
  5
230
100
AcDbEntity
  8
0
 62
     0
100
AcDbTrace
 10
0.0
 20
0.0
 11
-0.5
 21
0.0
 12
-0.35350001
 22
-0.35350001
 13
-0.46200001
 23
-0.19149999
  0
ENDBLK
  5
231
100
AcDbEntity
100
AcDbBlockEnd
  0
BLOCK
  5
232
100
AcDbEntity
  8
Ech.1_5
100
AcDbBlockBegin
  2
*D3
 70
     1
 10
0.0
 20
0.0
 30
0.0
  3
*D3
  1

  4
Cadwork dimension
  0
TEXT
  5
233
100
AcDbEntity
  8
Ech.1_5
 62
   190
370
    18
100
AcDbText
 10
38536.47622765
 20
-41061.1639596
 30
0.0
 40
25.0
  1
1/3 *
  7
ARIAL
 50
89.9999975
 41
1.0
 51
0.0
100
AcDbText
  0
LINE
  5
234
100
AcDbEntity
  8
Ech.1_5
 62
   190
370
    -2
100
AcDbLine
 10
38541.44739012
 20
-41127.90882536
 30
0.0
 11
38548.3664715
 21
-41127.90882536
 31
0.0
  0
LINE
  5
235
100
AcDbEntity
  8
Ech.1_5
 62
   190
370
    -2
100
AcDbLine
 10
38541.44739012
 20
-40965.90881896
 30
0.0
 11
38545.67191148
 21
-40965.90881896
 31
0.0
  0
LINE
  5
236
100
AcDbEntity
  8
Ech.1_5
 62
   190
370
    -2
100
AcDbLine
 10
38546.44739012
 20
-41132.90882536
 30
0.0
 11
38546.44739012
 21
-40960.90881896
 31
0.0
  0
LINE
  5
237
100
AcDbEntity
  8
Ech.1_5
 62
   190
370
    -2
100
AcDbLine
 10
38548.94739012
 20
-41130.40882536
 30
0.0
 11
38543.94739012
 21
-41125.40882536
 31
0.0
  0
LINE
  5
238
100
AcDbEntity
  8
Ech.1_5
 62
   190
370
    -2
100
AcDbLine
 10
38548.94739012
 20
-40968.40881896
 30
0.0
 11
38543.94739012
 21
-40963.40881896
 31
0.0
  0
ENDBLK
  5
239
100
AcDbEntity
100
AcDbBlockEnd
  0
BLOCK
  5
23A
100
AcDbEntity
  8
Ech.1_5
100
AcDbBlockBegin
  2
*D4
 70
     1
 10
0.0
 20
0.0
 30
0.0
  3
*D4
  1

  4
Cadwork dimension
  0
TEXT
  5
23B
100
AcDbEntity
  8
Ech.1_5
 62
   190
370
    18
100
AcDbText
 10
38536.47622765
 20
-40880.16394606
 30
0.0
 40
25.0
  1
2/3 *
  7
ARIAL
 50
89.9999975
 41
1.0
 51
0.0
100
AcDbText
  0
LINE
  5
23C
100
AcDbEntity
  8
Ech.1_5
 62
   190
370
    -2
100
AcDbLine
 10
38551.44739012
 20
-40965.90881896
 30
0.0
 11
38545.67191148
 21
-40965.90881896
 31
0.0
  0
LINE
  5
23D
100
AcDbEntity
  8
Ech.1_5
 62
   190
370
    -2
100
AcDbLine
 10
38551.44739012
 20
-40765.90879827
 30
0.0
 11
38522.23676694
 21
-40765.90879827
 31
0.0
  0
LINE
  5
23E
100
AcDbEntity
  8
Ech.1_5
 62
   190
370
    -2
100
AcDbLine
 10
38546.44739012
 20
-40970.90881896
 30
0.0
 11
38546.44739012
 21
-40760.90879827
 31
0.0
  0
LINE
  5
23F
100
AcDbEntity
  8
Ech.1_5
 62
   190
370
    -2
100
AcDbLine
 10
38548.94739012
 20
-40968.40881896
 30
0.0
 11
38543.94739012
 21
-40963.40881896
 31
0.0
  0
LINE
  5
240
100
AcDbEntity
  8
Ech.1_5
 62
   190
370
    -2
100
AcDbLine
 10
38548.94739012
 20
-40768.40879827
 30
0.0
 11
38543.94739012
 21
-40763.40879827
 31
0.0
  0
ENDBLK
  5
241
100
AcDbEntity
100
AcDbBlockEnd
  0
ENDSEC
  0
SECTION
  2
ENTITIES
  0
LWPOLYLINE
  5
242
100
AcDbEntity
  8
Ech.1_5
 62
     7
  6
CONTINUOUS
370
    -3
100
AcDbPolyline
 90
        4
 70
     1
 43
0.0
 10
38229.7270356
 20
-41025.90882536
 10
38229.7270356
 20
-40965.90882536
 10
38187.7270356
 20
-40965.90882536
 10
38187.7270356
 20
-41025.90882536
  0
LWPOLYLINE
  5
243
100
AcDbEntity
  8
Ech.1_5
 62
   190
  6
CONTINUOUS
370
    -3
100
AcDbPolyline
 90
        4
 70
     0
 43
0.0
 10
38187.7270356
 20
-41025.90882536
 10
38229.7270356
 20
-40965.90882536
 10
38229.7270356
 20
-41025.90882536
 10
38187.7270356
 20
-40965.90882536
  0
LWPOLYLINE
  5
244
100
AcDbEntity
  8
Ech.1_5
 62
     5
  6
CONTINUOUS
370
    -3
100
AcDbPolyline
 90
        5
 70
     0
 43
0.0
 10
38229.7270356
 20
-41025.90882536
 10
38229.7270356
 20
-40965.90882536
 10
38187.7270356
 20
-40965.90882536
 10
38187.7270356
 20
-41025.90882536
 10
38229.7270356
 20
-41025.90882536
  0
LWPOLYLINE
  5
245
102
{ACAD_REACTORS
330
246
102
}
100
AcDbEntity
  8
Ech.1_5
 62
   190
  6
CONTINUOUS
370
    -3
100
AcDbPolyline
 90
        4
 70
     1
 43
0.0
 10
37737.05558248
 20
-40992.90882536
 10
37678.29301553
 20
-40992.90882536
 10
37678.29301553
 20
-41002.90883438
 10
37737.05558248
 20
-41002.90883256
  0
HATCH
  5
246
100
AcDbEntity
  8
Ech.1_5
 62
   190
  6
CONTINUOUS
100
AcDbHatch
 10
0.0
 20
0.0
 30
0.0
210
0.0
220
0.0
230
1.0
  2
ANSI37
 70
     0
 71
     1
 91
        1
 92
        7
 72
     0
 73
     1
 93
        4
 10
37737.05558248
 20
-40992.90882536
 10
37678.29301553
 20
-40992.90882536
 10
37678.29301553
 20
-41002.90883438
 10
37737.05558248
 20
-41002.90883256
 97
        1
330
245
 75
     0
 76
     2
 52
45.0
 41
1.57480317
 77
     0
 78
     2
 53
0.0
 43
0.0
 44
2.5
 45
0.0
 46
5.0
 79
     0
 53
90.0
 43
2.5
 44
0.0
 45
5.0
 46
3.0616169978684E-16
 79
     0
 47
0.775229
 98
        1
 10
0.0
 20
0.0
  0
LWPOLYLINE
  5
247
100
AcDbEntity
  8
Ech.1_5
 62
   190
  6
CONTINUOUS
370
    -3
100
AcDbPolyline
 90
        4
 70
     1
 43
0.0
 10
38009.23126655
 20
-41002.90882536
 10
38009.23126655
 20
-40992.90882536
 10
37737.05558248
 20
-40992.90882536
 10
37737.05558248
 20
-41002.90882536
  0
LWPOLYLINE
  5
248
100
AcDbEntity
  8
Ech.1_5
 62
   190
  6
CONTINUOUS
370
    -3
100
AcDbPolyline
 90
        4
 70
     1
 43
0.0
 10
37678.29301553
 20
-41002.90882536
 10
37678.29301553
 20
-40992.90882536
 10
37550.78397388
 20
-40992.90882536
 10
37550.78397388
 20
-41002.90882536
  0
LWPOLYLINE
  5
249
100
AcDbEntity
  8
Ech.1_5
 62
   190
  6
CONTINUOUS
370
    -3
100
AcDbPolyline
 90
        4
 70
     1
 43
0.0
 10
38187.7270356
 20
-41027.90882536
 10
39210.3284156
 20
-41027.90882536
 10
39210.3284156
 20
-41127.90882536
 10
38187.7270356
 20
-41127.90882536
  0
LWPOLYLINE
  5
24A
100
AcDbEntity
  8
Ech.1_5
 62
   190
  6
CONTINUOUS
370
    -3
100
AcDbPolyline
 90
       16
 70
     0
 43
0.0
 10
38206.06036894
 20
-41140.90882536
 42
1.14028181
 10
38208.21719917
 20
-41157.29153928
 10
38237.23687204
 20
-41149.52611144
 42
-1.30322619
 10
38237.23687204
 20
-41165.62487261
 10
38208.21719917
 20
-41157.85944478
 42
1.30322619
 10
38208.21719917
 20
-41173.95820595
 10
38237.23687204
 20
-41166.19277811
 42
-1.30322619
 10
38237.23687204
 20
-41182.29153928
 10
38208.21719917
 20
-41174.52611144
 42
1.30322619
 10
38208.21719917
 20
-41190.62487261
 10
38237.23687204
 20
-41182.85944478
 42
-1.30322619
 10
38237.23687204
 20
-41198.95820595
 10
38208.21719917
 20
-41191.19277811
 42
1.30322619
 10
38208.21719917
 20
-41207.29153928
 10
38237.23687204
 20
-41199.52611144
 42
-0.60423701
 10
38247.24575737
 20
-41210.36649097
  0
LWPOLYLINE
  5
24B
100
AcDbEntity
  8
Ech.1_5
 62
   190
  6
CONTINUOUS
370
    -3
100
AcDbPolyline
 90
        5
 70
     0
 43
0.0
 10
38734.75750809
 20
-41472.29492927
 10
38734.75750809
 20
-40487.29492927
 10
37379.75750809
 20
-40487.29492927
 10
37379.75750809
 20
-41472.29492927
 10
38734.75750809
 20
-41472.29492927
  0
LWPOLYLINE
  5
24C
100
AcDbEntity
  8
Ech.1_5
 62
   190
  6
CONTINUOUS
370
    -3
100
AcDbPolyline
 90
        4
 70
     1
 43
0.0
 10
39210.3284156
 20
-41127.90866286
 10
38187.7270356
 20
-41127.90866286
 10
38187.7270356
 20
-41140.90866286
 10
39210.3284156
 20
-41140.90866286
  0
LWPOLYLINE
  5
24D
100
AcDbEntity
  8
Ech.1_5
 62
   190
  6
CONTINUOUS
370
    -3
100
AcDbPolyline
 90
        4
 70
     1
 43
0.0
 10
39212.93812994
 20
-40965.90882536
 10
39212.93812994
 20
-40865.90882536
 10
37554.0113253
 20
-40865.90882536
 10
37554.0113253
 20
-40965.90882536
  0
LWPOLYLINE
  5
24E
100
AcDbEntity
  8
Ech.1_5
 62
   190
  6
CONTINUOUS
370
    -3
100
AcDbPolyline
 90
        4
 70
     1
 43
0.0
 10
38145.15775953
 20
-40750.74911921
 10
38045.15775953
 20
-40787.14614263
 10
38045.15775953
 20
-40865.90882536
 10
38145.15775953
 20
-40865.90882536
  0
LWPOLYLINE
  5
24F
100
AcDbEntity
  8
Ech.1_5
 62
   190
  6
CONTINUOUS
370
    -3
100
AcDbPolyline
 90
        9
 70
     1
 43
0.0
 10
37903.11394434
 20
-40732.42808608
 10
37554.0113253
 20
-40859.49104811
 10
37554.0113253
 20
-40865.90882536
 10
37828.75906724
 20
-40865.90882536
 10
37903.11394434
 20
-40838.84586333
 10
38703.21656339
 20
-40547.63232563
 10
39212.93812994
 20
-40362.10884765
 10
39212.93812994
 20
-40255.6910704
 10
38703.21656339
 20
-40441.21454839
  0
LWPOLYLINE
  5
250
100
AcDbEntity
  8
Ech.1_5
 62
   190
  6
CONTINUOUS
370
    -3
100
AcDbPolyline
 90
        4
 70
     1
 43
0.0
 10
38059.21321873
 20
-40865.90882188
 10
39212.93812994
 20
-40865.90882188
 10
39212.93812994
 20
-40965.90882188
 10
38059.21321873
 20
-40965.90882188
  0
LWPOLYLINE
  5
251
100
AcDbEntity
  8
Ech.1_5
 62
   190
  6
CONTINUOUS
370
    -3
100
AcDbPolyline
 90
        4
 70
     1
 43
0.0
 10
39212.93812994
 20
-40255.50265151
 10
39212.93812994
 20
-40226.76985165
 10
37559.83235323
 20
-40828.63956736
 10
37569.0668971
 20
-40854.01126812
  0
LWPOLYLINE
  5
252
100
AcDbEntity
  8
Ech.1_5
 62
     7
100
AcDbPolyline
 90
       57
 70
     0
 43
0.0
 10
37465.70381761
 20
-40949.09342558
 10
37467.09890477
 20
-40948.89069936
 10
37468.49509933
 20
-40948.68605927
 10
37469.89350871
 20
-40948.47759145
 10
37471.2952403
 20
-40948.26338202
 10
37472.70140151
 20
-40948.04151711
 10
37474.11309974
 20
-40947.81008286
 10
37475.5314424
 20
-40947.56716539
 10
37476.9575369
 20
-40947.31085084
 10
37478.39249064
 20
-40947.03922535
 10
37479.83741101
 20
-40946.75037503
 10
37481.29340544
 20
-40946.44238602
 10
37482.76158132
 20
-40946.11334446
 10
37484.24304606
 20
-40945.76133647
 10
37485.73890706
 20
-40945.38444819
 10
37487.2502523
 20
-40944.9808104
 10
37488.77631601
 20
-40944.55281444
 10
37490.31297281
 20
-40944.1105733
 10
37491.85574288
 20
-40943.66501451
 10
37493.40014642
 20
-40943.22706563
 10
37494.94170363
 20
-40942.8076542
 10
37496.47593469
 20
-40942.41770778
 10
37497.99835979
 20
-40942.06815392
 10
37499.50449914
 20
-40941.76992015
 10
37500.98987292
 20
-40941.53393404
 10
37502.45000133
 20
-40941.37112313
 10
37503.88040455
 20
-40941.29241496
 10
37505.27660279
 20
-40941.3087371
 10
37506.63411623
 20
-40941.43101708
 10
37507.94846506
 20
-40941.67018245
 10
37509.21516949
 20
-40942.03716077
 10
37510.42975057
 20
-40942.54287586
 10
37511.58892473
 20
-40943.19312761
 10
37512.69297316
 20
-40943.97843557
 10
37513.74283864
 20
-40944.88648344
 10
37514.73946393
 20
-40945.90495492
 10
37515.68379182
 20
-40947.02153372
 10
37516.57676507
 20
-40948.22390354
 10
37517.41932644
 20
-40949.49974807
 10
37518.21241872
 20
-40950.83675104
 10
37518.95698467
 20
-40952.22259614
 10
37519.65396707
 20
-40953.64496707
 10
37520.30430868
 20
-40955.09154753
 10
37520.90895227
 20
-40956.55002124
 10
37521.46884063
 20
-40958.0080719
 10
37521.98495276
 20
-40959.45365001
 10
37522.4592818
 20
-40960.88217104
 10
37522.89494673
 20
-40962.29733759
 10
37523.29512516
 20
-40963.70328413
 10
37523.66299474
 20
-40965.10414511
 10
37524.00173309
 20
-40966.50405497
 10
37524.31451784
 20
-40967.90714816
 10
37524.60452662
 20
-40969.31755914
 10
37524.87495572
 20
-40970.73934655
 10
37525.12981961
 20
-40972.1732441
 10
37525.37425279
 20
-40973.61543422
 10
37525.6134706
 20
-40975.06177062
  0
ARC
  5
253
100
AcDbEntity
  8
Ech.1_5
 62
     7
100
AcDbCircle
 10
37457.00298278
 20
-40881.86423183
 30
0.0
 40
67.78988877
100
AcDbArc
 50
176.81519387
 51
17.9333216
  0
LINE
  5
254
100
AcDbEntity
  8
Ech.1_5
 62
     7
100
AcDbLine
 10
37554.0113253
 20
-40965.90882536
 30
0.0
 11
37637.94253952
 21
-40965.90882536
 31
0.0
  0
LINE
  5
255
100
AcDbEntity
  8
Ech.1_5
 62
     7
100
AcDbLine
 10
37567.99459259
 20
-40851.89448988
 30
0.0
 11
37510.73088355
 21
-40859.42352233
 31
0.0
  0
LINE
  5
256
100
AcDbEntity
  8
Ech.1_5
 62
     7
100
AcDbLine
 10
37568.47264547
 20
-40853.8488484
 30
0.0
 11
37512.73088355
 21
-40861.17777525
 31
0.0
  0
LINE
  5
257
100
AcDbEntity
  8
Ech.1_5
 62
     7
100
AcDbLine
 10
37510.73088355
 20
-40859.42352233
 30
0.0
 11
37510.73088355
 21
-40888.03134194
 31
0.0
  0
LINE
  5
258
100
AcDbEntity
  8
Ech.1_5
 62
     7
100
AcDbLine
 10
37512.73088355
 20
-40861.17777525
 30
0.0
 11
37512.73088355
 21
-40882.77024513
 31
0.0
  0
LINE
  5
259
100
AcDbEntity
  8
Ech.1_5
 62
     7
100
AcDbLine
 10
37520.20482442
 20
-40860.99104811
 30
0.0
 11
37532.0113253
 21
-40860.99104811
 31
0.0
  0
ARC
  5
25A
100
AcDbEntity
  8
Ech.1_5
 62
     7
100
AcDbCircle
 10
37528.99179626
 20
-40974.44739317
 30
0.0
 40
3.43373615
100
AcDbArc
 50
190.3070861
 51
331.56661712
  0
LINE
  5
25B
100
AcDbEntity
  8
Ech.1_5
 62
     7
100
AcDbLine
 10
37619.08346535
 20
-40833.29966089
 30
0.0
 11
37619.76750564
 21
-40835.17904613
 31
0.0
  0
LINE
  5
25C
100
AcDbEntity
  8
Ech.1_5
 62
     7
100
AcDbLine
 10
37567.99459259
 20
-40851.89448988
 30
0.0
 11
37619.08346535
 21
-40833.29966089
 31
0.0
  0
LINE
  5
25D
100
AcDbEntity
  8
Ech.1_5
 62
     7
100
AcDbLine
 10
38034.1275458
 20
-40964.30811862
 30
0.0
 11
38076.1275458
 21
-40964.30811862
 31
0.0
  0
LINE
  5
25E
100
AcDbEntity
  8
Ech.1_5
 62
     7
100
AcDbLine
 10
38079.4906512
 20
-40965.90882536
 30
0.0
 11
38236.69866306
 21
-40965.90882536
 31
0.0
  0
LWPOLYLINE
  5
25F
100
AcDbEntity
  8
Ech.1_5
100
AcDbPolyline
 90
        5
 70
     0
 43
0.0
 10
39212.93812994
 20
-40255.50265151
 10
39212.93812994
 20
-40226.76985165
 10
37559.83235323
 20
-40828.63956736
 10
37569.0668971
 20
-40854.01126812
 10
39212.93812994
 20
-40255.50265151
  0
LWPOLYLINE
  5
260
102
{ACAD_REACTORS
330
261
102
}
100
AcDbEntity
  8
Ech.1_5
 62
     7
  6
CONTINUOUS
100
AcDbPolyline
 90
        3
 70
     1
 43
0.0
 10
37629.65615048
 20
-40806.07573739
 10
37651.431626
 20
-40801.25151618
 10
37632.3978155
 20
-40812.87728506
  0
HATCH
  5
261
100
AcDbEntity
  8
Ech.1_5
 62
     7
  6
CONTINUOUS
100
AcDbHatch
 10
0.0
 20
0.0
 30
0.0
210
0.0
220
0.0
230
1.0
  2
SOLID
 70
     1
 71
     1
 91
        1
 92
        7
 72
     0
 73
     1
 93
        3
 10
37629.65615048
 20
-40806.07573739
 10
37651.431626
 20
-40801.25151618
 10
37632.3978155
 20
-40812.87728506
 97
        1
330
260
 75
     0
 76
     2
 47
0.775229
 98
        1
 10
0.0
 20
0.0
  0
ARC
  5
262
100
AcDbEntity
  8
Ech.1_5
 62
     7
100
AcDbCircle
 10
37999.40471189
 20
-41632.50525394
 30
0.0
 40
901.70863503
100
AcDbArc
 50
114.11271308
 51
118.22750414
  0
ARC
  5
263
100
AcDbEntity
  8
Ech.1_5
 62
     7
100
AcDbCircle
 10
37524.80821716
 20
-40744.41085992
 30
0.0
 40
105.25912681
100
AcDbArc
 50
263.48671375
 51
297.1989192
  0
LWPOLYLINE
  5
264
100
AcDbEntity
  8
Ech.1_5
 62
     7
100
AcDbPolyline
 90
        2
 70
     1
 43
0.0
 10
38106.12070022
 20
-40921.02532077
 42
1.0
 10
38106.12070022
 20
-40919.40952131
 42
1.0
  0
LWPOLYLINE
  5
265
100
AcDbEntity
  8
Ech.1_5
 62
     7
100
AcDbPolyline
 90
        2
 70
     1
 43
0.0
 10
38106.12070022
 20
-40936.3521603
 42
1.0
 10
38106.12070022
 20
-40934.73636084
 42
1.0
  0
LWPOLYLINE
  5
266
100
AcDbEntity
  8
Ech.1_5
 62
     7
100
AcDbPolyline
 90
        2
 70
     1
 43
0.0
 10
38083.89783753
 20
-40936.3521603
 42
1.0
 10
38083.89783753
 20
-40934.73636084
 42
1.0
  0
LWPOLYLINE
  5
267
100
AcDbEntity
  8
Ech.1_5
 62
     7
100
AcDbPolyline
 90
        2
 70
     1
 43
0.0
 10
38083.89783753
 20
-40921.02532077
 42
1.0
 10
38083.89783753
 20
-40919.40952131
 42
1.0
  0
LWPOLYLINE
  5
268
100
AcDbEntity
  8
Ech.1_5
 62
     7
100
AcDbPolyline
 90
        2
 70
     1
 43
0.0
 10
38095.50905739
 20
-40944.48390601
 42
1.0
 10
38095.50905739
 20
-40942.86810656
 42
1.0
  0
LWPOLYLINE
  5
269
100
AcDbEntity
  8
Ech.1_5
 62
     7
100
AcDbPolyline
 90
        2
 70
     1
 43
0.0
 10
38095.50905739
 20
-40929.15706648
 42
1.0
 10
38095.50905739
 20
-40927.54126703
 42
1.0
  0
LINE
  5
26A
100
AcDbEntity
  8
Ech.1_5
 62
     0
  6
BYBLOCK
370
    -3
100
AcDbLine
 10
38020.31687133
 20
-40693.11611262
 30
0.0
 11
38011.34492299
 21
-40688.93231734
 31
0.0
  0
LWPOLYLINE
  5
26B
102
{ACAD_REACTORS
330
26C
102
}
100
AcDbEntity
  8
Ech.1_5
 62
     7
  6
CONTINUOUS
370
    -3
100
AcDbPolyline
 90
        4
 70
     1
 43
0.0
 10
38187.7270356
 20
-41127.90882536
 10
38187.7270356
 20
-41140.90882536
 10
39210.3284156
 20
-41140.90866286
 10
39210.3284156
 20
-41127.90866286
  0
HATCH
  5
26C
100
AcDbEntity
  8
Ech.1_5
 62
   190
  6
CONTINUOUS
100
AcDbHatch
 10
0.0
 20
0.0
 30
0.0
210
0.0
220
0.0
230
1.0
  2
DOTS2
 70
     0
 71
     1
 91
        1
 92
        7
 72
     0
 73
     1
 93
        4
 10
38187.7270356
 20
-41127.90882536
 10
38187.7270356
 20
-41140.90882536
 10
39210.3284156
 20
-41140.90866286
 10
39210.3284156
 20
-41127.90866286
 97
        1
330
26B
 75
     0
 76
     2
 52
0.0
 41
4.72440952
 77
     0
 78
     1
 53
0.0
 43
0.0
 44
0.0
 45
3.75
 46
3.535
 79
     2
 49
0.0
 49
-3.535
 47
0.775229
 98
        1
 10
0.0
 20
0.0
  0
LWPOLYLINE
  5
26D
102
{ACAD_REACTORS
330
26E
102
}
100
AcDbEntity
  8
Ech.1_5
 62
     7
  6
CONTINUOUS
370
    -3
100
AcDbPolyline
 90
        4
 70
     1
 43
0.0
 10
38009.23126655
 20
-41002.90882536
 10
38009.23126655
 20
-40992.90882536
 10
37737.05558248
 20
-40992.90882536
 10
37737.05558248
 20
-41002.90882536
  0
HATCH
  5
26E
100
AcDbEntity
  8
Ech.1_5
 62
   190
  6
CONTINUOUS
100
AcDbHatch
 10
0.0
 20
0.0
 30
0.0
210
0.0
220
0.0
230
1.0
  2
ANSI37
 70
     0
 71
     1
 91
        1
 92
        7
 72
     0
 73
     1
 93
        4
 10
38009.23126655
 20
-41002.90882536
 10
38009.23126655
 20
-40992.90882536
 10
37737.05558248
 20
-40992.90882536
 10
37737.05558248
 20
-41002.90882536
 97
        1
330
26D
 75
     0
 76
     2
 52
0.0
 41
1.88976388
 77
     0
 78
     2
 53
45.0
 43
0.0
 44
0.0
 45
4.24264086
 46
-4.24264086
 79
     0
 53
-45.0
 43
0.0
 44
0.0
 45
4.24264086
 46
4.24264086
 79
     0
 47
0.775229
 98
        1
 10
0.0
 20
0.0
  0
LWPOLYLINE
  5
26F
102
{ACAD_REACTORS
330
270
102
}
100
AcDbEntity
  8
Ech.1_5
 62
     7
  6
CONTINUOUS
370
    -3
100
AcDbPolyline
 90
        4
 70
     1
 43
0.0
 10
37678.29301553
 20
-41002.90882536
 10
37678.29301553
 20
-40992.90882536
 10
37550.78397388
 20
-40992.90882536
 10
37550.78397388
 20
-41002.90882536
  0
HATCH
  5
270
100
AcDbEntity
  8
Ech.1_5
 62
   190
  6
CONTINUOUS
100
AcDbHatch
 10
0.0
 20
0.0
 30
0.0
210
0.0
220
0.0
230
1.0
  2
ANSI37
 70
     0
 71
     1
 91
        1
 92
        7
 72
     0
 73
     1
 93
        4
 10
37678.29301553
 20
-41002.90882536
 10
37678.29301553
 20
-40992.90882536
 10
37550.78397388
 20
-40992.90882536
 10
37550.78397388
 20
-41002.90882536
 97
        1
330
26F
 75
     0
 76
     2
 52
0.0
 41
1.88976388
 77
     0
 78
     2
 53
45.0
 43
0.0
 44
0.0
 45
4.24264086
 46
-4.24264086
 79
     0
 53
-45.0
 43
0.0
 44
0.0
 45
4.24264086
 46
4.24264086
 79
     0
 47
0.775229
 98
        1
 10
0.0
 20
0.0
  0
LWPOLYLINE
  5
271
100
AcDbEntity
  8
Ech.1_5
100
AcDbPolyline
 90
        4
 70
     0
 43
0.0
 10
37678.29301553
 20
-41002.90882536
 10
38009.23126655
 20
-41002.90882536
 10
38009.23126655
 20
-40992.90882536
 10
37678.29301553
 20
-40992.90882536
  0
LWPOLYLINE
  5
272
100
AcDbEntity
  8
Ech.1_5
100
AcDbPolyline
 90
        4
 70
     0
 43
0.0
 10
37678.29301553
 20
-40992.90882536
 10
37550.78397388
 20
-40992.90882536
 10
37550.78397388
 20
-41002.90882536
 10
37678.29301553
 20
-41002.90882536
  0
LWPOLYLINE
  5
273
100
AcDbEntity
  8
Ech.1_5
100
AcDbPolyline
 90
        4
 70
     0
 43
0.0
 10
39212.93812994
 20
-40965.90882536
 10
37554.0113253
 20
-40965.90882536
 10
37554.0113253
 20
-40865.90882536
 10
39212.93812994
 20
-40865.90882536
  0
LWPOLYLINE
  5
274
100
AcDbEntity
  8
Ech.1_5
100
AcDbPolyline
 90
        5
 70
     0
 43
0.0
 10
38145.15775953
 20
-40750.74911921
 10
38045.15775953
 20
-40787.14614263
 10
38045.15775953
 20
-40865.90882536
 10
38145.15775953
 20
-40865.90882536
 10
38145.15775953
 20
-40750.74911921
  0
LWPOLYLINE
  5
275
100
AcDbEntity
  8
Ech.1_5
 62
   190
  6
CONTINUOUS
370
    -3
100
AcDbPolyline
 90
        5
 70
     1
 43
0.0
 10
38005.0113253
 20
-40965.90882536
 10
38050.0113253
 20
-40965.90882536
 10
38050.0113253
 20
-40875.90882536
 10
38026.42996629
 20
-40875.90882536
 10
38005.0113253
 20
-40875.90882536
  0
LWPOLYLINE
  5
276
100
AcDbEntity
  8
Ech.1_5
 62
   190
  6
CONTINUOUS
370
    -3
100
AcDbPolyline
 90
        4
 70
     0
 43
0.0
 10
38005.0113253
 20
-40965.90882536
 10
38050.0113253
 20
-40875.90882536
 10
38005.0113253
 20
-40875.90882536
 10
38050.0113253
 20
-40965.90882536
  0
LWPOLYLINE
  5
277
100
AcDbEntity
  8
Ech.1_5
100
AcDbPolyline
 90
        4
 70
     0
 43
0.0
 10
38050.2131756
 20
-40964.30811862
 10
38050.2131756
 20
-40754.75852857
 10
38059.21317567
 20
-40754.75852857
 10
38059.21321813
 20
-40964.30811862
  0
LWPOLYLINE
  5
278
102
{ACAD_REACTORS
330
279
102
}
100
AcDbEntity
  8
Ech.1_5
 62
     9
  6
CONTINUOUS
370
    -3
100
AcDbPolyline
 90
        9
 70
     1
 43
0.0
 10
37619.76750564
 20
-40835.17904613
 10
37619.08346535
 20
-40833.29966089
 10
37567.99459259
 20
-40851.89448988
 10
37510.73088355
 20
-40859.42352233
 10
37510.73088355
 20
-40888.03134194
 10
37515.4476096
 20
-40882.77024513
 10
37512.73088355
 20
-40882.77024513
 10
37512.73088355
 20
-40861.17777525
 10
37568.47264547
 20
-40853.8488484
  0
HATCH
  5
279
100
AcDbEntity
  8
Ech.1_5
 62
     9
  6
CONTINUOUS
100
AcDbHatch
 10
0.0
 20
0.0
 30
0.0
210
0.0
220
0.0
230
1.0
  2
SOLID
 70
     1
 71
     1
 91
        1
 92
        7
 72
     0
 73
     1
 93
        9
 10
37619.76750564
 20
-40835.17904613
 10
37619.08346535
 20
-40833.29966089
 10
37567.99459259
 20
-40851.89448988
 10
37510.73088355
 20
-40859.42352233
 10
37510.73088355
 20
-40888.03134194
 10
37515.4476096
 20
-40882.77024513
 10
37512.73088355
 20
-40882.77024513
 10
37512.73088355
 20
-40861.17777525
 10
37568.47264547
 20
-40853.8488484
 97
        1
330
278
 75
     0
 76
     2
 47
0.775229
 98
        1
 10
0.0
 20
0.0
  0
LWPOLYLINE
  5
27A
100
AcDbEntity
  8
Ech.1_5
100
AcDbPolyline
 90
       10
 70
     0
 43
0.0
 10
37619.76750564
 20
-40835.17904613
 10
37619.08346535
 20
-40833.29966089
 10
37567.99459259
 20
-40851.89448988
 10
37510.73088355
 20
-40859.42352233
 10
37510.73088355
 20
-40888.03134194
 10
37515.4476096
 20
-40882.77024513
 10
37512.73088355
 20
-40882.77024513
 10
37512.73088355
 20
-40861.17777525
 10
37568.47264547
 20
-40853.8488484
 10
37619.76750564
 20
-40835.17904613
  0
LWPOLYLINE
  5
27B
100
AcDbEntity
  8
Ech.1_5
 62
     7
  6
CONTINUOUS
370
    -3
100
AcDbPolyline
 90
        4
 70
     1
 43
0.0
 10
38697.89660956
 20
-41025.90882536
 10
38697.89660956
 20
-40965.90882536
 10
38655.89660956
 20
-40965.90882536
 10
38655.89660956
 20
-41025.90882536
  0
LWPOLYLINE
  5
27C
100
AcDbEntity
  8
Ech.1_5
 62
   190
  6
CONTINUOUS
370
    -3
100
AcDbPolyline
 90
        4
 70
     0
 43
0.0
 10
38655.89660956
 20
-41025.90882536
 10
38697.89660956
 20
-40965.90882536
 10
38697.89660956
 20
-41025.90882536
 10
38655.89660956
 20
-40965.90882536
  0
LWPOLYLINE
  5
27D
100
AcDbEntity
  8
Ech.1_5
100
AcDbPolyline
 90
        4
 70
     0
 43
0.0
 10
39212.93812994
 20
-41127.90866286
 10
38190.33674994
 20
-41127.90866286
 10
38190.33674994
 20
-41103.22649276
 10
39212.93812994
 20
-41103.22649276
  0
LWPOLYLINE
  5
27E
100
AcDbEntity
  8
Ech.1_5
100
AcDbPolyline
 90
        5
 70
     0
 43
0.0
 10
39210.3284156
 20
-41127.90866286
 10
38187.7270356
 20
-41127.90866286
 10
38187.7270356
 20
-41140.90866286
 10
39210.3284156
 20
-41140.90866286
 10
39210.3284156
 20
-41127.90866286
  0
LWPOLYLINE
  5
27F
100
AcDbEntity
  8
Ech.1_5
 62
   190
  6
CONTINUOUS
370
    -3
100
AcDbPolyline
 90
       10
 70
     1
 43
0.0
 10
37532.0113253
 20
-40859.49104811
 10
37532.0113253
 20
-41015.68657799
 42
-0.41421356
 10
37544.8753504
 20
-41028.55060309
 10
37554.0113253
 20
-41028.55060309
 10
37554.0113253
 20
-41007.24595974
 10
37547.72736583
 20
-41007.24595974
 10
37547.72736583
 20
-40996.18023937
 10
37547.72736583
 20
-40992.90882536
 10
37554.0113253
 20
-40992.90882536
 10
37554.0113253
 20
-40859.49104811
  0
LWPOLYLINE
  5
280
100
AcDbEntity
  8
Ech.1_5
 62
   190
  6
CONTINUOUS
370
    -3
100
AcDbPolyline
 90
        4
 70
     1
 43
0.0
 10
37568.2137959
 20
-40965.90882536
 10
37608.2137959
 20
-40965.90882536
 10
37608.2137959
 20
-40992.90882536
 10
37568.2137959
 20
-40992.90882536
  0
LWPOLYLINE
  5
281
100
AcDbEntity
  8
Ech.1_5
 62
   190
  6
CONTINUOUS
370
    -3
100
AcDbPolyline
 90
        4
 70
     0
 43
0.0
 10
37608.2137959
 20
-40965.90882536
 10
37568.2137959
 20
-40992.90882536
 10
37608.2137959
 20
-40992.90882536
 10
37568.2137959
 20
-40965.90882536
  0
LWPOLYLINE
  5
282
100
AcDbEntity
  8
Ech.1_5
 62
   190
  6
CONTINUOUS
370
    -3
100
AcDbPolyline
 90
        4
 70
     1
 43
0.0
 10
37892.69149539
 20
-40965.90882536
 10
37932.69149539
 20
-40965.90882536
 10
37932.69149539
 20
-40992.90882536
 10
37892.69149539
 20
-40992.90882536
  0
LWPOLYLINE
  5
283
100
AcDbEntity
  8
Ech.1_5
 62
   190
  6
CONTINUOUS
370
    -3
100
AcDbPolyline
 90
        4
 70
     0
 43
0.0
 10
37932.69149539
 20
-40965.90882536
 10
37892.69149539
 20
-40992.90882536
 10
37932.69149539
 20
-40992.90882536
 10
37892.69149539
 20
-40965.90882536
  0
LINE
  5
284
100
AcDbEntity
  8
Ech.1_5
 62
   140
100
AcDbLine
 10
37996.01328383
 20
-40965.90882536
 30
0.0
 11
38043.4539451
 21
-40965.90882536
 31
0.0
  0
LWPOLYLINE
  5
285
100
AcDbEntity
  8
Ech.1_5
100
AcDbPolyline
 90
        5
 70
     0
 43
0.0
 10
38074.00926888
 20
-40910.30810361
 10
38116.00926888
 20
-40910.30810892
 10
38116.00926888
 20
-40965.90883506
 10
38074.00926888
 20
-40965.90881566
 10
38074.00926888
 20
-40910.30810892
  0
LWPOLYLINE
  5
286
100
AcDbEntity
  8
Ech.1_5
 62
     3
370
    70
100
AcDbPolyline
 90
        4
 70
     0
 43
0.0
 10
38192.03664143
 20
-41025.56013374
 10
38192.03664143
 20
-41012.57100032
 10
38197.71725439
 20
-41008.63626818
 10
38197.71725439
 20
-40995.15783818
  0
ARC
  5
287
100
AcDbEntity
  8
Ech.1_5
 62
     7
100
AcDbCircle
 10
37456.19680754
 20
-40874.00486876
 30
0.0
 40
62.81757614
100
AcDbArc
 50
180.12287567
 51
11.68289665
  0
ARC
  5
288
100
AcDbEntity
  8
Ech.1_5
 62
     7
100
AcDbCircle
 10
37456.19680754
 20
-40874.00486876
 30
0.0
 40
65.31757614
100
AcDbArc
 50
182.93511954
 51
11.68289665
  0
CIRCLE
  5
289
100
AcDbEntity
  8
Ech.1_5
 62
     7
100
AcDbCircle
 10
37387.71974135
 20
-40872.39543853
 30
0.0
 40
5.9222896
  0
LINE
  5
28A
100
AcDbEntity
  8
Ech.1_5
 62
     7
100
AcDbLine
 10
37728.936398
 20
-40965.90882536
 30
0.0
 11
38005.0113253
 21
-40965.90882536
 31
0.0
  0
LINE
  5
28B
100
AcDbEntity
  8
Ech.1_5
 62
     7
100
AcDbLine
 10
37644.7135364
 20
-40965.90882536
 30
0.0
 11
37728.936398
 21
-40965.90882536
 31
0.0
  0
LINE
  5
28C
100
AcDbEntity
  8
Ech.1_5
 62
     7
100
AcDbLine
 10
37517.71301086
 20
-40861.28462501
 30
0.0
 11
37520.16121911
 21
-40860.77838756
 31
0.0
  0
LINE
  5
28D
100
AcDbEntity
  8
Ech.1_5
 62
     7
100
AcDbLine
 10
38008.50806299
 20
-40965.90882536
 30
0.0
 11
38033.73942299
 21
-40965.90882536
 31
0.0
  0
LWPOLYLINE
  5
28E
100
AcDbEntity
  8
Ech.1_5
 62
     7
100
AcDbPolyline
 90
        5
 70
     0
 43
0.0
 10
38081.26891703
 20
-40963.40845246
 42
-1.0
 10
38086.62574348
 20
-40963.40845246
 10
38086.62574348
 20
-40944.82696932
 42
1.0
 10
38081.26891703
 20
-40944.82696932
 10
38081.26891703
 20
-40963.40845246
  0
LWPOLYLINE
  5
28F
100
AcDbEntity
  8
Ech.1_5
 62
     7
100
AcDbPolyline
 90
        5
 70
     0
 43
0.0
 10
38108.74962072
 20
-40963.40845246
 10
38108.74962072
 20
-40944.82696932
 42
1.0
 10
38103.39279428
 20
-40944.82696932
 10
38103.39279428
 20
-40963.40845246
 42
-1.0
 10
38108.74962072
 20
-40963.40845246
  0
LWPOLYLINE
  5
290
100
AcDbEntity
  8
Ech.1_5
 62
     7
100
AcDbPolyline
 90
       12
 70
     0
 43
0.0
 10
37532.0113253
 20
-40886.49104811
 10
37532.0113253
 20
-41015.68657799
 42
-0.41421356
 10
37544.8753504
 20
-41028.55060309
 10
37554.0113253
 20
-41028.55060309
 10
37554.0113253
 20
-41007.24595974
 10
37547.72736583
 20
-41007.24595974
 10
37547.72736583
 20
-40996.18023937
 10
37547.72736583
 20
-40992.90882536
 10
37554.0113253
 20
-40992.90882536
 10
37554.0113253
 20
-40859.49104811
 10
37532.0113253
 20
-40859.49104811
 10
37532.0113253
 20
-40989.85054455
  0
LINE
  5
291
100
AcDbEntity
  8
Ech.1_5
 62
     7
100
AcDbLine
 10
37561.81831599
 20
-40770.98269369
 30
0.0
 11
37561.68113816
 21
-40771.00624679
 31
0.0
  0
LINE
  5
292
100
AcDbEntity
  8
Ech.1_5
 62
     7
100
AcDbLine
 10
37510.76152374
 20
-40887.99716548
 30
0.0
 11
37515.4476096
 21
-40882.77024513
 31
0.0
  0
LINE
  5
293
100
AcDbEntity
  8
Ech.1_5
 62
     7
100
AcDbLine
 10
37512.76152374
 20
-40882.77024513
 30
0.0
 11
37515.4476096
 21
-40882.77024513
 31
0.0
  0
LWPOLYLINE
  5
294
100
AcDbEntity
  8
Ech.1_5
100
AcDbPolyline
 90
        9
 70
     0
 43
0.0
 10
39212.93812994
 20
-40255.6910704
 10
38703.21656339
 20
-40441.21454839
 10
37903.11394434
 20
-40732.42808608
 10
37554.0113253
 20
-40859.49104811
 10
37554.0113253
 20
-40865.90882536
 10
37828.75906724
 20
-40865.90882536
 10
37903.11394434
 20
-40838.84586333
 10
38703.21656339
 20
-40547.63232563
 10
39212.93812994
 20
-40362.10884765
  0
LWPOLYLINE
  5
295
100
AcDbEntity
  8
Ech.1_5
 62
   190
  6
CONTINUOUS
370
    -3
100
AcDbPolyline
 90
        4
 70
     1
 43
0.0
 10
38059.21302297
 20
-40754.75852857
 10
38050.2130229
 20
-40754.75852857
 10
38050.21325593
 20
-40964.30811862
 10
38059.213256
 20
-40964.30811862
  0
LWPOLYLINE
  5
296
102
{ACAD_REACTORS
330
297
102
}
100
AcDbEntity
  8
Ech.1_5
 62
   190
  6
CONTINUOUS
370
    -3
100
AcDbPolyline
 90
        4
 70
     1
 43
0.0
 10
38050.21325593
 20
-40964.30811862
 10
38059.213256
 20
-40964.30811862
 10
38059.21302297
 20
-40754.75852857
 10
38050.2130229
 20
-40754.75852857
  0
HATCH
  5
297
100
AcDbEntity
  8
Ech.1_5
 62
   190
  6
CONTINUOUS
100
AcDbHatch
 10
0.0
 20
0.0
 30
0.0
210
0.0
220
0.0
230
1.0
  2
CDWK10A
 70
     0
 71
     1
 91
        1
 92
        7
 72
     0
 73
     1
 93
        4
 10
38050.21325593
 20
-40964.30811862
 10
38059.213256
 20
-40964.30811862
 10
38059.21302297
 20
-40754.75852857
 10
38050.2130229
 20
-40754.75852857
 97
        1
330
296
 75
     0
 76
     2
 52
0.0
 41
1.0
 77
     0
 78
     3
 53
45.0
 43
0.0
 44
0.0
 45
0.0
 46
42.00000167
 79
     0
 53
45.0
 43
0.0
 44
10.80000043
 45
0.0
 46
42.00000167
 79
     0
 53
45.0
 43
0.0
 44
21.60000086
 45
0.0
 46
42.00000167
 79
     0
 47
0.775229
 98
        1
 10
0.0
 20
0.0
  0
LWPOLYLINE
  5
298
100
AcDbEntity
  8
Ech.1_5
 62
   190
  6
CONTINUOUS
370
    -3
100
AcDbPolyline
 90
        4
 70
     1
 43
0.0
 10
38059.21321873
 20
-40765.90882188
 10
39212.93812994
 20
-40765.90882188
 10
39212.93812994
 20
-40865.90882188
 10
38059.21321873
 20
-40865.90882188
  0
LWPOLYLINE
  5
299
100
AcDbEntity
  8
Ech.1_5
 62
   190
  6
CONTINUOUS
370
    -3
100
AcDbPolyline
 90
        5
 70
     0
 43
0.0
 10
38059.21321873
 20
-40765.90882188
 10
39212.93812994
 20
-40765.90882188
 10
39212.93812994
 20
-40865.90882188
 10
38059.21321873
 20
-40865.90882188
 10
38059.21321873
 20
-40765.90882188
  0
LWPOLYLINE
  5
29A
100
AcDbEntity
  8
Ech.1_5
370
    50
100
AcDbPolyline
 90
        3
 70
     0
 43
0.0
 10
38187.7270356
 20
-41103.15450048
 10
38187.7270356
 20
-41126.23301739
 10
38213.58922012
 20
-41126.23301739
  0
LINE
  5
29B
100
AcDbEntity
  8
Ech.1_5
 48
0.2
100
AcDbLine
 10
38701.14114635
 20
-41103.97719682
 30
0.0
 11
38701.14114635
 21
-40973.41717423
 31
0.0
  0
LINE
  5
29C
100
AcDbEntity
  8
Ech.1_5
  6
DASHEDX2
 48
0.2
100
AcDbLine
 10
38701.14114635
 20
-41103.97719682
 30
0.0
 11
38701.14114635
 21
-41127.90866286
 31
0.0
  0
LWPOLYLINE
  5
29D
100
AcDbEntity
  8
Ech.1_5
 62
   190
  6
CONTINUOUS
370
    -3
100
AcDbPolyline
 90
        6
 70
     0
 43
0.0
 10
37934.43464087
 20
-41210.36705289
 10
38114.43464087
 20
-41210.36649097
 10
38130.92014402
 20
-41192.38914257
 10
38116.810204
 20
-41228.34484258
 10
38133.29655808
 20
-41210.36649097
 10
38260.29655808
 20
-41210.36649097
  0
LWPOLYLINE
  5
29E
100
AcDbEntity
  8
Ech.1_5
 62
   190
100
AcDbPolyline
 90
        5
 70
     0
 43
0.0
 10
37450.262205
 20
-41239.38791415
 10
37584.69098399
 20
-41239.38791415
 10
37584.69098399
 20
-41296.11087296
 10
37450.262205
 20
-41296.11087296
 10
37450.262205
 20
-41239.38791415
  0
LWPOLYLINE
  5
29F
100
AcDbEntity
  8
Ech.1_5
 62
   190
100
AcDbPolyline
 90
        5
 70
     0
 43
0.0
 10
37468.54225079
 20
-41273.04472528
 10
37518.54225079
 20
-41273.04472528
 10
37518.54225079
 20
-41265.62958774
 10
37468.54225079
 20
-41265.62958774
 10
37468.54225079
 20
-41273.04472528
  0
HATCH
  5
2A0
100
AcDbEntity
  8
Ech.1_5
 62
   190
100
AcDbHatch
 10
0.0
 20
0.0
 30
0.0
210
0.0
220
0.0
230
1.0
  2
SOLID
 70
     1
 71
     0
 91
        1
 92
        7
 72
     0
 73
     1
 93
        4
 10
37468.54225079
 20
-41273.04472528
 10
37518.54225079
 20
-41273.04472528
 10
37518.54225079
 20
-41265.62958774
 10
37468.54225079
 20
-41265.62958774
 97
        0
 75
     0
 76
     2
 47
0.775229
 98
        1
 10
0.0
 20
0.0
  0
LWPOLYLINE
  5
2A1
100
AcDbEntity
  8
Ech.1_5
 62
   190
100
AcDbPolyline
 90
        5
 70
     0
 43
0.0
 10
37518.54225079
 20
-41273.04472528
 10
37568.54225079
 20
-41273.04472528
 10
37568.54225079
 20
-41265.62958774
 10
37518.54225079
 20
-41265.62958774
 10
37518.54225079
 20
-41273.04472528
  0
LINE
  5
2A2
100
AcDbEntity
  8
Ech.1_5
 62
     1
100
AcDbLine
 10
38190.74208385
 20
-40965.90882536
 30
0.0
 11
39067.67240695
 21
-40965.90882536
 31
0.0
  0
LWPOLYLINE
  5
2A3
100
AcDbEntity
  8
Ech.1_5
 62
   190
  6
CONTINUOUS
370
    -3
100
AcDbPolyline
 90
       25
 70
     1
 43
0.0
 10
38221.84069455
 20
-40558.71670852
 10
38227.94960931
 20
-40581.4918918
 10
38251.68227361
 20
-40575.12615496
 10
38239.07801495
 20
-40522.93034801
 10
38229.63359648
 20
-40525.21098893
 10
38232.21129601
 20
-40535.88556413
 10
38215.25877568
 20
-40539.97926368
 10
38212.68107615
 20
-40529.30468847
 10
38203.23665769
 20
-40531.58532939
 10
38205.81435722
 20
-40542.2599046
 10
38182.74800843
 20
-40547.82997322
 10
38182.31116465
 20
-40546.02094864
 10
38182.25603992
 20
-40546.03426018
 10
38173.21370721
 20
-40508.58883276
 10
38169.56238387
 20
-40493.46824745
 10
37843.18212457
 20
-40572.28264749
 42
0.41421356
 10
37826.73430167
 20
-40599.20303958
 10
37830.96180506
 20
-40616.70965832
 10
37843.67084963
 20
-40669.3393968
 10
37863.97340297
 20
-40664.43673031
 10
37861.4401503
 20
-40653.94621508
 10
37877.22480737
 20
-40649.775397
 10
37879.72022449
 20
-40660.1092305
 10
37890.17942232
 20
-40657.30379323
 10
37887.9961898
 20
-40648.26275511
  0
LWPOLYLINE
  5
2A4
100
AcDbEntity
  8
Ech.1_5
 62
   190
  6
CONTINUOUS
370
    -3
100
AcDbPolyline
 90
       26
 70
     1
 43
0.0
 10
38560.42588484
 20
-40435.41157189
 10
38566.5347996
 20
-40458.18675518
 10
38590.2674639
 20
-40451.82101834
 10
38577.66320524
 20
-40399.62521138
 10
38568.21878678
 20
-40401.9058523
 10
38570.79648631
 20
-40412.58042751
 10
38553.84396597
 20
-40416.67412706
 10
38551.26626644
 20
-40405.99955185
 10
38541.82184798
 20
-40408.28019277
 10
38544.39954751
 20
-40418.95476798
 10
38521.33319873
 20
-40424.5248366
 10
38520.91174346
 20
-40422.77953777
 10
38520.86379386
 20
-40422.79111665
 10
38511.82146115
 20
-40385.34568924
 10
38508.15474929
 20
-40370.16137817
 10
38181.76731487
 20
-40448.97751087
 42
0.41421356
 10
38165.31949196
 20
-40475.89790295
 10
38169.56238387
 20
-40493.46824745
 10
38169.6175086
 20
-40493.45493591
 10
38182.31116465
 20
-40546.02094864
 10
38202.55859326
 20
-40541.13159369
 10
38200.02534059
 20
-40530.64107846
 10
38215.80999766
 20
-40526.47026038
 10
38218.30541478
 20
-40536.80409387
 10
38228.76461261
 20
-40533.9986566
 10
38226.58138009
 20
-40524.95761849
  0
LWPOLYLINE
  5
2A5
100
AcDbEntity
  8
Ech.1_5
 62
   190
  6
CONTINUOUS
370
    -3
100
AcDbPolyline
 90
       23
 70
     1
 43
0.0
 10
38899.03363878
 20
-40312.16842837
 10
38905.14255354
 20
-40334.94361165
 10
38928.87521783
 20
-40328.57787481
 10
38916.27095918
 20
-40276.38206786
 10
38906.82654071
 20
-40278.66270878
 10
38909.40424024
 20
-40289.33728399
 10
38892.45171991
 20
-40293.43098353
 10
38889.87402038
 20
-40282.75640833
 10
38880.42960192
 20
-40285.03704925
 10
38883.00730145
 20
-40295.71162445
 10
38859.94095266
 20
-40301.28169307
 10
38846.81045282
 20
-40246.90665577
 10
38520.3750688
 20
-40325.73436734
 42
0.41421356
 10
38503.9272459
 20
-40352.65475943
 10
38508.15474929
 20
-40370.16137817
 10
38508.20269889
 20
-40370.14979929
 10
38520.91174346
 20
-40422.77953777
 10
38541.1663472
 20
-40417.88845016
 10
38538.63309453
 20
-40407.39793493
 10
38554.4177516
 20
-40403.22711686
 10
38556.91316872
 20
-40413.56095035
 10
38567.37236655
 20
-40410.75551308
 10
38565.18913403
 20
-40401.71447497
  0
LINE
  5
2A6
100
AcDbEntity
  8
Ech.1_5
 62
   190
  6
CONTINUOUS
370
    -3
100
AcDbLine
 10
37496.02076298
 20
-40755.13711291
 30
0.0
 11
37844.0923049
 21
-40671.08469562
 31
0.0
  0
LWPOLYLINE
  5
2A7
100
AcDbEntity
  8
Ech.1_5
 62
   190
  6
CONTINUOUS
370
    -3
100
AcDbPolyline
 90
       23
 70
     0
 43
0.0
 10
37891.02584255
 20
-40648.45413245
 10
37900.47026101
 20
-40646.17349153
 10
37913.07451967
 20
-40698.36929848
 10
37889.34185538
 20
-40704.73503532
 10
37883.23294061
 20
-40681.95985204
 10
37549.38843587
 20
-40771.50589864
 10
37551.57166838
 20
-40780.54693675
 10
37541.11247056
 20
-40783.35237402
 10
37538.61705344
 20
-40773.01854053
 10
37522.83239637
 20
-40777.1893586
 10
37525.36564904
 20
-40787.67987383
 10
37505.0630957
 20
-40792.58254032
 10
37496.02076298
 20
-40755.13711291
 10
37488.12654774
 20
-40722.4461831
 42
-0.41421356
 10
37504.57437064
 20
-40695.52579101
 10
37830.96180506
 20
-40616.70965832
 10
37844.0923049
 20
-40671.08469562
 10
37867.20660328
 20
-40665.50304812
 10
37864.62890375
 20
-40654.82847292
 10
37874.07332222
 20
-40652.547832
 10
37876.65102175
 20
-40663.2224072
 10
37893.60354208
 20
-40659.12870766
 10
37891.02584255
 20
-40648.45413245
  0
LINE
  5
2A8
100
AcDbEntity
  8
Ech.1_5
 62
   190
  6
CONTINUOUS
370
    -3
100
AcDbLine
 10
37834.62851692
 20
-40631.89396938
 30
0.0
 11
38182.70005883
 21
-40547.8415521
 31
0.0
  0
LWPOLYLINE
  5
2A9
100
AcDbEntity
  8
Ech.1_5
 62
   190
  6
CONTINUOUS
370
    -3
100
AcDbPolyline
 90
       23
 70
     0
 43
0.0
 10
38229.63359648
 20
-40525.21098893
 10
38239.07801495
 20
-40522.93034801
 10
38251.68227361
 20
-40575.12615496
 10
38227.94960931
 20
-40581.4918918
 10
38221.84069455
 20
-40558.71670852
 10
37887.9961898
 20
-40648.26275511
 10
37890.17942232
 20
-40657.30379323
 10
37879.72022449
 20
-40660.1092305
 10
37877.22480737
 20
-40649.775397
 10
37861.4401503
 20
-40653.94621508
 10
37863.97340297
 20
-40664.43673031
 10
37843.67084963
 20
-40669.3393968
 10
37834.62851692
 20
-40631.89396938
 10
37826.73430167
 20
-40599.20303958
 42
-0.41421356
 10
37843.18212457
 20
-40572.28264749
 10
38169.6175086
 20
-40493.45493591
 10
38182.74800843
 20
-40547.82997322
 10
38205.81435722
 20
-40542.2599046
 10
38203.23665769
 20
-40531.58532939
 10
38212.68107615
 20
-40529.30468847
 10
38215.25877568
 20
-40539.97926368
 10
38232.21129601
 20
-40535.88556413
 10
38229.63359648
 20
-40525.21098893
  0
LINE
  5
2AA
100
AcDbEntity
  8
Ech.1_5
 62
   190
  6
CONTINUOUS
370
    -3
100
AcDbLine
 10
38173.21370721
 20
-40508.58883276
 30
0.0
 11
38521.28524913
 21
-40424.53641548
 31
0.0
  0
LWPOLYLINE
  5
2AB
100
AcDbEntity
  8
Ech.1_5
 62
   190
  6
CONTINUOUS
370
    -3
100
AcDbPolyline
 90
       23
 70
     0
 43
0.0
 10
38568.21878678
 20
-40401.9058523
 10
38577.66320524
 20
-40399.62521138
 10
38590.2674639
 20
-40451.82101834
 10
38566.5347996
 20
-40458.18675518
 10
38560.42588484
 20
-40435.41157189
 10
38226.58138009
 20
-40524.95761849
 10
38228.76461261
 20
-40533.9986566
 10
38218.30541478
 20
-40536.80409387
 10
38215.80999766
 20
-40526.47026038
 10
38200.02534059
 20
-40530.64107846
 10
38202.55859326
 20
-40541.13159369
 10
38182.25603992
 20
-40546.03426018
 10
38173.21370721
 20
-40508.58883276
 10
38165.31949196
 20
-40475.89790295
 42
-0.41421356
 10
38181.76731487
 20
-40448.97751087
 10
38508.20269889
 20
-40370.14979929
 10
38521.33319873
 20
-40424.5248366
 10
38544.39954751
 20
-40418.95476798
 10
38541.82184798
 20
-40408.28019277
 10
38551.26626644
 20
-40405.99955185
 10
38553.84396597
 20
-40416.67412706
 10
38570.79648631
 20
-40412.58042751
 10
38568.21878678
 20
-40401.9058523
  0
LINE
  5
2AC
100
AcDbEntity
  8
Ech.1_5
 62
     7
100
AcDbLine
 10
38511.82146115
 20
-40385.34568924
 30
0.0
 11
38859.89300306
 21
-40301.29327195
 31
0.0
  0
LWPOLYLINE
  5
2AD
100
AcDbEntity
  8
Ech.1_5
 62
   190
  6
CONTINUOUS
370
    -3
100
AcDbPolyline
 90
       23
 70
     0
 43
0.0
 10
38906.82654071
 20
-40278.66270878
 10
38916.27095918
 20
-40276.38206786
 10
38928.87521783
 20
-40328.57787481
 10
38905.14255354
 20
-40334.94361165
 10
38899.03363878
 20
-40312.16842837
 10
38565.18913403
 20
-40401.71447497
 10
38567.37236655
 20
-40410.75551308
 10
38556.91316872
 20
-40413.56095035
 10
38554.4177516
 20
-40403.22711686
 10
38538.63309453
 20
-40407.39793493
 10
38541.1663472
 20
-40417.88845016
 10
38520.86379386
 20
-40422.79111665
 10
38511.82146115
 20
-40385.34568924
 10
38503.9272459
 20
-40352.65475943
 42
-0.41421356
 10
38520.3750688
 20
-40325.73436734
 10
38846.81045282
 20
-40246.90665577
 10
38859.94095266
 20
-40301.28169307
 10
38883.00730145
 20
-40295.71162445
 10
38880.42960192
 20
-40285.03704925
 10
38889.87402038
 20
-40282.75640833
 10
38892.45171991
 20
-40293.43098353
 10
38909.40424024
 20
-40289.33728399
 10
38906.82654071
 20
-40278.66270878
  0
LINE
  5
2AE
100
AcDbEntity
  8
Ech.1_5
 62
   190
  6
CONTINUOUS
370
    -3
100
AcDbLine
 10
38511.81428601
 20
-40385.34742189
 30
0.0
 11
38859.88582793
 21
-40301.29500461
 31
0.0
  0
LWPOLYLINE
  5
2AF
100
AcDbEntity
  8
Ech.1_5
 62
     7
100
AcDbPolyline
 90
        5
 70
     0
 43
0.0
 10
38180.50200912
 20
-40574.00148744
 10
38218.08971396
 20
-40560.32068171
 10
38227.32425782
 20
-40585.69238247
 10
38189.73655299
 20
-40599.3731882
 10
38180.50200912
 20
-40574.00148744
  0
LWPOLYLINE
  5
2B0
100
AcDbEntity
  8
Ech.1_5
 62
   190
  6
CONTINUOUS
370
    -3
100
AcDbPolyline
 90
        6
 70
     1
 43
0.0
 10
38895.3135631
 20
-40313.72168429
 10
38904.53461241
 20
-40339.05630906
 10
38866.94828414
 20
-40352.74089686
 10
38861.2217774
 20
-40337.00744891
 10
38857.72585827
 20
-40327.40249002
 10
38861.2217774
 20
-40326.13007951
  0
LWPOLYLINE
  5
2B1
100
AcDbEntity
  8
Ech.1_5
 62
   190
  6
CONTINUOUS
370
    -3
100
AcDbPolyline
 90
        4
 70
     1
 43
0.0
 10
38556.71298429
 20
-40436.96309516
 10
38519.12527946
 20
-40450.64390089
 10
38528.35982333
 20
-40476.01560165
 10
38565.9461516
 20
-40462.33101385
  0
LWPOLYLINE
  5
2B2
100
AcDbEntity
  8
Ech.1_5
 62
   190
  6
CONTINUOUS
370
    -3
100
AcDbPolyline
 90
        4
 70
     1
 43
0.0
 10
38218.08971396
 20
-40560.32068171
 10
38180.55249173
 20
-40573.98311327
 10
38189.76447011
 20
-40599.29281586
 10
38227.30031762
 20
-40585.6266073
  0
LWPOLYLINE
  5
2B3
100
AcDbEntity
  8
Ech.1_5
 62
   190
  6
CONTINUOUS
370
    -3
100
AcDbPolyline
 90
        4
 70
     1
 43
0.0
 10
37879.48196002
 20
-40683.56382523
 10
37841.89425519
 20
-40697.24463097
 10
37851.11863613
 20
-40722.58840931
 10
37888.7049644
 20
-40708.90382151
  0
LWPOLYLINE
  5
2B4
100
AcDbEntity
  8
Ech.1_5
 62
   190
  6
CONTINUOUS
370
    -3
100
AcDbPolyline
 90
        4
 70
     1
 43
0.0
 10
37595.89176548
 20
-40762.29768708
 10
37559.81522881
 20
-40771.97438144
 10
37559.83235321
 20
-40828.63947727
 10
37612.56332102
 20
-40809.44096568
  0
LWPOLYLINE
  5
2B5
100
AcDbEntity
  8
Ech.1_5
 62
   190
  6
CONTINUOUS
370
    -3
100
AcDbPolyline
 90
        4
 70
     0
 43
0.0
 10
37595.89176548
 20
-40762.29768708
 10
37559.83235323
 20
-40828.63956736
 10
37612.56081167
 20
-40809.44797799
 10
37559.81522881
 20
-40771.97438144
  0
LWPOLYLINE
  5
2B6
100
AcDbEntity
  8
Ech.1_5
 62
   190
  6
CONTINUOUS
370
    -3
100
AcDbPolyline
 90
        4
 70
     0
 43
0.0
 10
37879.48196002
 20
-40683.56382523
 10
37851.12879906
 20
-40722.61633173
 10
37888.71650389
 20
-40708.93552599
 10
37841.89425519
 20
-40697.24463097
  0
LWPOLYLINE
  5
2B7
100
AcDbEntity
  8
Ech.1_5
 62
   190
  6
CONTINUOUS
370
    -3
100
AcDbPolyline
 90
        4
 70
     0
 43
0.0
 10
38218.08971396
 20
-40560.32068171
 10
38189.73655299
 20
-40599.3731882
 10
38227.32425782
 20
-40585.69238247
 10
38180.50200912
 20
-40574.00148744
  0
LWPOLYLINE
  5
2B8
100
AcDbEntity
  8
Ech.1_5
 62
   190
  6
CONTINUOUS
370
    -3
100
AcDbPolyline
 90
        4
 70
     0
 43
0.0
 10
38556.67490425
 20
-40437.01554509
 10
38528.32174329
 20
-40476.06805158
 10
38565.90944812
 20
-40462.38724585
 10
38519.08719942
 20
-40450.69635082
  0
LWPOLYLINE
  5
2B9
100
AcDbEntity
  8
Ech.1_5
 62
   190
  6
CONTINUOUS
370
    -3
100
AcDbPolyline
 90
        4
 70
     0
 43
0.0
 10
38895.27548305
 20
-40313.77413422
 10
38866.92232209
 20
-40352.82664071
 10
38904.51002692
 20
-40339.14583498
 10
38857.68777822
 20
-40327.45493995
  0
LWPOLYLINE
  5
2BA
100
AcDbEntity
  8
Ech.1_5
 62
   190
  6
CONTINUOUS
370
    -3
100
AcDbPolyline
 90
       23
 70
     1
 43
0.0
 10
37883.23294061
 20
-40681.95985204
 10
37889.34185538
 20
-40704.73503532
 10
37913.07451967
 20
-40698.36929848
 10
37900.47026101
 20
-40646.17349153
 10
37891.02584255
 20
-40648.45413245
 10
37893.60354208
 20
-40659.12870766
 10
37876.65102175
 20
-40663.2224072
 10
37874.07332222
 20
-40652.547832
 10
37864.62890375
 20
-40654.82847292
 10
37867.20660328
 20
-40665.50304812
 10
37844.0923049
 20
-40671.08469562
 10
37834.62851692
 20
-40631.89396938
 10
37830.96180506
 20
-40616.70965832
 10
37504.57437064
 20
-40695.52579101
 42
0.41421356
 10
37488.12654774
 20
-40722.4461831
 10
37496.02076298
 20
-40755.13711291
 10
37505.0630957
 20
-40792.58254032
 10
37525.36564904
 20
-40787.67987383
 10
37522.83239637
 20
-40777.1893586
 10
37538.61705344
 20
-40773.01854053
 10
37541.11247056
 20
-40783.35237402
 10
37551.57166838
 20
-40780.54693675
 10
37549.38843587
 20
-40771.50589864
  0
LINE
  5
2BB
100
AcDbEntity
  8
Ech.1_5
 62
   190
  6
CONTINUOUS
370
    -3
100
AcDbLine
 10
37496.02076298
 20
-40755.13711291
 30
0.0
 11
37844.0923049
 21
-40671.08469562
 31
0.0
  0
LWPOLYLINE
  5
2BC
100
AcDbEntity
  8
Ech.1_5
 62
     5
  6
CONTINUOUS
370
    -3
100
AcDbPolyline
 90
        5
 70
     0
 43
0.0
 10
38697.89660956
 20
-41025.90882536
 10
38697.89660956
 20
-40965.90882536
 10
38655.89660956
 20
-40965.90882536
 10
38655.89660956
 20
-41025.90882536
 10
38697.89660956
 20
-41025.90882536
  0
LWPOLYLINE
  5
2BD
100
AcDbEntity
  8
Ech.1_5
 62
     5
  6
CONTINUOUS
370
    -3
100
AcDbPolyline
 90
        7
 70
     0
 43
0.0
 10
38005.0113253
 20
-40965.90882536
 10
38050.0113253
 20
-40965.90882536
 10
38050.0113253
 20
-40875.90882536
 10
38026.42996629
 20
-40875.90882536
 10
38005.0113253
 20
-40875.90882536
 10
38005.0113253
 20
-40965.90882536
 10
38026.03414882
 20
-40965.90882536
  0
LWPOLYLINE
  5
2BE
100
AcDbEntity
  8
Ech.1_5
 62
     5
  6
CONTINUOUS
370
    -3
100
AcDbPolyline
 90
        5
 70
     0
 43
0.0
 10
37568.2137959
 20
-40965.90882536
 10
37608.2137959
 20
-40965.90882536
 10
37608.2137959
 20
-40992.90882536
 10
37568.2137959
 20
-40992.90882536
 10
37568.2137959
 20
-40965.90882536
  0
LWPOLYLINE
  5
2BF
100
AcDbEntity
  8
Ech.1_5
 62
     5
  6
CONTINUOUS
370
    -3
100
AcDbPolyline
 90
        5
 70
     0
 43
0.0
 10
37892.69149539
 20
-40965.90882536
 10
37932.69149539
 20
-40965.90882536
 10
37932.69149539
 20
-40992.90882536
 10
37892.69149539
 20
-40992.90882536
 10
37892.69149539
 20
-40965.90882536
  0
LWPOLYLINE
  5
2C0
100
AcDbEntity
  8
Ech.1_5
 62
     5
  6
CONTINUOUS
370
    -3
100
AcDbPolyline
 90
        5
 70
     0
 43
0.0
 10
37841.89425519
 20
-40697.24463097
 10
37879.48196002
 20
-40683.56382523
 10
37888.71650389
 20
-40708.93552599
 10
37851.12879906
 20
-40722.61633173
 10
37841.89425519
 20
-40697.24463097
  0
LWPOLYLINE
  5
2C1
100
AcDbEntity
  8
Ech.1_5
 62
     5
  6
CONTINUOUS
370
    -3
100
AcDbPolyline
 90
        5
 70
     0
 43
0.0
 10
37559.81522881
 20
-40771.97438144
 10
37595.89176548
 20
-40762.29768708
 10
37612.56523189
 20
-40809.44636916
 10
37559.83235323
 20
-40828.63956736
 10
37559.81522881
 20
-40771.97438144
  0
LWPOLYLINE
  5
2C2
100
AcDbEntity
  8
Ech.1_5
 62
     5
  6
CONTINUOUS
370
    -3
100
AcDbPolyline
 90
        5
 70
     0
 43
0.0
 10
38180.54008917
 20
-40573.94903751
 10
38218.127794
 20
-40560.26823178
 10
38227.36233787
 20
-40585.63993254
 10
38189.77463304
 20
-40599.32073827
 10
38180.54008917
 20
-40573.94903751
  0
LWPOLYLINE
  5
2C3
100
AcDbEntity
  8
Ech.1_5
 62
     5
  6
CONTINUOUS
370
    -3
100
AcDbPolyline
 90
        5
 70
     0
 43
0.0
 10
38519.12527946
 20
-40450.64390089
 10
38556.71298429
 20
-40436.96309516
 10
38565.94752816
 20
-40462.33479592
 10
38528.35982333
 20
-40476.01560165
 10
38519.12527946
 20
-40450.64390089
  0
LWPOLYLINE
  5
2C4
100
AcDbEntity
  8
Ech.1_5
 62
     5
  6
CONTINUOUS
370
    -3
100
AcDbPolyline
 90
        5
 70
     0
 43
0.0
 10
38857.72585827
 20
-40327.40249002
 10
38895.3135631
 20
-40313.72168429
 10
38904.54810697
 20
-40339.09338505
 10
38866.96040214
 20
-40352.77419078
 10
38857.72585827
 20
-40327.40249002
  0
LWPOLYLINE
  5
2C5
100
AcDbEntity
  8
Ech.1_5
 62
     1
  6
CADWORK_22
 48
-5.0
370
    35
100
AcDbPolyline
 90
        3
 70
     0
 43
0.0
 10
38192.24208385
 20
-41001.5075023
 10
38192.24208385
 20
-40967.90882536
 10
39212.93812994
 20
-40967.90882536
  0
LWPOLYLINE
  5
2C6
100
AcDbEntity
  8
Ech.1_5
 62
     9
  6
CADWORK_22
370
    35
100
AcDbPolyline
 90
        4
 70
     0
 43
0.0
 38
2500.0
 10
37566.59084983
 20
-40850.68566386
 10
37617.63630957
 20
-40831.83069822
 10
37624.56461741
 20
-40832.2154832
 10
39212.93812994
 20
-40254.09480374
  0
LINE
  5
2C7
100
AcDbEntity
  8
Ech.1_5
 48
0.2
100
AcDbLine
 10
38232.97157239
 20
-41103.97719682
 30
0.0
 11
38232.97157239
 21
-40973.41717423
 31
0.0
  0
LINE
  5
2C8
100
AcDbEntity
  8
Ech.1_5
  6
DASHEDX2
 48
0.2
100
AcDbLine
 10
38232.97157239
 20
-41103.97719682
 30
0.0
 11
38232.97157239
 21
-41127.90866286
 31
0.0
  0
LWPOLYLINE
  5
2C9
100
AcDbEntity
  8
Ech.1_5
 62
   190
  6
CONTINUOUS
370
    -3
100
AcDbPolyline
 90
      175
 70
     0
 43
0.0
 10
37696.78739233
 20
-41150.0047662
 10
37699.56031661
 20
-41145.52249494
 10
37702.28732968
 20
-41141.03445008
 10
37704.92252033
 20
-41136.534858
 10
37707.41997736
 20
-41132.01794511
 10
37709.73378955
 20
-41127.47793781
 10
37711.8180457
 20
-41122.90906248
 10
37713.62683459
 20
-41118.30554552
 10
37715.11424503
 20
-41113.66161333
 10
37716.2343658
 20
-41108.97149231
 10
37716.94128568
 20
-41104.22940884
 10
37717.20427737
 20
-41099.43175322
 10
37717.0601733
 20
-41094.58454377
 10
37716.56458934
 20
-41089.69647571
 10
37715.77314213
 20
-41084.77624435
 10
37714.7414483
 20
-41079.83254499
 10
37713.52512449
 20
-41074.87407296
 10
37712.17978733
 20
-41069.90952356
 10
37710.76105345
 20
-41064.94759211
 10
37709.32453948
 20
-41059.99697391
 10
37707.92586206
 20
-41055.06636429
 10
37706.61369862
 20
-41050.16148934
 10
37705.40552254
 20
-41045.27472329
 10
37704.31003999
 20
-41040.39468898
 10
37703.33595666
 20
-41035.51000903
 10
37702.49197825
 20
-41030.60930608
 10
37701.78681044
 20
-41025.68120274
 10
37701.22912333
 20
-41020.71446063
 10
37700.82545781
 20
-41015.70614976
 10
37700.57905884
 20
-41010.66620143
 10
37700.49288839
 20
-41005.6056513
 10
37700.56990839
 20
-41000.53553502
 10
37700.81308081
 20
-40995.46688827
 10
37701.22536759
 20
-40990.4107467
 10
37701.80973069
 20
-40985.37814598
 10
37702.56913206
 20
-40980.38012177
 10
37703.50653365
 20
-40975.42770973
 10
37704.62489741
 20
-40970.53194553
 10
37705.92718529
 20
-40965.70386482
 10
37707.41635926
 20
-40960.95450327
 10
37709.09471385
 20
-40956.29402821
 10
37710.95803773
 20
-40951.72414234
 10
37712.99844942
 20
-40947.24177323
 10
37715.20802609
 20
-40942.8437947
 10
37717.57884493
 20
-40938.52708055
 10
37720.10298313
 20
-40934.28850459
 10
37722.77251786
 20
-40930.12494062
 10
37725.57952631
 20
-40926.03326245
 10
37728.51608568
 20
-40922.01034389
 10
37731.57427313
 20
-40918.05305875
 10
37734.74616585
 20
-40914.15828083
 10
37738.02384104
 20
-40910.32288394
 10
37741.39937587
 20
-40906.5437419
 10
37744.86484753
 20
-40902.8177285
 10
37748.4123332
 20
-40899.14171755
 10
37752.03391006
 20
-40895.51258287
 10
37755.72165531
 20
-40891.92719825
 10
37759.46764612
 20
-40888.38243751
 10
37763.26395969
 20
-40884.87517446
 10
37767.10267318
 20
-40881.4022829
 10
37770.9758638
 20
-40877.96063663
 10
37774.87560872
 20
-40874.54710948
 10
37778.79398512
 20
-40871.15857524
 10
37782.7230702
 20
-40867.79190771
 10
37786.65494113
 20
-40864.44398072
 10
37790.5820901
 20
-40861.11185554
 10
37794.5022717
 20
-40857.79497061
 10
37798.4168558
 20
-40854.49439754
 10
37802.32728325
 20
-40851.21123997
 10
37806.23499492
 20
-40847.94660157
 10
37810.14143165
 20
-40844.70158599
 10
37814.0480343
 20
-40841.47729688
 10
37817.95624373
 20
-40838.27483789
 10
37821.86750079
 20
-40835.09531269
 10
37825.78324633
 20
-40831.93982492
 10
37829.70492121
 20
-40828.80947825
 10
37833.63396629
 20
-40825.70537632
 10
37837.57182241
 20
-40822.62862279
 10
37841.51993043
 20
-40819.58032131
 10
37845.47973121
 20
-40816.56157554
 10
37849.4526656
 20
-40813.57348914
 10
37853.44017446
 20
-40810.61716575
 10
37857.44369864
 20
-40807.69370904
 10
37861.46467899
 20
-40804.80422265
 10
37865.50455636
 20
-40801.94981025
 10
37869.56477163
 20
-40799.13157548
 10
37873.64676563
 20
-40796.350622
 10
37877.75197922
 20
-40793.60805347
 10
37881.88185325
 20
-40790.90497353
 10
37886.03782859
 20
-40788.24248585
 10
37890.22134609
 20
-40785.62169408
 10
37894.43384659
 20
-40783.04370188
 10
37898.67648815
 20
-40780.50930909
 10
37902.94871625
 20
-40778.01747582
 10
37907.24933507
 20
-40775.56647329
 10
37911.57714766
 20
-40773.15457148
 10
37915.93095709
 20
-40770.7800404
 10
37920.30956641
 20
-40768.44115003
 10
37924.71177868
 20
-40766.13617037
 10
37929.13639695
 20
-40763.86337141
 10
37933.58222428
 20
-40761.62102315
 10
37938.04806374
 20
-40759.40739558
 10
37942.53271838
 20
-40757.2207587
 10
37947.03499125
 20
-40755.0593825
 10
37951.55368542
 20
-40752.92153698
 10
37956.08760394
 20
-40750.80549212
 10
37960.63554987
 20
-40748.70951793
 10
37965.19632626
 20
-40746.6318844
 10
37969.76873618
 20
-40744.57086153
 10
37974.35158269
 20
-40742.5247193
 10
37978.94366883
 20
-40740.49172771
 10
37983.54379767
 20
-40738.47015676
 10
37988.15077226
 20
-40736.45827644
 10
37992.76339567
 20
-40734.45435675
 10
37997.38047095
 20
-40732.45666767
 10
38002.00080115
 20
-40730.46347921
 10
38006.62318934
 20
-40728.47306136
 10
38011.24643857
 20
-40726.48368412
 10
38015.86935191
 20
-40724.49361746
 10
38020.4907324
 20
-40722.50113141
 10
38025.1093831
 20
-40720.50449593
 10
38029.72410708
 20
-40718.50198104
 10
38034.33370739
 20
-40716.49185673
 10
38038.93698709
 20
-40714.47239298
 10
38043.53274923
 20
-40712.4418598
 10
38048.11979735
 20
-40710.39852802
 10
38052.69756581
 20
-40708.34180724
 10
38057.26736509
 20
-40706.27449365
 10
38061.83085285
 20
-40704.20001014
 10
38066.38968674
 20
-40702.12177961
 10
38070.94552444
 20
-40700.04322498
 10
38075.5000236
 20
-40697.96776915
 10
38080.05484188
 20
-40695.89883501
 10
38084.61163695
 20
-40693.83984546
 10
38089.17206647
 20
-40691.79422342
 10
38093.73778809
 20
-40689.76539178
 10
38098.31045948
 20
-40687.75677345
 10
38102.8917383
 20
-40685.77179132
 10
38107.48328221
 20
-40683.81386831
 10
38112.08674888
 20
-40681.88642731
 10
38116.70379595
 20
-40679.99289122
 10
38121.33608111
 20
-40678.13668295
 10
38125.98526002
 20
-40676.32122132
 10
38130.6522637
 20
-40674.54842286
 10
38135.33622053
 20
-40672.81646747
 10
38140.0359834
 20
-40671.12296385
 10
38144.75040516
 20
-40669.4655207
 10
38149.4783387
 20
-40667.84174674
 10
38154.21863687
 20
-40666.24925065
 10
38158.97015254
 20
-40664.68564115
 10
38163.73173859
 20
-40663.14852694
 10
38168.50224788
 20
-40661.63551673
 10
38173.28053328
 20
-40660.14421921
 10
38178.06544766
 20
-40658.67224309
 10
38182.85584388
 20
-40657.21719708
 10
38187.65057482
 20
-40655.77668988
 10
38192.44849335
 20
-40654.34833019
 10
38197.24849682
 20
-40652.92980619
 10
38202.05006943
 20
-40651.5198541
 10
38206.85310981
 20
-40650.11795035
 10
38211.65752531
 20
-40648.72358695
 10
38216.46322331
 20
-40647.33625588
 10
38221.27011114
 20
-40645.95544914
 10
38226.07809618
 20
-40644.58065874
 10
38230.88708576
 20
-40643.21137666
 10
38235.69698725
 20
-40641.84709491
 10
38240.50770801
 20
-40640.48730549
 10
38245.31915539
 20
-40639.13150038
 10
38250.13123674
 20
-40637.77917159
 10
38254.94385942
 20
-40636.42981112
 10
38259.75693079
 20
-40635.08291096
 10
38264.5703582
 20
-40633.73796311
 10
38269.38404901
 20
-40632.39445956
 10
38274.19791057
 20
-40631.05189232
 10
38278.25657568
 20
-40629.92031782
  0
LINE
  5
2CA
100
AcDbEntity
  8
Ech.1_5
 62
   190
  6
CONTINUOUS
370
    -3
100
AcDbLine
 10
38278.25657568
 20
-40629.92031782
 30
0.0
 11
38261.05082202
 21
-40642.51495376
 31
0.0
  0
LINE
  5
2CB
100
AcDbEntity
  8
Ech.1_5
 62
   190
  6
CONTINUOUS
370
    -3
100
AcDbLine
 10
38278.25657568
 20
-40629.92031782
 30
0.0
 11
38256.40241654
 21
-40629.23377267
 31
0.0
  0
LWPOLYLINE
  5
2CC
100
AcDbEntity
  8
Ech.1_5
 62
   190
  6
CONTINUOUS
370
    -3
100
AcDbPolyline
 90
        5
 70
     0
 43
0.0
 10
38059.21321873
 20
-40865.90882188
 10
39212.93812994
 20
-40865.90882188
 10
39212.93812994
 20
-40965.90882188
 10
38059.21321873
 20
-40965.90882188
 10
38059.21321873
 20
-40865.90882188
  0
LWPOLYLINE
  5
2CD
100
AcDbEntity
  8
Ech.1_5
 62
   190
  6
CONTINUOUS
370
    -3
100
AcDbPolyline
 90
      138
 70
     0
 43
0.0
 10
38059.21321873
 20
-40849.24215521
 42
1.14028181
 10
38091.97864657
 20
-40844.92849474
 10
38076.4477909
 20
-40786.88914901
 42
-1.30322619
 10
38108.64531323
 20
-40786.88914901
 10
38093.11445756
 20
-40844.92849474
 42
1.30322619
 10
38125.3119799
 20
-40844.92849474
 10
38109.78112423
 20
-40786.88914901
 42
-1.30322619
 10
38141.97864657
 20
-40786.88914901
 10
38126.4477909
 20
-40844.92849474
 42
1.30322619
 10
38158.64531323
 20
-40844.92849474
 10
38143.11445756
 20
-40786.88914901
 42
-1.30322619
 10
38175.3119799
 20
-40786.88914901
 10
38159.78112423
 20
-40844.92849474
 42
1.30322619
 10
38191.97864657
 20
-40844.92849474
 10
38176.4477909
 20
-40786.88914901
 42
-1.30322619
 10
38208.64531323
 20
-40786.88914901
 10
38193.11445756
 20
-40844.92849474
 42
1.30322619
 10
38225.3119799
 20
-40844.92849474
 10
38209.78112423
 20
-40786.88914901
 42
-1.30322619
 10
38241.97864657
 20
-40786.88914901
 10
38226.4477909
 20
-40844.92849474
 42
1.30322619
 10
38258.64531323
 20
-40844.92849474
 10
38243.11445756
 20
-40786.88914901
 42
-1.30322619
 10
38275.3119799
 20
-40786.88914901
 10
38259.78112423
 20
-40844.92849474
 42
1.30322619
 10
38291.97864657
 20
-40844.92849474
 10
38276.4477909
 20
-40786.88914901
 42
-1.30322619
 10
38308.64531323
 20
-40786.88914901
 10
38293.11445756
 20
-40844.92849474
 42
1.30322619
 10
38325.3119799
 20
-40844.92849474
 10
38309.78112423
 20
-40786.88914901
 42
-1.30322619
 10
38341.97864657
 20
-40786.88914901
 10
38326.4477909
 20
-40844.92849474
 42
1.30322619
 10
38358.64531323
 20
-40844.92849474
 10
38343.11445756
 20
-40786.88914901
 42
-1.30322619
 10
38375.3119799
 20
-40786.88914901
 10
38359.78112423
 20
-40844.92849474
 42
1.30322619
 10
38391.97864657
 20
-40844.92849474
 10
38376.4477909
 20
-40786.88914901
 42
-1.30322619
 10
38408.64531323
 20
-40786.88914901
 10
38393.11445756
 20
-40844.92849474
 42
1.30322619
 10
38425.3119799
 20
-40844.92849474
 10
38409.78112423
 20
-40786.88914901
 42
-1.30322619
 10
38441.97864657
 20
-40786.88914901
 10
38426.4477909
 20
-40844.92849474
 42
1.30322619
 10
38458.64531323
 20
-40844.92849474
 10
38443.11445756
 20
-40786.88914901
 42
-1.30322619
 10
38475.3119799
 20
-40786.88914901
 10
38459.78112423
 20
-40844.92849474
 42
1.30322619
 10
38491.97864657
 20
-40844.92849474
 10
38476.4477909
 20
-40786.88914901
 42
-1.30322619
 10
38508.64531323
 20
-40786.88914901
 10
38493.11445756
 20
-40844.92849474
 42
1.30322619
 10
38525.3119799
 20
-40844.92849474
 10
38509.78112423
 20
-40786.88914901
 42
-1.30322619
 10
38541.97864657
 20
-40786.88914901
 10
38526.4477909
 20
-40844.92849474
 42
1.30322619
 10
38558.64531323
 20
-40844.92849474
 10
38543.11445756
 20
-40786.88914901
 42
-1.30322619
 10
38575.3119799
 20
-40786.88914901
 10
38559.78112423
 20
-40844.92849474
 42
1.30322619
 10
38591.97864657
 20
-40844.92849474
 10
38576.4477909
 20
-40786.88914901
 42
-1.30322619
 10
38608.64531323
 20
-40786.88914901
 10
38593.11445756
 20
-40844.92849474
 42
1.30322619
 10
38625.3119799
 20
-40844.92849474
 10
38609.78112423
 20
-40786.88914901
 42
-1.30322619
 10
38641.97864657
 20
-40786.88914901
 10
38626.4477909
 20
-40844.92849474
 42
1.30322619
 10
38658.64531323
 20
-40844.92849474
 10
38643.11445756
 20
-40786.88914901
 42
-1.30322619
 10
38675.3119799
 20
-40786.88914901
 10
38659.78112423
 20
-40844.92849474
 42
1.30322619
 10
38691.97864657
 20
-40844.92849474
 10
38676.4477909
 20
-40786.88914901
 42
-1.30322619
 10
38708.64531323
 20
-40786.88914901
 10
38693.11445756
 20
-40844.92849474
 42
1.30322619
 10
38725.3119799
 20
-40844.92849474
 10
38709.78112423
 20
-40786.88914901
 42
-1.30322619
 10
38741.97864657
 20
-40786.88914901
 10
38726.4477909
 20
-40844.92849474
 42
1.30322619
 10
38758.64531323
 20
-40844.92849474
 10
38743.11445756
 20
-40786.88914901
 42
-1.30322619
 10
38775.3119799
 20
-40786.88914901
 10
38759.78112423
 20
-40844.92849474
 42
1.30322619
 10
38791.97864657
 20
-40844.92849474
 10
38776.4477909
 20
-40786.88914901
 42
-1.30322619
 10
38808.64531323
 20
-40786.88914901
 10
38793.11445756
 20
-40844.92849474
 42
1.30322619
 10
38825.3119799
 20
-40844.92849474
 10
38809.78112423
 20
-40786.88914901
 42
-1.30322619
 10
38841.97864657
 20
-40786.88914901
 10
38826.4477909
 20
-40844.92849474
 42
1.30322619
 10
38858.64531323
 20
-40844.92849474
 10
38843.11445756
 20
-40786.88914901
 42
-1.30322619
 10
38875.3119799
 20
-40786.88914901
 10
38859.78112423
 20
-40844.92849474
 42
1.30322619
 10
38891.97864657
 20
-40844.92849474
 10
38876.4477909
 20
-40786.88914901
 42
-1.30322619
 10
38908.64531323
 20
-40786.88914901
 10
38893.11445756
 20
-40844.92849474
 42
1.30322619
 10
38925.3119799
 20
-40844.92849474
 10
38909.78112423
 20
-40786.88914901
 42
-1.30322619
 10
38941.97864657
 20
-40786.88914901
 10
38926.4477909
 20
-40844.92849474
 42
1.30322619
 10
38958.64531323
 20
-40844.92849474
 10
38943.11445756
 20
-40786.88914901
 42
-1.30322619
 10
38975.3119799
 20
-40786.88914901
 10
38959.78112423
 20
-40844.92849474
 42
1.30322619
 10
38991.97864657
 20
-40844.92849474
 10
38976.4477909
 20
-40786.88914901
 42
-1.30322619
 10
39008.64531323
 20
-40786.88914901
 10
38993.11445756
 20
-40844.92849474
 42
1.30322619
 10
39025.3119799
 20
-40844.92849474
 10
39009.78112423
 20
-40786.88914901
 42
-1.30322619
 10
39041.97864657
 20
-40786.88914901
 10
39026.4477909
 20
-40844.92849474
 42
1.30322619
 10
39058.64531323
 20
-40844.92849474
 10
39043.11445756
 20
-40786.88914901
 42
-1.30322619
 10
39075.3119799
 20
-40786.88914901
 10
39059.78112423
 20
-40844.92849474
 42
1.30322619
 10
39091.97864657
 20
-40844.92849474
 10
39076.4477909
 20
-40786.88914901
 42
-1.30322619
 10
39108.64531323
 20
-40786.88914901
 10
39093.11445756
 20
-40844.92849474
 42
1.30322619
 10
39125.3119799
 20
-40844.92849474
 10
39109.78112423
 20
-40786.88914901
 42
-1.30322619
 10
39141.97864657
 20
-40786.88914901
 10
39126.4477909
 20
-40844.92849474
 42
1.30322619
 10
39158.64531323
 20
-40844.92849474
 10
39143.11445756
 20
-40786.88914901
 42
-1.30322619
 10
39175.3119799
 20
-40786.88914901
 10
39159.78112423
 20
-40844.92849474
 42
1.30322619
 10
39191.97864657
 20
-40844.92849474
 10
39176.4477909
 20
-40786.88914901
 42
-1.30322619
 10
39208.64531323
 20
-40786.88914901
 10
39193.11445756
 20
-40844.92849474
 42
0.56527988
 10
39212.93812994
 20
-40865.48724106
  0
LWPOLYLINE
  5
2CE
100
AcDbEntity
  8
Ech.1_5
 62
   190
  6
CONTINUOUS
370
    -3
100
AcDbPolyline
 90
      122
 70
     0
 43
0.0
 10
38187.72703825
 20
-41111.24199619
 42
1.14028181
 10
38220.49246677
 20
-41106.92834094
 10
38204.96162032
 20
-41048.88899273
 42
-1.30322619
 10
38237.15914266
 20
-41048.88899785
 10
38221.62827777
 20
-41106.92834112
 42
1.30322619
 10
38253.82580011
 20
-41106.92834623
 10
38238.29495366
 20
-41048.88899803
 42
-1.30322619
 10
38270.492476
 20
-41048.88900314
 10
38254.9616111
 20
-41106.92834641
 42
1.30322619
 10
38287.15913344
 20
-41106.92835153
 10
38271.62828699
 20
-41048.88900332
 42
-1.30322619
 10
38303.82580933
 20
-41048.88900844
 10
38288.29494443
 20
-41106.92835171
 42
1.30322619
 10
38320.49246677
 20
-41106.92835683
 10
38304.96162032
 20
-41048.88900862
 42
-1.30322619
 10
38337.15914266
 20
-41048.88901374
 10
38321.62827777
 20
-41106.92835701
 42
1.30322619
 10
38353.82580011
 20
-41106.92836212
 10
38338.29495366
 20
-41048.88901392
 42
-1.30322619
 10
38370.492476
 20
-41048.88901903
 10
38354.9616111
 20
-41106.9283623
 42
1.30322619
 10
38387.15913344
 20
-41106.92836742
 10
38371.62828699
 20
-41048.88901922
 42
-1.30322619
 10
38403.82580933
 20
-41048.88902433
 10
38388.29494443
 20
-41106.9283676
 42
1.30322619
 10
38420.49246677
 20
-41106.92837272
 10
38404.96162032
 20
-41048.88902451
 42
-1.30322619
 10
38437.15914266
 20
-41048.88902963
 10
38421.62827777
 20
-41106.9283729
 42
1.30322619
 10
38453.82580011
 20
-41106.92837801
 10
38438.29495366
 20
-41048.88902981
 42
-1.30322619
 10
38470.492476
 20
-41048.88903493
 10
38454.9616111
 20
-41106.9283782
 42
1.30322619
 10
38487.15913344
 20
-41106.92838331
 10
38471.62828699
 20
-41048.88903511
 42
-1.30322619
 10
38503.82580933
 20
-41048.88904022
 10
38488.29494443
 20
-41106.92838349
 42
1.30322619
 10
38520.49246677
 20
-41106.92838861
 10
38504.96162032
 20
-41048.8890404
 42
-1.30322619
 10
38537.15914266
 20
-41048.88904552
 10
38521.62827777
 20
-41106.92838879
 42
1.30322619
 10
38553.82580011
 20
-41106.92839391
 10
38538.29495366
 20
-41048.8890457
 42
-1.30322619
 10
38570.492476
 20
-41048.88905082
 10
38554.9616111
 20
-41106.92839409
 42
1.30322619
 10
38587.15913344
 20
-41106.9283992
 10
38571.62828699
 20
-41048.889051
 42
-1.30322619
 10
38603.82580933
 20
-41048.88905611
 10
38588.29494443
 20
-41106.92839938
 42
1.30322619
 10
38620.49246677
 20
-41106.9284045
 10
38604.96162032
 20
-41048.88905629
 42
-1.30322619
 10
38637.15914266
 20
-41048.88906141
 10
38621.62827777
 20
-41106.92840468
 42
1.30322619
 10
38653.82580011
 20
-41106.9284098
 10
38638.29495366
 20
-41048.88906159
 42
-1.30322619
 10
38670.492476
 20
-41048.88906671
 10
38654.9616111
 20
-41106.92840998
 42
1.30322619
 10
38687.15913344
 20
-41106.92841509
 10
38671.62828699
 20
-41048.88906689
 42
-1.30322619
 10
38703.82580933
 20
-41048.889072
 10
38688.29494443
 20
-41106.92841527
 42
1.30322619
 10
38720.49246677
 20
-41106.92842039
 10
38704.96162032
 20
-41048.88907219
 42
-1.30322619
 10
38737.15914266
 20
-41048.8890773
 10
38721.62827777
 20
-41106.92842057
 42
1.30322619
 10
38753.82580011
 20
-41106.92842569
 10
38738.29495366
 20
-41048.88907748
 42
-1.30322619
 10
38770.492476
 20
-41048.8890826
 10
38754.9616111
 20
-41106.92842587
 42
1.30322619
 10
38787.15913344
 20
-41106.92843098
 10
38771.62828699
 20
-41048.88908278
 42
-1.30322619
 10
38803.82580933
 20
-41048.8890879
 10
38788.29494443
 20
-41106.92843117
 42
1.30322619
 10
38820.49246677
 20
-41106.92843628
 10
38804.96162032
 20
-41048.88908808
 42
-1.30322619
 10
38837.15914266
 20
-41048.88909319
 10
38821.62827777
 20
-41106.92843646
 42
1.30322619
 10
38853.82580011
 20
-41106.92844158
 10
38838.29495366
 20
-41048.88909337
 42
-1.30322619
 10
38870.492476
 20
-41048.88909849
 10
38854.9616111
 20
-41106.92844176
 42
1.30322619
 10
38887.15913344
 20
-41106.92844688
 10
38871.62828699
 20
-41048.88909867
 42
-1.30322619
 10
38903.82580933
 20
-41048.88910379
 10
38888.29494443
 20
-41106.92844706
 42
1.30322619
 10
38920.49246677
 20
-41106.92845217
 10
38904.96162032
 20
-41048.88910397
 42
-1.30322619
 10
38937.15914266
 20
-41048.88910908
 10
38921.62827777
 20
-41106.92845235
 42
1.30322619
 10
38953.82580011
 20
-41106.92845747
 10
38938.29495366
 20
-41048.88910926
 42
-1.30322619
 10
38970.492476
 20
-41048.88911438
 10
38954.9616111
 20
-41106.92845765
 42
1.30322619
 10
38987.15913344
 20
-41106.92846277
 10
38971.62828699
 20
-41048.88911456
 42
-1.30322619
 10
39003.82580933
 20
-41048.88911968
 10
38988.29494443
 20
-41106.92846295
 42
1.30322619
 10
39020.49246677
 20
-41106.92846806
 10
39004.96162032
 20
-41048.88911986
 42
-1.30322619
 10
39037.15914266
 20
-41048.88912497
 10
39021.62827777
 20
-41106.92846824
 42
1.30322619
 10
39053.82580011
 20
-41106.92847336
 10
39038.29495366
 20
-41048.88912516
 42
-1.30322619
 10
39070.492476
 20
-41048.88913027
 10
39054.9616111
 20
-41106.92847354
 42
1.30322619
 10
39087.15913344
 20
-41106.92847866
 10
39071.62828699
 20
-41048.88913045
 42
-1.30322619
 10
39103.82580933
 20
-41048.88913557
 10
39088.29494443
 20
-41106.92847884
 42
1.30322619
 10
39120.49246677
 20
-41106.92848395
 10
39104.96162032
 20
-41048.88913575
 42
-1.30322619
 10
39137.15914266
 20
-41048.88914087
 10
39121.62827777
 20
-41106.92848414
 42
1.30322619
 10
39153.82580011
 20
-41106.92848925
 10
39138.29495366
 20
-41048.88914105
 42
-1.30322619
 10
39170.492476
 20
-41048.88914616
 10
39154.9616111
 20
-41106.92848943
 42
1.30322619
 10
39187.15913344
 20
-41106.92849455
 10
39171.62828699
 20
-41048.88914634
 42
-1.30322619
 10
39203.82580933
 20
-41048.88915146
 10
39188.29494443
 20
-41106.92849473
 42
0.61195998
 10
39210.32841578
 20
-41126.81639882
  0
LWPOLYLINE
  5
2CF
100
AcDbEntity
  8
Ech.1_5
 62
   190
  6
CONTINUOUS
370
    -3
100
AcDbPolyline
 90
      138
 70
     0
 43
0.0
 10
38059.21321873
 20
-40949.24215521
 42
1.14028181
 10
38091.97864657
 20
-40944.92849474
 10
38076.4477909
 20
-40886.88914901
 42
-1.30322619
 10
38108.64531323
 20
-40886.88914901
 10
38093.11445756
 20
-40944.92849474
 42
1.30322619
 10
38125.3119799
 20
-40944.92849474
 10
38109.78112423
 20
-40886.88914901
 42
-1.30322619
 10
38141.97864657
 20
-40886.88914901
 10
38126.4477909
 20
-40944.92849474
 42
1.30322619
 10
38158.64531323
 20
-40944.92849474
 10
38143.11445756
 20
-40886.88914901
 42
-1.30322619
 10
38175.3119799
 20
-40886.88914901
 10
38159.78112423
 20
-40944.92849474
 42
1.30322619
 10
38191.97864657
 20
-40944.92849474
 10
38176.4477909
 20
-40886.88914901
 42
-1.30322619
 10
38208.64531323
 20
-40886.88914901
 10
38193.11445756
 20
-40944.92849474
 42
1.30322619
 10
38225.3119799
 20
-40944.92849474
 10
38209.78112423
 20
-40886.88914901
 42
-1.30322619
 10
38241.97864657
 20
-40886.88914901
 10
38226.4477909
 20
-40944.92849474
 42
1.30322619
 10
38258.64531323
 20
-40944.92849474
 10
38243.11445756
 20
-40886.88914901
 42
-1.30322619
 10
38275.3119799
 20
-40886.88914901
 10
38259.78112423
 20
-40944.92849474
 42
1.30322619
 10
38291.97864657
 20
-40944.92849474
 10
38276.4477909
 20
-40886.88914901
 42
-1.30322619
 10
38308.64531323
 20
-40886.88914901
 10
38293.11445756
 20
-40944.92849474
 42
1.30322619
 10
38325.3119799
 20
-40944.92849474
 10
38309.78112423
 20
-40886.88914901
 42
-1.30322619
 10
38341.97864657
 20
-40886.88914901
 10
38326.4477909
 20
-40944.92849474
 42
1.30322619
 10
38358.64531323
 20
-40944.92849474
 10
38343.11445756
 20
-40886.88914901
 42
-1.30322619
 10
38375.3119799
 20
-40886.88914901
 10
38359.78112423
 20
-40944.92849474
 42
1.30322619
 10
38391.97864657
 20
-40944.92849474
 10
38376.4477909
 20
-40886.88914901
 42
-1.30322619
 10
38408.64531323
 20
-40886.88914901
 10
38393.11445756
 20
-40944.92849474
 42
1.30322619
 10
38425.3119799
 20
-40944.92849474
 10
38409.78112423
 20
-40886.88914901
 42
-1.30322619
 10
38441.97864657
 20
-40886.88914901
 10
38426.4477909
 20
-40944.92849474
 42
1.30322619
 10
38458.64531323
 20
-40944.92849474
 10
38443.11445756
 20
-40886.88914901
 42
-1.30322619
 10
38475.3119799
 20
-40886.88914901
 10
38459.78112423
 20
-40944.92849474
 42
1.30322619
 10
38491.97864657
 20
-40944.92849474
 10
38476.4477909
 20
-40886.88914901
 42
-1.30322619
 10
38508.64531323
 20
-40886.88914901
 10
38493.11445756
 20
-40944.92849474
 42
1.30322619
 10
38525.3119799
 20
-40944.92849474
 10
38509.78112423
 20
-40886.88914901
 42
-1.30322619
 10
38541.97864657
 20
-40886.88914901
 10
38526.4477909
 20
-40944.92849474
 42
1.30322619
 10
38558.64531323
 20
-40944.92849474
 10
38543.11445756
 20
-40886.88914901
 42
-1.30322619
 10
38575.3119799
 20
-40886.88914901
 10
38559.78112423
 20
-40944.92849474
 42
1.30322619
 10
38591.97864657
 20
-40944.92849474
 10
38576.4477909
 20
-40886.88914901
 42
-1.30322619
 10
38608.64531323
 20
-40886.88914901
 10
38593.11445756
 20
-40944.92849474
 42
1.30322619
 10
38625.3119799
 20
-40944.92849474
 10
38609.78112423
 20
-40886.88914901
 42
-1.30322619
 10
38641.97864657
 20
-40886.88914901
 10
38626.4477909
 20
-40944.92849474
 42
1.30322619
 10
38658.64531323
 20
-40944.92849474
 10
38643.11445756
 20
-40886.88914901
 42
-1.30322619
 10
38675.3119799
 20
-40886.88914901
 10
38659.78112423
 20
-40944.92849474
 42
1.30322619
 10
38691.97864657
 20
-40944.92849474
 10
38676.4477909
 20
-40886.88914901
 42
-1.30322619
 10
38708.64531323
 20
-40886.88914901
 10
38693.11445756
 20
-40944.92849474
 42
1.30322619
 10
38725.3119799
 20
-40944.92849474
 10
38709.78112423
 20
-40886.88914901
 42
-1.30322619
 10
38741.97864657
 20
-40886.88914901
 10
38726.4477909
 20
-40944.92849474
 42
1.30322619
 10
38758.64531323
 20
-40944.92849474
 10
38743.11445756
 20
-40886.88914901
 42
-1.30322619
 10
38775.3119799
 20
-40886.88914901
 10
38759.78112423
 20
-40944.92849474
 42
1.30322619
 10
38791.97864657
 20
-40944.92849474
 10
38776.4477909
 20
-40886.88914901
 42
-1.30322619
 10
38808.64531323
 20
-40886.88914901
 10
38793.11445756
 20
-40944.92849474
 42
1.30322619
 10
38825.3119799
 20
-40944.92849474
 10
38809.78112423
 20
-40886.88914901
 42
-1.30322619
 10
38841.97864657
 20
-40886.88914901
 10
38826.4477909
 20
-40944.92849474
 42
1.30322619
 10
38858.64531323
 20
-40944.92849474
 10
38843.11445756
 20
-40886.88914901
 42
-1.30322619
 10
38875.3119799
 20
-40886.88914901
 10
38859.78112423
 20
-40944.92849474
 42
1.30322619
 10
38891.97864657
 20
-40944.92849474
 10
38876.4477909
 20
-40886.88914901
 42
-1.30322619
 10
38908.64531323
 20
-40886.88914901
 10
38893.11445756
 20
-40944.92849474
 42
1.30322619
 10
38925.3119799
 20
-40944.92849474
 10
38909.78112423
 20
-40886.88914901
 42
-1.30322619
 10
38941.97864657
 20
-40886.88914901
 10
38926.4477909
 20
-40944.92849474
 42
1.30322619
 10
38958.64531323
 20
-40944.92849474
 10
38943.11445756
 20
-40886.88914901
 42
-1.30322619
 10
38975.3119799
 20
-40886.88914901
 10
38959.78112423
 20
-40944.92849474
 42
1.30322619
 10
38991.97864657
 20
-40944.92849474
 10
38976.4477909
 20
-40886.88914901
 42
-1.30322619
 10
39008.64531323
 20
-40886.88914901
 10
38993.11445756
 20
-40944.92849474
 42
1.30322619
 10
39025.3119799
 20
-40944.92849474
 10
39009.78112423
 20
-40886.88914901
 42
-1.30322619
 10
39041.97864657
 20
-40886.88914901
 10
39026.4477909
 20
-40944.92849474
 42
1.30322619
 10
39058.64531323
 20
-40944.92849474
 10
39043.11445756
 20
-40886.88914901
 42
-1.30322619
 10
39075.3119799
 20
-40886.88914901
 10
39059.78112423
 20
-40944.92849474
 42
1.30322619
 10
39091.97864657
 20
-40944.92849474
 10
39076.4477909
 20
-40886.88914901
 42
-1.30322619
 10
39108.64531323
 20
-40886.88914901
 10
39093.11445756
 20
-40944.92849474
 42
1.30322619
 10
39125.3119799
 20
-40944.92849474
 10
39109.78112423
 20
-40886.88914901
 42
-1.30322619
 10
39141.97864657
 20
-40886.88914901
 10
39126.4477909
 20
-40944.92849474
 42
1.30322619
 10
39158.64531323
 20
-40944.92849474
 10
39143.11445756
 20
-40886.88914901
 42
-1.30322619
 10
39175.3119799
 20
-40886.88914901
 10
39159.78112423
 20
-40944.92849474
 42
1.30322619
 10
39191.97864657
 20
-40944.92849474
 10
39176.4477909
 20
-40886.88914901
 42
-1.30322619
 10
39208.64531323
 20
-40886.88914901
 10
39193.11445756
 20
-40944.92849474
 42
0.56527988
 10
39212.93812994
 20
-40965.48724106
  0
LWPOLYLINE
  5
2D0
102
{ACAD_REACTORS
330
2D1
102
}
100
AcDbEntity
  8
Ech.1_5
 62
     9
  6
CONTINUOUS
370
    -3
100
AcDbPolyline
 90
        8
 70
     1
 43
0.0
 38
2500.0
 39
-2500.0
 10
38187.7270356
 20
-40965.90882536
 10
38009.23114845
 20
-40965.90882536
 10
38009.23126655
 20
-41210.36649097
 10
38114.43464087
 20
-41210.36649097
 10
38130.92014402
 20
-41192.38914257
 10
38116.810204
 20
-41228.34484258
 10
38133.29655808
 20
-41210.36649097
 10
38187.7270356
 20
-41210.36649097
  0
HATCH
  5
2D1
100
AcDbEntity
  8
Ech.1_5
 62
     9
  6
CONTINUOUS
100
AcDbHatch
 10
0.0
 20
0.0
 30
0.0
210
0.0
220
0.0
230
1.0
  2
ANSI31
 70
     0
 71
     1
 91
        1
 92
        7
 72
     0
 73
     1
 93
        8
 10
38187.7270356
 20
-40965.90882536
 10
38009.23114845
 20
-40965.90882536
 10
38009.23126655
 20
-41210.36649097
 10
38114.43464087
 20
-41210.36649097
 10
38130.92014402
 20
-41192.38914257
 10
38116.810204
 20
-41228.34484258
 10
38133.29655808
 20
-41210.36649097
 10
38187.7270356
 20
-41210.36649097
 97
        1
330
2D0
 75
     0
 76
     2
 52
0.0
 41
4.72443907
 77
     0
 78
     1
 53
45.0
 43
0.0
 44
0.0
 45
10.60660172
 46
-10.60660172
 79
     0
 47
0.775229
 98
        1
 10
0.0
 20
0.0
  0
LWPOLYLINE
  5
2D2
100
AcDbEntity
  8
Ech.1_5
 62
   190
  6
CONTINUOUS
370
    -3
100
AcDbPolyline
 90
        4
 70
     1
 43
0.0
 10
38197.7270356
 20
-41210.36649097
 10
38247.7270356
 20
-41210.36649097
 10
38247.7270356
 20
-41140.90882536
 10
38197.7270356
 20
-41140.90882536
  0
LWPOLYLINE
  5
2D3
100
AcDbEntity
  8
Ech.1_5
 62
   190
  6
CONTINUOUS
370
    -3
100
AcDbPolyline
 90
        4
 70
     1
 43
0.0
 10
38260.72698764
 20
-41140.90882536
 10
38247.72698764
 20
-41140.90882536
 10
38247.72700602
 20
-41210.36649097
 10
38260.72700602
 20
-41210.36649097
  0
LWPOLYLINE
  5
2D4
102
{ACAD_REACTORS
330
2D5
102
}
100
AcDbEntity
  8
Ech.1_5
 62
     7
  6
CONTINUOUS
370
    -3
100
AcDbPolyline
 90
        4
 70
     1
 43
0.0
 10
38247.72698764
 20
-41140.90898215
 10
38247.72700602
 20
-41210.36649097
 10
38260.72700602
 20
-41210.36649097
 10
38260.72698764
 20
-41140.90882536
  0
HATCH
  5
2D5
100
AcDbEntity
  8
Ech.1_5
 62
   190
  6
CONTINUOUS
100
AcDbHatch
 10
0.0
 20
0.0
 30
0.0
210
0.0
220
0.0
230
1.0
  2
DOTS2
 70
     0
 71
     1
 91
        1
 92
        7
 72
     0
 73
     1
 93
        4
 10
38247.72698764
 20
-41140.90898215
 10
38247.72700602
 20
-41210.36649097
 10
38260.72700602
 20
-41210.36649097
 10
38260.72698764
 20
-41140.90882536
 97
        1
330
2D4
 75
     0
 76
     2
 52
0.0
 41
4.72440952
 77
     0
 78
     1
 53
0.0
 43
0.0
 44
0.0
 45
3.75
 46
3.535
 79
     2
 49
0.0
 49
-3.535
 47
0.775229
 98
        1
 10
0.0
 20
0.0
  0
TEXT
  5
2D6
100
AcDbEntity
  8
Ech.1_5
 62
   190
100
AcDbText
 10
37479.83654341
 20
-41256.04358466
 30
0.0
 40
8.00000012
  1
Echelle en mm
  7
ARIAL
 50
0.0
 41
1.0
 51
0.0
100
AcDbText
  0
TEXT
  5
2D7
100
AcDbEntity
  8
Ech.1_5
 62
   190
100
AcDbText
 10
37465.85595866
 20
-41284.25342019
 30
0.0
 40
8.00000012
  1
0
  7
ARIAL
 50
0.0
 41
1.0
 51
0.0
100
AcDbText
  0
TEXT
  5
2D8
100
AcDbEntity
  8
Ech.1_5
 62
   190
100
AcDbText
 10
37552.45301656
 20
-41284.25342019
 30
0.0
 40
8.00000012
  1
100
  7
ARIAL
 50
0.0
 41
1.0
 51
0.0
100
AcDbText
  0
TEXT
  5
2D9
100
AcDbEntity
  8
Ech.1_5
 62
   190
100
AcDbText
 10
37513.71258499
 20
-41284.25342019
 30
0.0
 40
8.00000012
  1
50
  7
ARIAL
 50
0.0
 41
1.0
 51
0.0
100
AcDbText
  0
POINT
  5
2DA
100
AcDbEntity
  8
Ech.1_5
 62
     7
100
AcDbPoint
 10
38106.92859995
 20
-40919.15647572
 30
0.0
  0
POINT
  5
2DB
100
AcDbEntity
  8
Ech.1_5
 62
     7
100
AcDbPoint
 10
38083.0899378
 20
-40919.15647572
 30
0.0
  0
POINT
  5
2DC
100
AcDbEntity
  8
Ech.1_5
 62
     7
100
AcDbPoint
 10
38096.31695712
 20
-40927.28822144
 30
0.0
  0
INSERT
  5
2DD
100
AcDbEntity
  8
Ech.1_5
 62
     0
370
    -3
100
AcDbBlockReference
  2
*D3
 10
0.0
 20
0.0
 30
0.0
  0
INSERT
  5
2DE
100
AcDbEntity
  8
Ech.1_5
 62
     0
370
    -3
100
AcDbBlockReference
  2
*D4
 10
0.0
 20
0.0
 30
0.0
  0
ENDSEC
  0
SECTION
  2
OBJECTS
  0
DICTIONARY
  5
1
100
AcDbDictionary
  3
ACAD_GROUP
350
2
  3
ACAD_MLINESTYLE
350
3
  0
DICTIONARY
  5
2
102
{CDWK_REACTORS
330
1
102
}
100
AcDbDictionary
  0
DICTIONARY
  5
3
102
{CDWK_REACTORS
330
1
102
}
100
AcDbDictionary
  3
STANDARD
350
4
  0
MLINESTYLE
  5
4
102
{CDWK_REACTORS
330
3
102
}
100
AcDbMlineStyle
  2
STANDARD
 70
     0
  3

 62
     0
 51
90.0
 52
90.0
 71
     2
 49
0.5
 62
   256
  6
BYLAYER
 49
-0.5
 62
   256
  6
BYLAYER
  0
ENDSEC
  0
EOF
