  0
SECTION
  2
HEADER
  9
$ACADVER
  1
AC1014
  9
$DWGCODEPAGE
  3
ANSI_1252
  9
$INSBASE
 10
0.0
 20
0.0
 30
0.0
  9
$EXTMIN
 10
16.95292807
 20
-41571.14804489
  9
$EXTMAX
 10
36380.70919227
 20
784.39574146
  9
$LIMMIN
 10
16.95292807
 20
-41571.14804489
  9
$LIMMAX
 10
36380.70919227
 20
784.39574146
  9
$ORTHOMODE
 70
     0
  9
$REGENMODE
 70
     1
  9
$FILLMODE
 70
     1
  9
$QTEXTMODE
 70
     0
  9
$MIRRTEXT
 70
     1
  9
$DRAGMODE
 70
     2
  9
$LTSCALE
 40
5.0
  9
$OSMODE
 70
     0
  9
$ATTMODE
 70
     1
  9
$TEXTSIZE
 40
3.5
  9
$TRACEWID
 40
1.0
  9
$TEXTSTYLE
  7
STANDARD
  9
$CLAYER
  8
0
  9
$CELTYPE
  6
BYLAYER
  9
$CECOLOR
 62
   256
  9
$DIMSCALE
 40
1.0
  9
$DIMASZ
 40
2.0
  9
$DIMEXO
 40
5.0
  9
$DIMDLI
 40
10.0
  9
$DIMRND
 40
0.0
  9
$DIMDLE
 40
2.0
  9
$DIMEXE
 40
2.0
  9
$DIMTP
 40
0.0
  9
$DIMTM
 40
0.0
  9
$DIMTXT
 40
2.5
  9
$DIMCEN
 40
1.5
  9
$DIMTSZ
 40
0.0
  9
$DIMTOL
 70
     0
  9
$DIMLIM
 70
     0
  9
$DIMTIH
 70
     1
  9
$DIMTOH
 70
     0
  9
$DIMSE1
 70
     0
  9
$DIMSE2
 70
     0
  9
$DIMTAD
 70
     1
  9
$DIMZIN
 70
     8
  9
$DIMBLK
  1

  9
$DIMASO
 70
     1
  9
$DIMSHO
 70
     1
  9
$DIMPOST
  1

  9
$DIMAPOST
  1

  9
$DIMALT
 70
     0
  9
$DIMALTD
 70
     2
  9
$DIMALTF
 40
25.4
  9
$DIMLFAC
 40
1.0
  9
$DIMTOFL
 70
     0
  9
$DIMTVP
 40
0.0
  9
$DIMTIX
 70
     0
  9
$DIMSOXD
 70
     0
  9
$DIMSAH
 70
     0
  9
$DIMBLK1
  1

  9
$DIMBLK2
  1

  9
$DIMSTYLE
  2
*UNNAMED
  9
$DIMCLRD
 70
   190
  9
$DIMCLRE
 70
   190
  9
$DIMCLRT
 70
   190
  9
$DIMTFAC
 40
1.0
  9
$DIMGAP
 40
0.09
  9
$DIMUNIT
 70
     2
  9
$LUNITS
 70
     2
  9
$LUPREC
 70
     6
  9
$AXISMODE
 70
     0
  9
$AXISUNIT
 10
0.0
 20
0.0
  9
$SKETCHINC
 40
0.1
  9
$FILLETRAD
 40
0.0
  9
$AUNITS
 70
     0
  9
$AUPREC
 70
     0
  9
$MENU
  1
ACAD
  9
$ELEVATION
 40
0.0
  9
$PELEVATION
 40
0.0
  9
$THICKNESS
 40
0.0
  9
$LIMCHECK
 70
     0
  9
$BLIPMODE
 70
     1
  9
$CHAMFERA
 40
0.0
  9
$CHAMFERB
 40
0.0
  9
$SKPOLY
 70
     1
  9
$TDCREATE
 40
2457811.0000000000
  9
$TDUPDATE
 40
2457811.0000000000
  9
$TDINDWG
 40
0.0
  9
$TDUSRTIMER
 40
0.0
  9
$USRTIMER
 70
     1
  9
$ANGBASE
 50
0.0
  9
$ANGDIR
 70
     0
  9
$PDMODE
 70
     0
  9
$PDSIZE
 40
0.0
  9
$PLINEWID
 40
0.0
  9
$COORDS
 70
     2
  9
$SPLFRAME
 70
     0
  9
$SPLINETYPE
 70
     6
  9
$SPLINESEGS
 70
     8
  9
$ATTDIA
 70
     1
  9
$ATTREQ
 70
     1
  9
$HANDLING
 70
     1
  9
$HANDSEED
  5
     2BF
  9
$SURFTAB1
 70
     6
  9
$SURFTAB2
 70
     6
  9
$SURFTYPE
 70
     6
  9
$SURFU
 70
     6
  9
$SURFV
 70
     6
  9
$UCSNAME
  2

  9
$UCSORG
 10
0.0
 20
0.0
 30
0.0
  9
$UCSXDIR
 10
1.0
 20
0.0
 30
0.0
  9
$UCSYDIR
 10
0.0
 20
1.0
 30
0.0
  9
$PUCSNAME
  2

  9
$PUCSORG
 10
0.0
 20
0.0
 30
0.0
  9
$PUCSXDIR
 10
1.0
 20
0.0
 30
0.0
  9
$PUCSYDIR
 10
0.0
 20
1.0
 30
0.0
  9
$USERI1
 70
     0
  9
$USERI2
 70
     0
  9
$USERI3
 70
     0
  9
$USERI4
 70
     0
  9
$USERI5
 70
     0
  9
$USERR1
 40
0.0
  9
$USERR2
 40
0.0
  9
$USERR3
 40
0.0
  9
$USERR4
 40
0.0
  9
$USERR5
 40
0.0
  9
$WORLDVIEW
 70
     1
  9
$SHADEDGE
 70
     3
  9
$SHADEDIF
 70
    70
  9
$TILEMODE
 70
     1
  9
$MAXACTVP
 70
    16
  9
$PINSBASE
 10
0.0
 20
0.0
 30
0.0
  9
$PLIMCHECK
 70
     0
  9
$PEXTMIN
 10
1.0000000000000E+20
 20
1.0000000000000E+20
 30
1.0000000000000E+20
  9
$PEXTMAX
 10
-1.0000000000000E+20
 20
-1.0000000000000E+20
 30
-1.0000000000000E+20
  9
$PLIMMIN
 10
0.0
 20
0.0
  9
$UNITMODE
 70
     0
  9
$VISRETAIN
 70
     0
  9
$MEASUREMENT
 70
     1
  0
ENDSEC
  0
SECTION
  2
TABLES
  0
TABLE
  2
VPORT
  5
E9
100
AcDbSymbolTable
 70
     1
  0
ENDTAB
  0
TABLE
  2
STYLE
  5
EA
100
AcDbSymbolTable
 70
     3
  0
STYLE
  5
EB
100
AcDbSymbolTableRecord
100
AcDbTextStyleTableRecord
  2
STANDARD
 70
     0
 40
0.0
 41
1.0
 50
0.0
 71
     0
 42
3.5
  3
MONOTXT
  4

  0
STYLE
  5
EC
100
AcDbSymbolTableRecord
100
AcDbTextStyleTableRecord
  2
SYMAP
 70
     0
 40
0.0
 41
1.0
 50
0.0
 71
     0
 42
3.5
  3
SYMAP
  4

  0
STYLE
  5
ED
100
AcDbSymbolTableRecord
100
AcDbTextStyleTableRecord
  2
CADWORK1
 70
     0
 40
0.0
 41
1.0
 50
0.0
 71
     0
 42
3.5
  3
MONOTXT
  4

  0
STYLE
  5
EE
100
AcDbSymbolTableRecord
100
AcDbTextStyleTableRecord
  2
MONOTXT
 70
     0
 40
0.0
 41
1.0
 50
0.0
 71
     0
 42
3.5
  3
MONOTXT
  4

  0
STYLE
  5
EF
100
AcDbSymbolTableRecord
100
AcDbTextStyleTableRecord
  2
ARIAL
 70
     0
 40
0.0
 41
1.0
 50
0.0
 71
     0
 42
3.5
  3

  4

1001
ACAD
1000
Arial
1071
        0
  0
ENDTAB
  0
TABLE
  2
LTYPE
  5
F0
100
AcDbSymbolTable
 70
    13
  0
LTYPE
  5
F1
100
AcDbSymbolTableRecord
100
AcDbLinetypeTableRecord
  2
BYBLOCK
 70
    64
  3

 72
    65
 73
     0
 40
0.0
  0
LTYPE
  5
F2
100
AcDbSymbolTableRecord
100
AcDbLinetypeTableRecord
  2
BYLAYER
 70
    64
  3

 72
    65
 73
     0
 40
0.0
  0
LTYPE
  5
F3
100
AcDbSymbolTableRecord
100
AcDbLinetypeTableRecord
  2
CONTINUOUS
 70
    64
  3
Solid line
 72
    65
 73
     0
 40
0.0
  0
LTYPE
  5
F4
100
AcDbSymbolTableRecord
100
AcDbLinetypeTableRecord
  2
DOT2
 70
    64
  3
...............................................
 72
    65
 73
     2
 40
1.25
 49
0.0
 74
     0
 49
-1.25
 74
     0
  0
LTYPE
  5
F5
100
AcDbSymbolTableRecord
100
AcDbLinetypeTableRecord
  2
DASHDOT
 70
    64
  3
 __ . __ . __ . __ . __ . __ . __ . __ . __ . __
 72
    65
 73
     4
 40
10.0
 49
5.0
 74
     0
 49
-2.5
 74
     0
 49
0.0
 74
     0
 49
-2.5
 74
     0
  0
LTYPE
  5
F6
100
AcDbSymbolTableRecord
100
AcDbLinetypeTableRecord
  2
DASHEDX2
 70
    64
  3
____  ____  ____  ____  ____  ____  ____  ____
 72
    65
 73
     2
 40
3.75
 49
2.5
 74
     0
 49
-1.25
 74
     0
  0
LTYPE
  5
F7
100
AcDbSymbolTableRecord
100
AcDbLinetypeTableRecord
  2
CADWORK_22
 70
    64
  3
22 =======================================
 72
    65
 73
     0
 40
0.0
  0
LTYPE
  5
F8
100
AcDbSymbolTableRecord
100
AcDbLinetypeTableRecord
  2
DAL
 70
    64
  3
Solid line (for MAPS)
 72
    65
 73
     0
 40
0.0
  0
LTYPE
  5
F9
100
AcDbSymbolTableRecord
100
AcDbLinetypeTableRecord
  2
MUR
 70
    64
  3
Solid line (for MAPS)
 72
    65
 73
     0
 40
0.0
  0
LTYPE
  5
FA
100
AcDbSymbolTableRecord
100
AcDbLinetypeTableRecord
  2
SOM
 70
    64
  3
Solid line (for MAPS)
 72
    65
 73
     0
 40
0.0
  0
LTYPE
  5
FB
100
AcDbSymbolTableRecord
100
AcDbLinetypeTableRecord
  2
COL
 70
    64
  3
Solid line (for MAPS)
 72
    65
 73
     0
 40
0.0
  0
LTYPE
  5
FC
100
AcDbSymbolTableRecord
100
AcDbLinetypeTableRecord
  2
LGN
 70
    64
  3
Solid line (for MAPS)
 72
    65
 73
     0
 40
0.0
  0
LTYPE
  5
FD
100
AcDbSymbolTableRecord
100
AcDbLinetypeTableRecord
  2
PNT
 70
    64
  3
Solid line (for MAPS)
 72
    65
 73
     0
 40
0.0
  0
ENDTAB
  0
TABLE
  2
LAYER
  5
FE
100
AcDbSymbolTable
 70
    32
  0
LAYER
  5
FF
100
AcDbSymbolTableRecord
100
AcDbLayerTableRecord
  2
Standard
 70
     0
 62
     7
  6
CONTINUOUS
370
    -3
  0
LAYER
  5
100
100
AcDbSymbolTableRecord
100
AcDbLayerTableRecord
  2
Ech.1_1
 70
     0
 62
     7
  6
CONTINUOUS
370
    -3
  0
LAYER
  5
101
100
AcDbSymbolTableRecord
100
AcDbLayerTableRecord
  2
Ech.1_2
 70
     0
 62
     7
  6
CONTINUOUS
370
    -3
  0
LAYER
  5
102
100
AcDbSymbolTableRecord
100
AcDbLayerTableRecord
  2
Ech.1_5
 70
     0
 62
     7
  6
CONTINUOUS
370
    -3
  0
LAYER
  5
103
100
AcDbSymbolTableRecord
100
AcDbLayerTableRecord
  2
Ech.1_10
 70
     0
 62
     7
  6
CONTINUOUS
370
    -3
  0
LAYER
  5
104
100
AcDbSymbolTableRecord
100
AcDbLayerTableRecord
  2
Ech.1_20
 70
     0
 62
     7
  6
CONTINUOUS
370
    -3
  0
LAYER
  5
105
100
AcDbSymbolTableRecord
100
AcDbLayerTableRecord
  2
Ech.1_25
 70
     0
 62
     7
  6
CONTINUOUS
370
    -3
  0
LAYER
  5
106
100
AcDbSymbolTableRecord
100
AcDbLayerTableRecord
  2
Ech.1_33
 70
     0
 62
     7
  6
CONTINUOUS
370
    -3
  0
LAYER
  5
107
100
AcDbSymbolTableRecord
100
AcDbLayerTableRecord
  2
Ech.1_50
 70
     0
 62
     7
  6
CONTINUOUS
370
    -3
  0
LAYER
  5
108
100
AcDbSymbolTableRecord
100
AcDbLayerTableRecord
  2
Ech.1_75
 70
     0
 62
     7
  6
CONTINUOUS
370
    -3
  0
LAYER
  5
109
100
AcDbSymbolTableRecord
100
AcDbLayerTableRecord
  2
Ech.1_100
 70
     0
 62
     7
  6
CONTINUOUS
370
    -3
  0
LAYER
  5
10A
100
AcDbSymbolTableRecord
100
AcDbLayerTableRecord
  2
Ech.1_200
 70
     0
 62
     7
  6
CONTINUOUS
370
    -3
  0
LAYER
  5
10B
100
AcDbSymbolTableRecord
100
AcDbLayerTableRecord
  2
Ech.1_500
 70
     0
 62
     7
  6
CONTINUOUS
370
    -3
  0
LAYER
  5
10C
100
AcDbSymbolTableRecord
100
AcDbLayerTableRecord
  2
Ech.1_1000
 70
     0
 62
     7
  6
CONTINUOUS
370
    -3
  0
LAYER
  5
10D
100
AcDbSymbolTableRecord
100
AcDbLayerTableRecord
  2
Cadres traceur
 70
     0
 62
     7
  6
CONTINUOUS
370
    18
  0
LAYER
  5
10E
100
AcDbSymbolTableRecord
100
AcDbLayerTableRecord
  2
Cadres laser
 70
     0
 62
     7
  6
CONTINUOUS
370
    18
  0
LAYER
  5
10F
100
AcDbSymbolTableRecord
100
AcDbLayerTableRecord
  2
Légende d_aide
 70
     0
 62
     7
  6
CONTINUOUS
370
    18
  0
LAYER
  5
110
100
AcDbSymbolTableRecord
100
AcDbLayerTableRecord
  2
hachures ok
 70
     0
 62
     7
  6
CONTINUOUS
370
    18
  0
LAYER
  5
111
100
AcDbSymbolTableRecord
100
AcDbLayerTableRecord
  2
ossature bois
 70
     0
 62
     7
  6
CONTINUOUS
370
    18
  0
LAYER
  5
112
100
AcDbSymbolTableRecord
100
AcDbLayerTableRecord
  2
VR
 70
     0
 62
     7
  6
CONTINUOUS
370
    25
  0
LAYER
  5
113
100
AcDbSymbolTableRecord
100
AcDbLayerTableRecord
  2
Calque1
 70
     0
 62
     7
  6
CONTINUOUS
370
     9
  0
LAYER
  5
114
100
AcDbSymbolTableRecord
100
AcDbLayerTableRecord
  2
0
 70
     0
 62
     7
  6
CONTINUOUS
370
    -3
  0
LAYER
  5
115
100
AcDbSymbolTableRecord
100
AcDbLayerTableRecord
  2
menuiserie
 70
     0
 62
     7
  6
CONTINUOUS
370
    -3
  0
LAYER
  5
116
100
AcDbSymbolTableRecord
100
AcDbLayerTableRecord
  2
cotation
 70
     0
 62
   250
  6
CONTINUOUS
370
     9
  0
LAYER
  5
117
100
AcDbSymbolTableRecord
100
AcDbLayerTableRecord
  2
Defpoints
 70
     0
 62
    10
  6
CONTINUOUS
370
    -3
  0
LAYER
  5
118
100
AcDbSymbolTableRecord
100
AcDbLayerTableRecord
  2
HACHURE
 70
     0
 62
   254
  6
CONTINUOUS
370
    25
  0
LAYER
  5
119
100
AcDbSymbolTableRecord
100
AcDbLayerTableRecord
  2
mat1
 70
     0
 62
     7
  6
CONTINUOUS
370
    30
  0
LAYER
  5
11A
100
AcDbSymbolTableRecord
100
AcDbLayerTableRecord
  2
mat2
 70
     0
 62
     7
  6
CONTINUOUS
370
     5
  0
LAYER
  5
11B
100
AcDbSymbolTableRecord
100
AcDbLayerTableRecord
  2
hach
 70
     0
 62
     8
  6
CONTINUOUS
370
     5
  0
LAYER
  5
11C
100
AcDbSymbolTableRecord
100
AcDbLayerTableRecord
  2
menuiseries
 70
     0
 62
     7
  6
CONTINUOUS
370
     9
  0
LAYER
  5
11D
100
AcDbSymbolTableRecord
100
AcDbLayerTableRecord
  2
BétonMétal
 70
     0
 62
     7
  6
CONTINUOUS
370
    80
  0
LAYER
  5
11E
100
AcDbSymbolTableRecord
100
AcDbLayerTableRecord
  2
bois
 70
     0
 62
     7
  6
CONTINUOUS
370
    60
  0
ENDTAB
  0
TABLE
  2
VIEW
  5
11F
100
AcDbSymbolTable
 70
     0
  0
ENDTAB
  0
TABLE
  2
UCS
  5
120
100
AcDbSymbolTable
 70
     0
  0
ENDTAB
  0
TABLE
  2
APPID
  5
121
100
AcDbSymbolTable
 70
     1
  0
APPID
  5
122
100
AcDbSymbolTableRecord
100
AcDbRegAppTableRecord
  2
ACAD
 70
     0
  0
ENDTAB
  0
TABLE
  2
DIMSTYLE
  5
123
100
AcDbSymbolTable
 70
     0
  0
ENDTAB
  0
TABLE
  2
BLOCK_RECORD
  5
124
100
AcDbSymbolTable
 70
     0
  0
BLOCK_RECORD
  5
125
100
AcDbSymbolTableRecord
100
AcDbBlockTableRecord
  2
*MODEL_SPACE
  0
BLOCK_RECORD
  5
126
100
AcDbSymbolTableRecord
100
AcDbBlockTableRecord
  2
*PAPER_SPACE
  0
BLOCK_RECORD
  5
127
100
AcDbSymbolTableRecord
100
AcDbBlockTableRecord
  2
CDWK_EXTR_0
  0
BLOCK_RECORD
  5
128
100
AcDbSymbolTableRecord
100
AcDbBlockTableRecord
  2
CDWK_EXTR_1D
  0
BLOCK_RECORD
  5
129
100
AcDbSymbolTableRecord
100
AcDbBlockTableRecord
  2
CDWK_EXTR_1G
  0
BLOCK_RECORD
  5
12A
100
AcDbSymbolTableRecord
100
AcDbBlockTableRecord
  2
CDWK_EXTR_2
  0
BLOCK_RECORD
  5
12B
100
AcDbSymbolTableRecord
100
AcDbBlockTableRecord
  2
CDWK_EXTR_3
  0
BLOCK_RECORD
  5
12C
100
AcDbSymbolTableRecord
100
AcDbBlockTableRecord
  2
CDWK_EXTR_4
  0
BLOCK_RECORD
  5
12D
100
AcDbSymbolTableRecord
100
AcDbBlockTableRecord
  2
CDWK_PTTYP0
  0
BLOCK_RECORD
  5
12E
100
AcDbSymbolTableRecord
100
AcDbBlockTableRecord
  2
CDWK_PTTYP1
  0
BLOCK_RECORD
  5
12F
100
AcDbSymbolTableRecord
100
AcDbBlockTableRecord
  2
CDWK_PTTYP2
  0
BLOCK_RECORD
  5
130
100
AcDbSymbolTableRecord
100
AcDbBlockTableRecord
  2
CDWK_PTTYP3
  0
BLOCK_RECORD
  5
131
100
AcDbSymbolTableRecord
100
AcDbBlockTableRecord
  2
CDWK_PTTYP4
  0
BLOCK_RECORD
  5
132
100
AcDbSymbolTableRecord
100
AcDbBlockTableRecord
  2
CDWK_PTTYP5
  0
BLOCK_RECORD
  5
133
100
AcDbSymbolTableRecord
100
AcDbBlockTableRecord
  2
CDWK_PTTYP6
  0
BLOCK_RECORD
  5
134
100
AcDbSymbolTableRecord
100
AcDbBlockTableRecord
  2
CDWK_PTTYP7
  0
BLOCK_RECORD
  5
135
100
AcDbSymbolTableRecord
100
AcDbBlockTableRecord
  2
CDWK_PTTYP8
  0
BLOCK_RECORD
  5
136
100
AcDbSymbolTableRecord
100
AcDbBlockTableRecord
  2
CDWK_PTTYP9
  0
BLOCK_RECORD
  5
137
100
AcDbSymbolTableRecord
100
AcDbBlockTableRecord
  2
CDWK_PTTYP10
  0
BLOCK_RECORD
  5
138
100
AcDbSymbolTableRecord
100
AcDbBlockTableRecord
  2
CDWK_PTTYP11
  0
BLOCK_RECORD
  5
139
100
AcDbSymbolTableRecord
100
AcDbBlockTableRecord
  2
CDWK_PTTYP12
  0
BLOCK_RECORD
  5
13A
100
AcDbSymbolTableRecord
100
AcDbBlockTableRecord
  2
CDWK_PTTYP13
  0
BLOCK_RECORD
  5
13B
100
AcDbSymbolTableRecord
100
AcDbBlockTableRecord
  2
CDWK_PTTYP14
  0
BLOCK_RECORD
  5
13C
100
AcDbSymbolTableRecord
100
AcDbBlockTableRecord
  2
CDWK_PTTYP15
  0
BLOCK_RECORD
  5
13D
100
AcDbSymbolTableRecord
100
AcDbBlockTableRecord
  2
CDWK_PTTYP16
  0
BLOCK_RECORD
  5
13E
100
AcDbSymbolTableRecord
100
AcDbBlockTableRecord
  2
CDWK_PTTYP17
  0
BLOCK_RECORD
  5
13F
100
AcDbSymbolTableRecord
100
AcDbBlockTableRecord
  2
CDWK_PTTYP18
  0
BLOCK_RECORD
  5
140
100
AcDbSymbolTableRecord
100
AcDbBlockTableRecord
  2
CDWK_PTTYP19
  0
BLOCK_RECORD
  5
141
100
AcDbSymbolTableRecord
100
AcDbBlockTableRecord
  2
CDWK_PTTYP20
  0
BLOCK_RECORD
  5
142
100
AcDbSymbolTableRecord
100
AcDbBlockTableRecord
  2
CDWK_PTTYP21
  0
BLOCK_RECORD
  5
143
100
AcDbSymbolTableRecord
100
AcDbBlockTableRecord
  2
CDWK_PTTYP22
  0
BLOCK_RECORD
  5
144
100
AcDbSymbolTableRecord
100
AcDbBlockTableRecord
  2
CDWK_PTTYP23
  0
BLOCK_RECORD
  5
145
100
AcDbSymbolTableRecord
100
AcDbBlockTableRecord
  2
CDWK_PTTYP24
  0
BLOCK_RECORD
  5
146
100
AcDbSymbolTableRecord
100
AcDbBlockTableRecord
  2
CDWK_PTTYP25
  0
BLOCK_RECORD
  5
147
100
AcDbSymbolTableRecord
100
AcDbBlockTableRecord
  2
CDWK_PTTYP26
  0
BLOCK_RECORD
  5
148
100
AcDbSymbolTableRecord
100
AcDbBlockTableRecord
  2
CDWK_PTTYP27
  0
BLOCK_RECORD
  5
149
100
AcDbSymbolTableRecord
100
AcDbBlockTableRecord
  2
CDWK_PTTYP28
  0
BLOCK_RECORD
  5
14A
100
AcDbSymbolTableRecord
100
AcDbBlockTableRecord
  2
CDWK_PTTYP29
  0
BLOCK_RECORD
  5
14B
100
AcDbSymbolTableRecord
100
AcDbBlockTableRecord
  2
CDWK_PTTYP30
  0
BLOCK_RECORD
  5
14C
100
AcDbSymbolTableRecord
100
AcDbBlockTableRecord
  2
CDWK_PTTYP31
  0
BLOCK_RECORD
  5
14D
100
AcDbSymbolTableRecord
100
AcDbBlockTableRecord
  2
CDWK_PTTYP32
  0
BLOCK_RECORD
  5
14E
100
AcDbSymbolTableRecord
100
AcDbBlockTableRecord
  2
CDWK_PTTYP33
  0
BLOCK_RECORD
  5
14F
100
AcDbSymbolTableRecord
100
AcDbBlockTableRecord
  2
CDWK_PTTYP34
  0
BLOCK_RECORD
  5
150
100
AcDbSymbolTableRecord
100
AcDbBlockTableRecord
  2
CDWK_PTTYP35
  0
BLOCK_RECORD
  5
151
100
AcDbSymbolTableRecord
100
AcDbBlockTableRecord
  2
CDWK_PTTYP36
  0
BLOCK_RECORD
  5
152
100
AcDbSymbolTableRecord
100
AcDbBlockTableRecord
  2
CDWK_PTTYP37
  0
BLOCK_RECORD
  5
153
100
AcDbSymbolTableRecord
100
AcDbBlockTableRecord
  2
CDWK_PTTYP38
  0
ENDTAB
  0
ENDSEC
  0
SECTION
  2
BLOCKS
  0
BLOCK
  5
154
100
AcDbEntity
  8
0
100
AcDbBlockBegin
  2
*MODEL_SPACE
 70
     0
 10
0.0
 20
0.0
 30
0.0
  3
*MODEL_SPACE
  1

  0
ENDBLK
  5
155
100
AcDbEntity
100
AcDbBlockEnd
  0
BLOCK
  5
156
100
AcDbEntity
  8
0
100
AcDbBlockBegin
  2
*PAPER_SPACE
 70
     0
 10
0.0
 20
0.0
 30
0.0
  3
*PAPER_SPACE
  1

  0
ENDBLK
  5
157
100
AcDbEntity
100
AcDbBlockEnd
  0
BLOCK
  5
158
100
AcDbEntity
  8
0
100
AcDbBlockBegin
  2
CDWK_EXTR_0
 70
     0
 10
0.0
 20
0.0
 30
0.0
  3
CDWK_EXTR_0
  1

  4
Cadwork line-extremity
  0
LINE
  5
159
100
AcDbEntity
  8
0
 62
     0
370
    -2
100
AcDbLine
 10
0.0
 20
0.0
 30
0.0
 11
2.0
 21
0.5
 31
0.0
  0
LINE
  5
15A
100
AcDbEntity
  8
0
 62
     0
370
    -2
100
AcDbLine
 10
0.0
 20
0.0
 30
0.0
 11
2.0
 21
-0.5
 31
0.0
  0
LINE
  5
15B
100
AcDbEntity
  8
0
 62
     0
370
    -2
100
AcDbLine
 10
2.0
 20
0.5
 30
0.0
 11
2.0
 21
-0.5
 31
0.0
  0
ENDBLK
  5
15C
100
AcDbEntity
100
AcDbBlockEnd
  0
BLOCK
  5
15D
100
AcDbEntity
  8
0
100
AcDbBlockBegin
  2
CDWK_EXTR_1D
 70
     0
 10
0.0
 20
0.0
 30
0.0
  3
CDWK_EXTR_1D
  1

  4
Cadwork line-extremity
  0
LINE
  5
15E
100
AcDbEntity
  8
0
 62
     0
370
    -2
100
AcDbLine
 10
0.0
 20
0.0
 30
0.0
 11
0.0
 21
1.0
 31
0.0
  0
LINE
  5
15F
100
AcDbEntity
  8
0
 62
     0
370
    -2
100
AcDbLine
 10
0.0
 20
1.0
 30
0.0
 11
0.5
 21
1.5
 31
0.0
  0
LINE
  5
160
100
AcDbEntity
  8
0
 62
     0
370
    -2
100
AcDbLine
 10
0.5
 20
1.5
 30
0.0
 11
1.5
 21
1.5
 31
0.0
  0
ENDBLK
  5
161
100
AcDbEntity
100
AcDbBlockEnd
  0
BLOCK
  5
162
100
AcDbEntity
  8
0
100
AcDbBlockBegin
  2
CDWK_EXTR_1G
 70
     0
 10
0.0
 20
0.0
 30
0.0
  3
CDWK_EXTR_1G
  1

  4
Cadwork line-extremity
  0
LINE
  5
163
100
AcDbEntity
  8
0
 62
     0
370
    -2
100
AcDbLine
 10
0.0
 20
0.0
 30
0.0
 11
0.0
 21
-1.0
 31
0.0
  0
LINE
  5
164
100
AcDbEntity
  8
0
 62
     0
370
    -2
100
AcDbLine
 10
0.0
 20
-1.0
 30
0.0
 11
0.5
 21
-1.5
 31
0.0
  0
LINE
  5
165
100
AcDbEntity
  8
0
 62
     0
370
    -2
100
AcDbLine
 10
0.5
 20
-1.5
 30
0.0
 11
1.5
 21
-1.5
 31
0.0
  0
ENDBLK
  5
166
100
AcDbEntity
100
AcDbBlockEnd
  0
BLOCK
  5
167
100
AcDbEntity
  8
0
100
AcDbBlockBegin
  2
CDWK_EXTR_2
 70
     0
 10
0.0
 20
0.0
 30
0.0
  3
CDWK_EXTR_2
  1

  4
Cadwork line-extremity
  0
SOLID
  5
168
100
AcDbEntity
  8
0
 62
     0
100
AcDbTrace
 10
0.0
 20
0.0
 11
2.0
 21
0.5
 12
2.0
 22
-0.5
 13
2.0
 23
-0.5
  0
ENDBLK
  5
169
100
AcDbEntity
100
AcDbBlockEnd
  0
BLOCK
  5
16A
100
AcDbEntity
  8
0
100
AcDbBlockBegin
  2
CDWK_EXTR_3
 70
     0
 10
0.0
 20
0.0
 30
0.0
  3
CDWK_EXTR_3
  1

  4
Cadwork line-extremity
  0
SOLID
  5
16B
100
AcDbEntity
  8
0
 62
     0
100
AcDbTrace
 10
0.0
 20
0.0
 11
2.0
 21
0.5
 12
2.0
 22
-0.5
 13
2.0
 23
-0.5
  0
LINE
  5
16C
100
AcDbEntity
  8
0
 62
     0
370
    -2
100
AcDbLine
 10
0.0
 20
1.0
 30
0.0
 11
0.0
 21
-1.0
 31
0.0
  0
ENDBLK
  5
16D
100
AcDbEntity
100
AcDbBlockEnd
  0
BLOCK
  5
16E
100
AcDbEntity
  8
0
100
AcDbBlockBegin
  2
CDWK_EXTR_4
 70
     0
 10
0.0
 20
0.0
 30
0.0
  3
CDWK_EXTR_4
  1

  4
Cadwork line-extremity
  0
HATCH
  5
16F
100
AcDbEntity
  8
0
 62
     0
370
    -2
100
AcDbHatch
 10
0.0
 20
0.0
 30
0.0
210
0.0
220
0.0
230
1.0
  2
SOLID
 70
     1
 71
     0
 91
        1
 92
        1
 93
        1
 72
     2
 10
0.0
 20
0.0
 40
0.5
 50
0.0
 51
360.0
 73
     1
 97
        0
 75
     0
 76
     1
 98
        1
 10
0.0
 20
0.0
  0
ENDBLK
  5
170
100
AcDbEntity
100
AcDbBlockEnd
  0
BLOCK
  5
171
100
AcDbEntity
  8
0
100
AcDbBlockBegin
  2
CDWK_PTTYP0
 70
     0
 10
0.0
 20
0.0
 30
0.0
  3
CDWK_PTTYP0
  1

  4
Cadwork point
  0
POINT
  5
172
100
AcDbEntity
  8
0
 62
     0
100
AcDbPoint
 10
0.0
 20
0.0
 30
0.0
  0
ENDBLK
  5
173
100
AcDbEntity
100
AcDbBlockEnd
  0
BLOCK
  5
174
100
AcDbEntity
  8
0
100
AcDbBlockBegin
  2
CDWK_PTTYP1
 70
     0
 10
0.0
 20
0.0
 30
0.0
  3
CDWK_PTTYP1
  1

  4
Cadwork node
  0
LINE
  5
175
100
AcDbEntity
  8
0
 62
     0
370
    -2
100
AcDbLine
 10
-0.5
 20
0.5
 30
0.0
 11
0.5
 21
0.5
 31
0.0
  0
LINE
  5
176
100
AcDbEntity
  8
0
 62
     0
370
    -2
100
AcDbLine
 10
0.5
 20
0.5
 30
0.0
 11
0.5
 21
-0.5
 31
0.0
  0
LINE
  5
177
100
AcDbEntity
  8
0
 62
     0
370
    -2
100
AcDbLine
 10
0.5
 20
-0.5
 30
0.0
 11
-0.5
 21
-0.5
 31
0.0
  0
LINE
  5
178
100
AcDbEntity
  8
0
 62
     0
370
    -2
100
AcDbLine
 10
-0.5
 20
-0.5
 30
0.0
 11
-0.5
 21
0.5
 31
0.0
  0
ENDBLK
  5
179
100
AcDbEntity
100
AcDbBlockEnd
  0
BLOCK
  5
17A
100
AcDbEntity
  8
0
100
AcDbBlockBegin
  2
CDWK_PTTYP2
 70
     0
 10
0.0
 20
0.0
 30
0.0
  3
CDWK_PTTYP2
  1

  4
Cadwork node
  0
LINE
  5
17B
100
AcDbEntity
  8
0
 62
     0
370
    -2
100
AcDbLine
 10
0.0
 20
0.5
 30
0.0
 11
0.0
 21
-0.5
 31
0.0
  0
LINE
  5
17C
100
AcDbEntity
  8
0
 62
     0
370
    -2
100
AcDbLine
 10
-0.5
 20
0.0
 30
0.0
 11
0.5
 21
0.0
 31
0.0
  0
ENDBLK
  5
17D
100
AcDbEntity
100
AcDbBlockEnd
  0
BLOCK
  5
17E
100
AcDbEntity
  8
0
100
AcDbBlockBegin
  2
CDWK_PTTYP3
 70
     0
 10
0.0
 20
0.0
 30
0.0
  3
CDWK_PTTYP3
  1

  4
Cadwork node
  0
CIRCLE
  5
17F
100
AcDbEntity
  8
0
 62
     0
370
    -2
100
AcDbCircle
 10
0.0
 20
0.0
 30
0.0
 40
0.5
  0
ENDBLK
  5
180
100
AcDbEntity
100
AcDbBlockEnd
  0
BLOCK
  5
181
100
AcDbEntity
  8
0
100
AcDbBlockBegin
  2
CDWK_PTTYP4
 70
     0
 10
0.0
 20
0.0
 30
0.0
  3
CDWK_PTTYP4
  1

  4
Cadwork node
  0
HATCH
  5
182
100
AcDbEntity
  8
0
 62
     0
370
    -2
100
AcDbHatch
 10
0.0
 20
0.0
 30
0.0
210
0.0
220
0.0
230
1.0
  2
SOLID
 70
     1
 71
     0
 91
        1
 92
        1
 93
        1
 72
     2
 10
0.0
 20
0.0
 40
0.5
 50
0.0
 51
360.0
 73
     1
 97
        0
 75
     0
 76
     1
 98
        1
 10
0.0
 20
0.0
  0
ENDBLK
  5
183
100
AcDbEntity
100
AcDbBlockEnd
  0
BLOCK
  5
184
100
AcDbEntity
  8
0
100
AcDbBlockBegin
  2
CDWK_PTTYP5
 70
     0
 10
0.0
 20
0.0
 30
0.0
  3
CDWK_PTTYP5
  1

  4
Cadwork node
  0
LINE
  5
185
100
AcDbEntity
  8
0
 62
     0
370
    -2
100
AcDbLine
 10
-0.5
 20
0.5
 30
0.0
 11
0.5
 21
0.5
 31
0.0
  0
LINE
  5
186
100
AcDbEntity
  8
0
 62
     0
370
    -2
100
AcDbLine
 10
0.5
 20
0.5
 30
0.0
 11
0.5
 21
-0.5
 31
0.0
  0
LINE
  5
187
100
AcDbEntity
  8
0
 62
     0
370
    -2
100
AcDbLine
 10
0.5
 20
-0.5
 30
0.0
 11
-0.5
 21
-0.5
 31
0.0
  0
LINE
  5
188
100
AcDbEntity
  8
0
 62
     0
370
    -2
100
AcDbLine
 10
-0.5
 20
-0.5
 30
0.0
 11
-0.5
 21
0.5
 31
0.0
  0
SOLID
  5
189
100
AcDbEntity
  8
0
 62
     0
100
AcDbTrace
 10
-0.5
 20
-0.5
 11
-0.5
 21
0.0
 12
0.0
 22
-0.5
 13
0.0
 23
0.0
  0
SOLID
  5
18A
100
AcDbEntity
  8
0
 62
     0
100
AcDbTrace
 10
0.0
 20
0.0
 11
0.0
 21
0.5
 12
0.5
 22
0.0
 13
0.5
 23
0.5
  0
ENDBLK
  5
18B
100
AcDbEntity
100
AcDbBlockEnd
  0
BLOCK
  5
18C
100
AcDbEntity
  8
0
100
AcDbBlockBegin
  2
CDWK_PTTYP6
 70
     0
 10
0.0
 20
0.0
 30
0.0
  3
CDWK_PTTYP6
  1

  4
Cadwork node
  0
LINE
  5
18D
100
AcDbEntity
  8
0
 62
     0
370
    -2
100
AcDbLine
 10
-0.5
 20
0.5
 30
0.0
 11
0.5
 21
0.5
 31
0.0
  0
LINE
  5
18E
100
AcDbEntity
  8
0
 62
     0
370
    -2
100
AcDbLine
 10
0.5
 20
0.5
 30
0.0
 11
0.5
 21
-0.5
 31
0.0
  0
LINE
  5
18F
100
AcDbEntity
  8
0
 62
     0
370
    -2
100
AcDbLine
 10
0.5
 20
-0.5
 30
0.0
 11
-0.5
 21
-0.5
 31
0.0
  0
LINE
  5
190
100
AcDbEntity
  8
0
 62
     0
370
    -2
100
AcDbLine
 10
-0.5
 20
-0.5
 30
0.0
 11
-0.5
 21
0.5
 31
0.0
  0
SOLID
  5
191
100
AcDbEntity
  8
0
 62
     0
100
AcDbTrace
 10
-0.5
 20
-0.5
 11
-0.5
 21
0.5
 12
0.5
 22
0.5
 13
0.5
 23
0.5
  0
ENDBLK
  5
192
100
AcDbEntity
100
AcDbBlockEnd
  0
BLOCK
  5
193
100
AcDbEntity
  8
0
100
AcDbBlockBegin
  2
CDWK_PTTYP7
 70
     0
 10
0.0
 20
0.0
 30
0.0
  3
CDWK_PTTYP7
  1

  4
Cadwork node
  0
LINE
  5
194
100
AcDbEntity
  8
0
 62
     0
370
    -2
100
AcDbLine
 10
-0.5
 20
0.5
 30
0.0
 11
0.5
 21
0.5
 31
0.0
  0
LINE
  5
195
100
AcDbEntity
  8
0
 62
     0
370
    -2
100
AcDbLine
 10
0.5
 20
0.5
 30
0.0
 11
0.5
 21
-0.5
 31
0.0
  0
LINE
  5
196
100
AcDbEntity
  8
0
 62
     0
370
    -2
100
AcDbLine
 10
0.5
 20
-0.5
 30
0.0
 11
-0.5
 21
-0.5
 31
0.0
  0
LINE
  5
197
100
AcDbEntity
  8
0
 62
     0
370
    -2
100
AcDbLine
 10
-0.5
 20
-0.5
 30
0.0
 11
-0.5
 21
0.5
 31
0.0
  0
LINE
  5
198
100
AcDbEntity
  8
0
 62
     0
370
    -2
100
AcDbLine
 10
0.0
 20
0.5
 30
0.0
 11
0.0
 21
-0.5
 31
0.0
  0
LINE
  5
199
100
AcDbEntity
  8
0
 62
     0
370
    -2
100
AcDbLine
 10
-0.5
 20
0.0
 30
0.0
 11
0.5
 21
0.0
 31
0.0
  0
ENDBLK
  5
19A
100
AcDbEntity
100
AcDbBlockEnd
  0
BLOCK
  5
19B
100
AcDbEntity
  8
0
100
AcDbBlockBegin
  2
CDWK_PTTYP8
 70
     0
 10
0.0
 20
0.0
 30
0.0
  3
CDWK_PTTYP8
  1

  4
Cadwork node
  0
SOLID
  5
19C
100
AcDbEntity
  8
0
 62
     0
100
AcDbTrace
 10
-0.5
 20
0.5
 11
0.5
 21
0.5
 12
-0.5
 22
-0.5
 13
0.5
 23
-0.5
  0
ENDBLK
  5
19D
100
AcDbEntity
100
AcDbBlockEnd
  0
BLOCK
  5
19E
100
AcDbEntity
  8
0
100
AcDbBlockBegin
  2
CDWK_PTTYP9
 70
     0
 10
0.0
 20
0.0
 30
0.0
  3
CDWK_PTTYP9
  1

  4
Cadwork node
  0
CIRCLE
  5
19F
100
AcDbEntity
  8
0
 62
     0
370
    -2
100
AcDbCircle
 10
0.0
 20
0.0
 30
0.0
 40
0.5
  0
CIRCLE
  5
1A0
100
AcDbEntity
  8
0
 62
     0
370
    -2
100
AcDbCircle
 10
0.0
 20
0.0
 30
0.0
 40
0.16666667
  0
ENDBLK
  5
1A1
100
AcDbEntity
100
AcDbBlockEnd
  0
BLOCK
  5
1A2
100
AcDbEntity
  8
0
100
AcDbBlockBegin
  2
CDWK_PTTYP10
 70
     0
 10
0.0
 20
0.0
 30
0.0
  3
CDWK_PTTYP10
  1

  4
Cadwork node
  0
CIRCLE
  5
1A3
100
AcDbEntity
  8
0
 62
     0
370
    -2
100
AcDbCircle
 10
0.0
 20
0.0
 30
0.0
 40
0.5
  0
ENDBLK
  5
1A4
100
AcDbEntity
100
AcDbBlockEnd
  0
BLOCK
  5
1A5
100
AcDbEntity
  8
0
100
AcDbBlockBegin
  2
CDWK_PTTYP11
 70
     0
 10
0.0
 20
0.0
 30
0.0
  3
CDWK_PTTYP11
  1

  4
Cadwork node
  0
CIRCLE
  5
1A6
100
AcDbEntity
  8
0
 62
     0
370
    -2
100
AcDbCircle
 10
0.0
 20
0.0
 30
0.0
 40
0.5
  0
CIRCLE
  5
1A7
100
AcDbEntity
  8
0
 62
     0
370
    -2
100
AcDbCircle
 10
0.0
 20
0.0
 30
0.0
 40
0.25
  0
ENDBLK
  5
1A8
100
AcDbEntity
100
AcDbBlockEnd
  0
BLOCK
  5
1A9
100
AcDbEntity
  8
0
100
AcDbBlockBegin
  2
CDWK_PTTYP12
 70
     0
 10
0.0
 20
0.0
 30
0.0
  3
CDWK_PTTYP12
  1

  4
Cadwork node
  0
CIRCLE
  5
1AA
100
AcDbEntity
  8
0
 62
     0
370
    -2
100
AcDbCircle
 10
0.0
 20
0.0
 30
0.0
 40
0.5
  0
CIRCLE
  5
1AB
100
AcDbEntity
  8
0
 62
     0
370
    -2
100
AcDbCircle
 10
0.25
 20
0.0
 30
0.0
 40
0.25
  0
ENDBLK
  5
1AC
100
AcDbEntity
100
AcDbBlockEnd
  0
BLOCK
  5
1AD
100
AcDbEntity
  8
0
100
AcDbBlockBegin
  2
CDWK_PTTYP13
 70
     0
 10
0.0
 20
0.0
 30
0.0
  3
CDWK_PTTYP13
  1

  4
Cadwork node
  0
CIRCLE
  5
1AE
100
AcDbEntity
  8
0
 62
     0
370
    -2
100
AcDbCircle
 10
0.0
 20
0.0
 30
0.0
 40
0.5
  0
CIRCLE
  5
1AF
100
AcDbEntity
  8
0
 62
     0
370
    -2
100
AcDbCircle
 10
0.25
 20
0.0
 30
0.0
 40
0.25
  0
CIRCLE
  5
1B0
100
AcDbEntity
  8
0
 62
     0
370
    -2
100
AcDbCircle
 10
-0.25
 20
0.0
 30
0.0
 40
0.25
  0
ENDBLK
  5
1B1
100
AcDbEntity
100
AcDbBlockEnd
  0
BLOCK
  5
1B2
100
AcDbEntity
  8
0
100
AcDbBlockBegin
  2
CDWK_PTTYP14
 70
     0
 10
0.0
 20
0.0
 30
0.0
  3
CDWK_PTTYP14
  1

  4
Cadwork node
  0
POINT
  5
1B3
100
AcDbEntity
  8
0
 62
     0
100
AcDbPoint
 10
0.0
 20
0.0
 30
0.0
  0
ENDBLK
  5
1B4
100
AcDbEntity
100
AcDbBlockEnd
  0
BLOCK
  5
1B5
100
AcDbEntity
  8
0
100
AcDbBlockBegin
  2
CDWK_PTTYP15
 70
     0
 10
0.0
 20
0.0
 30
0.0
  3
CDWK_PTTYP15
  1

  4
Cadwork node
  0
POINT
  5
1B6
100
AcDbEntity
  8
0
 62
     0
100
AcDbPoint
 10
0.0
 20
0.0
 30
0.0
  0
ENDBLK
  5
1B7
100
AcDbEntity
100
AcDbBlockEnd
  0
BLOCK
  5
1B8
100
AcDbEntity
  8
0
100
AcDbBlockBegin
  2
CDWK_PTTYP16
 70
     0
 10
0.0
 20
0.0
 30
0.0
  3
CDWK_PTTYP16
  1

  4
Cadwork node
  0
LINE
  5
1B9
100
AcDbEntity
  8
0
 62
     0
370
    -2
100
AcDbLine
 10
-0.5
 20
-0.28867513
 30
0.0
 11
0.5
 21
-0.28867513
 31
0.0
  0
LINE
  5
1BA
100
AcDbEntity
  8
0
 62
     0
370
    -2
100
AcDbLine
 10
0.5
 20
-0.28867513
 30
0.0
 11
0.0
 21
0.57735027
 31
0.0
  0
LINE
  5
1BB
100
AcDbEntity
  8
0
 62
     0
370
    -2
100
AcDbLine
 10
0.0
 20
0.57735027
 30
0.0
 11
-0.5
 21
-0.28867513
 31
0.0
  0
CIRCLE
  5
1BC
100
AcDbEntity
  8
0
 62
     0
370
    -2
100
AcDbCircle
 10
0.0
 20
0.0
 30
0.0
 40
0.28867513
  0
ENDBLK
  5
1BD
100
AcDbEntity
100
AcDbBlockEnd
  0
BLOCK
  5
1BE
100
AcDbEntity
  8
0
100
AcDbBlockBegin
  2
CDWK_PTTYP17
 70
     0
 10
0.0
 20
0.0
 30
0.0
  3
CDWK_PTTYP17
  1

  4
Cadwork node
  0
CIRCLE
  5
1BF
100
AcDbEntity
  8
0
 62
     0
370
    -2
100
AcDbCircle
 10
0.0
 20
0.0
 30
0.0
 40
0.5
  0
HATCH
  5
1C0
100
AcDbEntity
  8
0
 62
     0
370
    -2
100
AcDbHatch
 10
0.0
 20
0.0
 30
0.0
210
0.0
220
0.0
230
1.0
  2
SOLID
 70
     1
 71
     0
 91
        1
 92
        1
 93
        1
 72
     2
 10
0.0
 20
0.0
 40
0.25
 50
0.0
 51
360.0
 73
     1
 97
        0
 75
     0
 76
     1
 98
        1
 10
0.0
 20
0.0
  0
ENDBLK
  5
1C1
100
AcDbEntity
100
AcDbBlockEnd
  0
BLOCK
  5
1C2
100
AcDbEntity
  8
0
100
AcDbBlockBegin
  2
CDWK_PTTYP18
 70
     0
 10
0.0
 20
0.0
 30
0.0
  3
CDWK_PTTYP18
  1

  4
Cadwork node
  0
CIRCLE
  5
1C3
100
AcDbEntity
  8
0
 62
     0
370
    -2
100
AcDbCircle
 10
0.0
 20
0.0
 30
0.0
 40
0.5
  0
CIRCLE
  5
1C4
100
AcDbEntity
  8
0
 62
     0
370
    -2
100
AcDbCircle
 10
0.0
 20
0.0
 30
0.0
 40
0.2
  0
ENDBLK
  5
1C5
100
AcDbEntity
100
AcDbBlockEnd
  0
BLOCK
  5
1C6
100
AcDbEntity
  8
0
100
AcDbBlockBegin
  2
CDWK_PTTYP19
 70
     0
 10
0.0
 20
0.0
 30
0.0
  3
CDWK_PTTYP19
  1

  4
Cadwork node
  0
CIRCLE
  5
1C7
100
AcDbEntity
  8
0
 62
     0
370
    -2
100
AcDbCircle
 10
0.0
 20
0.0
 30
0.0
 40
0.4
  0
CIRCLE
  5
1C8
100
AcDbEntity
  8
0
 62
     0
370
    -2
100
AcDbCircle
 10
0.0
 20
0.0
 30
0.0
 40
0.25
  0
LINE
  5
1C9
100
AcDbEntity
  8
0
 62
     0
370
    -2
100
AcDbLine
 10
-0.25
 20
0.0
 30
0.0
 11
0.25
 21
0.0
 31
0.0
  0
ENDBLK
  5
1CA
100
AcDbEntity
100
AcDbBlockEnd
  0
BLOCK
  5
1CB
100
AcDbEntity
  8
0
100
AcDbBlockBegin
  2
CDWK_PTTYP20
 70
     0
 10
0.0
 20
0.0
 30
0.0
  3
CDWK_PTTYP20
  1

  4
Cadwork node
  0
CIRCLE
  5
1CC
100
AcDbEntity
  8
0
 62
     0
370
    -2
100
AcDbCircle
 10
0.0
 20
0.0
 30
0.0
 40
0.5
  0
CIRCLE
  5
1CD
100
AcDbEntity
  8
0
 62
     0
370
    -2
100
AcDbCircle
 10
0.0
 20
0.0
 30
0.0
 40
0.3
  0
ENDBLK
  5
1CE
100
AcDbEntity
100
AcDbBlockEnd
  0
BLOCK
  5
1CF
100
AcDbEntity
  8
0
100
AcDbBlockBegin
  2
CDWK_PTTYP21
 70
     0
 10
0.0
 20
0.0
 30
0.0
  3
CDWK_PTTYP21
  1

  4
Cadwork node
  0
CIRCLE
  5
1D0
100
AcDbEntity
  8
0
 62
     0
370
    -2
100
AcDbCircle
 10
0.0
 20
0.0
 30
0.0
 40
0.5
  0
LINE
  5
1D1
100
AcDbEntity
  8
0
 62
     0
370
    -2
100
AcDbLine
 10
-0.5
 20
0.0
 30
0.0
 11
0.5
 21
0.0
 31
0.0
  0
ENDBLK
  5
1D2
100
AcDbEntity
100
AcDbBlockEnd
  0
BLOCK
  5
1D3
100
AcDbEntity
  8
0
100
AcDbBlockBegin
  2
CDWK_PTTYP22
 70
     0
 10
0.0
 20
0.0
 30
0.0
  3
CDWK_PTTYP22
  1

  4
Cadwork node
  0
POINT
  5
1D4
100
AcDbEntity
  8
0
 62
     0
100
AcDbPoint
 10
0.0
 20
0.0
 30
0.0
  0
ENDBLK
  5
1D5
100
AcDbEntity
100
AcDbBlockEnd
  0
BLOCK
  5
1D6
100
AcDbEntity
  8
0
100
AcDbBlockBegin
  2
CDWK_PTTYP23
 70
     0
 10
0.0
 20
0.0
 30
0.0
  3
CDWK_PTTYP23
  1

  4
Cadwork node
  0
POINT
  5
1D7
100
AcDbEntity
  8
0
 62
     0
100
AcDbPoint
 10
0.0
 20
0.0
 30
0.0
  0
ENDBLK
  5
1D8
100
AcDbEntity
100
AcDbBlockEnd
  0
BLOCK
  5
1D9
100
AcDbEntity
  8
0
100
AcDbBlockBegin
  2
CDWK_PTTYP24
 70
     0
 10
0.0
 20
0.0
 30
0.0
  3
CDWK_PTTYP24
  1

  4
Cadwork node
  0
POINT
  5
1DA
100
AcDbEntity
  8
0
 62
     0
100
AcDbPoint
 10
0.0
 20
0.0
 30
0.0
  0
ENDBLK
  5
1DB
100
AcDbEntity
100
AcDbBlockEnd
  0
BLOCK
  5
1DC
100
AcDbEntity
  8
0
100
AcDbBlockBegin
  2
CDWK_PTTYP25
 70
     0
 10
0.0
 20
0.0
 30
0.0
  3
CDWK_PTTYP25
  1

  4
Cadwork node
  0
LINE
  5
1DD
100
AcDbEntity
  8
0
 62
     0
370
    -2
100
AcDbLine
 10
-0.43290044
 20
-0.25
 30
0.0
 11
0.43290044
 21
-0.25
 31
0.0
  0
LINE
  5
1DE
100
AcDbEntity
  8
0
 62
     0
370
    -2
100
AcDbLine
 10
-0.43290044
 20
-0.25
 30
0.0
 11
0.0
 21
0.5
 31
0.0
  0
LINE
  5
1DF
100
AcDbEntity
  8
0
 62
     0
370
    -2
100
AcDbLine
 10
0.43290044
 20
-0.25
 30
0.0
 11
0.0
 21
0.5
 31
0.0
  0
CIRCLE
  5
1E0
100
AcDbEntity
  8
0
 62
     0
370
    -2
100
AcDbCircle
 10
0.0
 20
0.0
 30
0.0
 40
0.5
  0
ENDBLK
  5
1E1
100
AcDbEntity
100
AcDbBlockEnd
  0
BLOCK
  5
1E2
100
AcDbEntity
  8
0
100
AcDbBlockBegin
  2
CDWK_PTTYP26
 70
     0
 10
0.0
 20
0.0
 30
0.0
  3
CDWK_PTTYP26
  1

  4
Cadwork node
  0
LINE
  5
1E3
100
AcDbEntity
  8
0
 62
     0
370
    -2
100
AcDbLine
 10
-0.5
 20
-0.28850001
 30
0.0
 11
0.5
 21
-0.28850001
 31
0.0
  0
LINE
  5
1E4
100
AcDbEntity
  8
0
 62
     0
370
    -2
100
AcDbLine
 10
-0.5
 20
-0.28850001
 30
0.0
 11
0.0
 21
0.57736721
 31
0.0
  0
LINE
  5
1E5
100
AcDbEntity
  8
0
 62
     0
370
    -2
100
AcDbLine
 10
0.5
 20
-0.28850001
 30
0.0
 11
0.0
 21
0.57736721
 31
0.0
  0
CIRCLE
  5
1E6
100
AcDbEntity
  8
0
 62
     0
370
    -2
100
AcDbCircle
 10
0.0
 20
0.0
 30
0.0
 40
0.1312336
  0
ENDBLK
  5
1E7
100
AcDbEntity
100
AcDbBlockEnd
  0
BLOCK
  5
1E8
100
AcDbEntity
  8
0
100
AcDbBlockBegin
  2
CDWK_PTTYP27
 70
     0
 10
0.0
 20
0.0
 30
0.0
  3
CDWK_PTTYP27
  1

  4
Cadwork node
  0
LINE
  5
1E9
100
AcDbEntity
  8
0
 62
     0
370
    -2
100
AcDbLine
 10
-0.43290044
 20
-0.25
 30
0.0
 11
0.43290044
 21
-0.25
 31
0.0
  0
LINE
  5
1EA
100
AcDbEntity
  8
0
 62
     0
370
    -2
100
AcDbLine
 10
-0.43290044
 20
-0.25
 30
0.0
 11
0.0
 21
0.5
 31
0.0
  0
LINE
  5
1EB
100
AcDbEntity
  8
0
 62
     0
370
    -2
100
AcDbLine
 10
0.43290044
 20
-0.25
 30
0.0
 11
0.0
 21
0.5
 31
0.0
  0
CIRCLE
  5
1EC
100
AcDbEntity
  8
0
 62
     0
370
    -2
100
AcDbCircle
 10
0.0
 20
0.0
 30
0.0
 40
0.5
  0
CIRCLE
  5
1ED
100
AcDbEntity
  8
0
 62
     0
370
    -2
100
AcDbCircle
 10
0.0
 20
0.0
 30
0.0
 40
0.1312336
  0
ENDBLK
  5
1EE
100
AcDbEntity
100
AcDbBlockEnd
  0
BLOCK
  5
1EF
100
AcDbEntity
  8
0
100
AcDbBlockBegin
  2
CDWK_PTTYP28
 70
     0
 10
0.0
 20
0.0
 30
0.0
  3
CDWK_PTTYP28
  1

  4
Cadwork node
  0
POINT
  5
1F0
100
AcDbEntity
  8
0
 62
     0
100
AcDbPoint
 10
0.0
 20
0.0
 30
0.0
  0
ENDBLK
  5
1F1
100
AcDbEntity
100
AcDbBlockEnd
  0
BLOCK
  5
1F2
100
AcDbEntity
  8
0
100
AcDbBlockBegin
  2
CDWK_PTTYP29
 70
     0
 10
0.0
 20
0.0
 30
0.0
  3
CDWK_PTTYP29
  1

  4
Cadwork node
  0
CIRCLE
  5
1F3
100
AcDbEntity
  8
0
 62
     0
370
    -2
100
AcDbCircle
 10
0.0
 20
0.0
 30
0.0
 40
0.5
  0
CIRCLE
  5
1F4
100
AcDbEntity
  8
0
 62
     0
370
    -2
100
AcDbCircle
 10
0.0
 20
0.0
 30
0.0
 40
0.375
  0
CIRCLE
  5
1F5
100
AcDbEntity
  8
0
 62
     0
370
    -2
100
AcDbCircle
 10
0.0
 20
0.0
 30
0.0
 40
0.21875
  0
ENDBLK
  5
1F6
100
AcDbEntity
100
AcDbBlockEnd
  0
BLOCK
  5
1F7
100
AcDbEntity
  8
0
100
AcDbBlockBegin
  2
CDWK_PTTYP30
 70
     0
 10
0.0
 20
0.0
 30
0.0
  3
CDWK_PTTYP30
  1

  4
Cadwork node
  0
LINE
  5
1F8
100
AcDbEntity
  8
0
 62
     0
370
    -2
100
AcDbLine
 10
0.17680339
 20
0.17680339
 30
0.0
 11
0.5
 21
0.5
 31
0.0
  0
LINE
  5
1F9
100
AcDbEntity
  8
0
 62
     0
370
    -2
100
AcDbLine
 10
-0.17680339
 20
0.17680339
 30
0.0
 11
-0.5
 21
0.5
 31
0.0
  0
LINE
  5
1FA
100
AcDbEntity
  8
0
 62
     0
370
    -2
100
AcDbLine
 10
0.17680339
 20
-0.17680339
 30
0.0
 11
0.5
 21
-0.5
 31
0.0
  0
LINE
  5
1FB
100
AcDbEntity
  8
0
 62
     0
370
    -2
100
AcDbLine
 10
-0.17680339
 20
-0.17680339
 30
0.0
 11
-0.5
 21
-0.5
 31
0.0
  0
ENDBLK
  5
1FC
100
AcDbEntity
100
AcDbBlockEnd
  0
BLOCK
  5
1FD
100
AcDbEntity
  8
0
100
AcDbBlockBegin
  2
CDWK_PTTYP31
 70
     0
 10
0.0
 20
0.0
 30
0.0
  3
CDWK_PTTYP31
  1

  4
Cadwork node
  0
CIRCLE
  5
1FE
100
AcDbEntity
  8
0
 62
     0
370
    -2
100
AcDbCircle
 10
0.0
 20
0.0
 30
0.0
 40
0.075
  0
LINE
  5
1FF
100
AcDbEntity
  8
0
 62
     0
370
    -2
100
AcDbLine
 10
0.075
 20
0.0
 30
0.0
 11
0.5
 21
0.0
 31
0.0
  0
LINE
  5
200
100
AcDbEntity
  8
0
 62
     0
370
    -2
100
AcDbLine
 10
-0.075
 20
0.0
 30
0.0
 11
-0.5
 21
0.0
 31
0.0
  0
LINE
  5
201
100
AcDbEntity
  8
0
 62
     0
370
    -2
100
AcDbLine
 10
0.0
 20
0.075
 30
0.0
 11
0.0
 21
0.5
 31
0.0
  0
LINE
  5
202
100
AcDbEntity
  8
0
 62
     0
370
    -2
100
AcDbLine
 10
0.0
 20
-0.075
 30
0.0
 11
0.0
 21
-0.5
 31
0.0
  0
ENDBLK
  5
203
100
AcDbEntity
100
AcDbBlockEnd
  0
BLOCK
  5
204
100
AcDbEntity
  8
0
100
AcDbBlockBegin
  2
CDWK_PTTYP32
 70
     0
 10
0.0
 20
0.0
 30
0.0
  3
CDWK_PTTYP32
  1

  4
Cadwork node
  0
CIRCLE
  5
205
100
AcDbEntity
  8
0
 62
     0
370
    -2
100
AcDbCircle
 10
0.0
 20
0.0
 30
0.0
 40
0.5
  0
CIRCLE
  5
206
100
AcDbEntity
  8
0
 62
     0
370
    -2
100
AcDbCircle
 10
0.0
 20
0.0
 30
0.0
 40
0.16666667
  0
LINE
  5
207
100
AcDbEntity
  8
0
 62
     0
370
    -2
100
AcDbLine
 10
0.11786893
 20
0.11786893
 30
0.0
 11
0.35360678
 21
0.35360678
 31
0.0
  0
LINE
  5
208
100
AcDbEntity
  8
0
 62
     0
370
    -2
100
AcDbLine
 10
-0.11786893
 20
0.11786893
 30
0.0
 11
-0.35360678
 21
0.35360678
 31
0.0
  0
LINE
  5
209
100
AcDbEntity
  8
0
 62
     0
370
    -2
100
AcDbLine
 10
0.11786893
 20
-0.11786893
 30
0.0
 11
0.35360678
 21
-0.35360678
 31
0.0
  0
LINE
  5
20A
100
AcDbEntity
  8
0
 62
     0
370
    -2
100
AcDbLine
 10
-0.11786893
 20
-0.11786893
 30
0.0
 11
-0.35360678
 21
-0.35360678
 31
0.0
  0
ENDBLK
  5
20B
100
AcDbEntity
100
AcDbBlockEnd
  0
BLOCK
  5
20C
100
AcDbEntity
  8
0
100
AcDbBlockBegin
  2
CDWK_PTTYP33
 70
     0
 10
0.0
 20
0.0
 30
0.0
  3
CDWK_PTTYP33
  1

  4
Cadwork node
  0
CIRCLE
  5
20D
100
AcDbEntity
  8
0
 62
     0
370
    -2
100
AcDbCircle
 10
0.0
 20
0.0
 30
0.0
 40
0.5
  0
LINE
  5
20E
100
AcDbEntity
  8
0
 62
     0
370
    -2
100
AcDbLine
 10
0.0
 20
0.5
 30
0.0
 11
0.0
 21
-0.5
 31
0.0
  0
LINE
  5
20F
100
AcDbEntity
  8
0
 62
     0
370
    -2
100
AcDbLine
 10
-0.5
 20
0.0
 30
0.0
 11
0.5
 21
0.0
 31
0.0
  0
ENDBLK
  5
210
100
AcDbEntity
100
AcDbBlockEnd
  0
BLOCK
  5
211
100
AcDbEntity
  8
0
100
AcDbBlockBegin
  2
CDWK_PTTYP34
 70
     0
 10
0.0
 20
0.0
 30
0.0
  3
CDWK_PTTYP34
  1

  4
Cadwork node
  0
CIRCLE
  5
212
100
AcDbEntity
  8
0
 62
     0
370
    -2
100
AcDbCircle
 10
0.0
 20
0.0
 30
0.0
 40
0.5
  0
LINE
  5
213
100
AcDbEntity
  8
0
 62
     0
370
    -2
100
AcDbLine
 10
-0.30360678
 20
-0.40360678
 30
0.0
 11
0.40360678
 21
0.30360678
 31
0.0
  0
LINE
  5
214
100
AcDbEntity
  8
0
 62
     0
370
    -2
100
AcDbLine
 10
-0.40360678
 20
-0.30360678
 30
0.0
 11
0.30360678
 21
0.40360678
 31
0.0
  0
ENDBLK
  5
215
100
AcDbEntity
100
AcDbBlockEnd
  0
BLOCK
  5
216
100
AcDbEntity
  8
0
100
AcDbBlockBegin
  2
CDWK_PTTYP35
 70
     0
 10
0.0
 20
0.0
 30
0.0
  3
CDWK_PTTYP35
  1

  4
Cadwork node
  0
CIRCLE
  5
217
100
AcDbEntity
  8
0
 62
     0
370
    -2
100
AcDbCircle
 10
0.0
 20
0.0
 30
0.0
 40
0.21431634
  0
LINE
  5
218
100
AcDbEntity
  8
0
 62
     0
370
    -2
100
AcDbLine
 10
0.0
 20
0.21431634
 30
0.0
 11
0.0
 21
0.5
 31
0.0
  0
LINE
  5
219
100
AcDbEntity
  8
0
 62
     0
370
    -2
100
AcDbLine
 10
0.0
 20
-0.21431634
 30
0.0
 11
0.0
 21
-0.5
 31
0.0
  0
ENDBLK
  5
21A
100
AcDbEntity
100
AcDbBlockEnd
  0
BLOCK
  5
21B
100
AcDbEntity
  8
0
100
AcDbBlockBegin
  2
CDWK_PTTYP36
 70
     0
 10
0.0
 20
0.0
 30
0.0
  3
CDWK_PTTYP36
  1

  4
Cadwork node
  0
LINE
  5
21C
100
AcDbEntity
  8
0
 62
     0
370
    -2
100
AcDbLine
 10
-0.5
 20
-0.16666667
 30
0.0
 11
0.5
 21
-0.16666667
 31
0.0
  0
LINE
  5
21D
100
AcDbEntity
  8
0
 62
     0
370
    -2
100
AcDbLine
 10
0.5
 20
-0.16666667
 30
0.0
 11
0.5
 21
0.16666667
 31
0.0
  0
LINE
  5
21E
100
AcDbEntity
  8
0
 62
     0
370
    -2
100
AcDbLine
 10
0.5
 20
0.16666667
 30
0.0
 11
-0.5
 21
0.16666667
 31
0.0
  0
LINE
  5
21F
100
AcDbEntity
  8
0
 62
     0
370
    -2
100
AcDbLine
 10
-0.5
 20
0.16666667
 30
0.0
 11
-0.5
 21
-0.16666667
 31
0.0
  0
SOLID
  5
220
100
AcDbEntity
  8
0
 62
     0
100
AcDbTrace
 10
-0.5
 20
-0.16666667
 11
0.5
 21
0.16666667
 12
0.5
 22
-0.16666667
 13
0.5
 23
-0.16666667
  0
ENDBLK
  5
221
100
AcDbEntity
100
AcDbBlockEnd
  0
BLOCK
  5
222
100
AcDbEntity
  8
0
100
AcDbBlockBegin
  2
CDWK_PTTYP37
 70
     0
 10
0.0
 20
0.0
 30
0.0
  3
CDWK_PTTYP37
  1

  4
Cadwork node
  0
CIRCLE
  5
223
100
AcDbEntity
  8
0
 62
     0
370
    -2
100
AcDbCircle
 10
0.0
 20
0.0
 30
0.0
 40
0.5
  0
SOLID
  5
224
100
AcDbEntity
  8
0
 62
     0
100
AcDbTrace
 10
0.0
 20
0.0
 11
0.35350001
 21
0.35350001
 12
0.5
 22
0.0
 13
0.46200001
 23
0.19149999
  0
SOLID
  5
225
100
AcDbEntity
  8
0
 62
     0
100
AcDbTrace
 10
0.0
 20
0.0
 11
0.35350001
 21
-0.35350001
 12
0.5
 22
0.0
 13
0.46200001
 23
-0.19149999
  0
SOLID
  5
226
100
AcDbEntity
  8
0
 62
     0
100
AcDbTrace
 10
0.0
 20
0.0
 11
0.0
 21
-0.5
 12
0.35350001
 22
-0.35350001
 13
0.19149999
 23
-0.46200001
  0
SOLID
  5
227
100
AcDbEntity
  8
0
 62
     0
100
AcDbTrace
 10
0.0
 20
0.0
 11
0.0
 21
-0.5
 12
-0.35350001
 22
-0.35350001
 13
-0.19149999
 23
-0.46200001
  0
ENDBLK
  5
228
100
AcDbEntity
100
AcDbBlockEnd
  0
BLOCK
  5
229
100
AcDbEntity
  8
0
100
AcDbBlockBegin
  2
CDWK_PTTYP38
 70
     0
 10
0.0
 20
0.0
 30
0.0
  3
CDWK_PTTYP38
  1

  4
Cadwork node
  0
CIRCLE
  5
22A
100
AcDbEntity
  8
0
 62
     0
370
    -2
100
AcDbCircle
 10
0.0
 20
0.0
 30
0.0
 40
0.5
  0
SOLID
  5
22B
100
AcDbEntity
  8
0
 62
     0
100
AcDbTrace
 10
0.0
 20
0.0
 11
0.35350001
 21
0.35350001
 12
0.0
 22
0.5
 13
0.19149999
 23
0.46200001
  0
SOLID
  5
22C
100
AcDbEntity
  8
0
 62
     0
100
AcDbTrace
 10
0.0
 20
0.0
 11
0.5
 21
0.0
 12
0.35350001
 22
0.35350001
 13
0.46200001
 23
0.19149999
  0
SOLID
  5
22D
100
AcDbEntity
  8
0
 62
     0
100
AcDbTrace
 10
0.0
 20
0.0
 11
0.0
 21
-0.5
 12
-0.35350001
 22
-0.35350001
 13
-0.19149999
 23
-0.46200001
  0
SOLID
  5
22E
100
AcDbEntity
  8
0
 62
     0
100
AcDbTrace
 10
0.0
 20
0.0
 11
-0.5
 21
0.0
 12
-0.35350001
 22
-0.35350001
 13
-0.46200001
 23
-0.19149999
  0
ENDBLK
  5
22F
100
AcDbEntity
100
AcDbBlockEnd
  0
ENDSEC
  0
SECTION
  2
ENTITIES
  0
LWPOLYLINE
  5
230
100
AcDbEntity
  8
Ech.1_5
 62
     7
  6
CONTINUOUS
370
    -3
100
AcDbPolyline
 90
        4
 70
     1
 43
0.0
 10
35455.45543689
 20
-41126.51705606
 10
35455.45543689
 20
-41066.51705606
 10
35413.45543689
 20
-41066.51705606
 10
35413.45543689
 20
-41126.51705606
  0
LWPOLYLINE
  5
231
100
AcDbEntity
  8
Ech.1_5
 62
   190
  6
CONTINUOUS
370
    -3
100
AcDbPolyline
 90
        4
 70
     0
 43
0.0
 10
35413.45543689
 20
-41126.51705606
 10
35455.45543689
 20
-41066.51705606
 10
35455.45543689
 20
-41126.51705606
 10
35413.45543689
 20
-41066.51705606
  0
LWPOLYLINE
  5
232
100
AcDbEntity
  8
Ech.1_5
 62
     5
  6
CONTINUOUS
370
    -3
100
AcDbPolyline
 90
        5
 70
     0
 43
0.0
 10
35455.45543689
 20
-41126.51705606
 10
35455.45543689
 20
-41066.51705606
 10
35413.45543689
 20
-41066.51705606
 10
35413.45543689
 20
-41126.51705606
 10
35455.45543689
 20
-41126.51705606
  0
LWPOLYLINE
  5
233
100
AcDbEntity
  8
Ech.1_5
 62
   190
  6
CONTINUOUS
370
    -3
100
AcDbPolyline
 90
       25
 70
     1
 43
0.0
 10
35450.08426799
 20
-40659.32493922
 10
35456.19318275
 20
-40682.1001225
 10
35479.92584705
 20
-40675.73438566
 10
35467.32158839
 20
-40623.53857871
 10
35457.87716993
 20
-40625.81921963
 10
35460.45486945
 20
-40636.49379483
 10
35443.50234912
 20
-40640.58749438
 10
35440.92464959
 20
-40629.91291917
 10
35431.48023113
 20
-40632.19356009
 10
35434.05793066
 20
-40642.8681353
 10
35410.99158188
 20
-40648.43820392
 10
35410.55473809
 20
-40646.62917934
 10
35410.49961337
 20
-40646.64249088
 10
35401.45728065
 20
-40609.19706346
 10
35397.80595731
 20
-40594.07647815
 10
35071.42569802
 20
-40672.89087819
 42
0.41421356
 10
35054.97787511
 20
-40699.81127028
 10
35059.2053785
 20
-40717.31788902
 10
35071.91442307
 20
-40769.9476275
 10
35092.21697641
 20
-40765.04496101
 10
35089.68372374
 20
-40754.55444578
 10
35105.46838081
 20
-40750.38362771
 10
35107.96379793
 20
-40760.7174612
 10
35118.42299576
 20
-40757.91202393
 10
35116.23976324
 20
-40748.87098582
  0
LWPOLYLINE
  5
234
100
AcDbEntity
  8
Ech.1_5
 62
   190
  6
CONTINUOUS
370
    -3
100
AcDbPolyline
 90
       26
 70
     1
 43
0.0
 10
35788.66945828
 20
-40536.0198026
 10
35794.77837305
 20
-40558.79498588
 10
35818.51103734
 20
-40552.42924904
 10
35805.90677868
 20
-40500.23344209
 10
35796.46236022
 20
-40502.51408301
 10
35799.04005975
 20
-40513.18865821
 10
35782.08753941
 20
-40517.28235776
 10
35779.50983988
 20
-40506.60778255
 10
35770.06542142
 20
-40508.88842347
 10
35772.64312095
 20
-40519.56299868
 10
35749.57677217
 20
-40525.1330673
 10
35749.1553169
 20
-40523.38776847
 10
35749.1073673
 20
-40523.39934735
 10
35740.06503459
 20
-40485.95391994
 10
35736.39832273
 20
-40470.76960888
 10
35410.01088831
 20
-40549.58574157
 42
0.41421356
 10
35393.5630654
 20
-40576.50613366
 10
35397.80595731
 20
-40594.07647815
 10
35397.86108204
 20
-40594.06316662
 10
35410.55473809
 20
-40646.62917934
 10
35430.8021667
 20
-40641.73982439
 10
35428.26891403
 20
-40631.24930916
 10
35444.0535711
 20
-40627.07849108
 10
35446.54898822
 20
-40637.41232458
 10
35457.00818605
 20
-40634.60688731
 10
35454.82495353
 20
-40625.56584919
  0
LWPOLYLINE
  5
235
100
AcDbEntity
  8
Ech.1_5
 62
   190
  6
CONTINUOUS
370
    -3
100
AcDbPolyline
 90
       23
 70
     1
 43
0.0
 10
36127.27721222
 20
-40412.77665907
 10
36133.38612698
 20
-40435.55184236
 10
36157.11879128
 20
-40429.18610552
 10
36144.51453262
 20
-40376.99029856
 10
36135.07011415
 20
-40379.27093948
 10
36137.64781368
 20
-40389.94551469
 10
36120.69529335
 20
-40394.03921423
 10
36118.11759382
 20
-40383.36463903
 10
36108.67317536
 20
-40385.64527995
 10
36111.25087489
 20
-40396.31985515
 10
36088.1845261
 20
-40401.88992377
 10
36075.05402627
 20
-40347.51488647
 10
35748.61864224
 20
-40426.34259804
 42
0.41421356
 10
35732.17081934
 20
-40453.26299013
 10
35736.39832273
 20
-40470.76960888
 10
35736.44627233
 20
-40470.75802999
 10
35749.1553169
 20
-40523.38776847
 10
35769.40992064
 20
-40518.49668086
 10
35766.87666797
 20
-40508.00616564
 10
35782.66132504
 20
-40503.83534756
 10
35785.15674216
 20
-40514.16918105
 10
35795.61593999
 20
-40511.36374378
 10
35793.43270747
 20
-40502.32270567
  0
LINE
  5
236
100
AcDbEntity
  8
Ech.1_5
 62
   190
  6
CONTINUOUS
370
    -3
100
AcDbLine
 10
34724.26433642
 20
-40855.74534361
 30
0.0
 11
35072.33587834
 21
-40771.69292633
 31
0.0
  0
LWPOLYLINE
  5
237
100
AcDbEntity
  8
Ech.1_5
 62
   190
  6
CONTINUOUS
370
    -3
100
AcDbPolyline
 90
       23
 70
     0
 43
0.0
 10
35119.26941599
 20
-40749.06236315
 10
35128.71383445
 20
-40746.78172223
 10
35141.31809311
 20
-40798.97752919
 10
35117.58542882
 20
-40805.34326603
 10
35111.47651406
 20
-40782.56808274
 10
34777.63200931
 20
-40872.11412934
 10
34779.81524182
 20
-40881.15516745
 10
34769.356044
 20
-40883.96060472
 10
34766.86062688
 20
-40873.62677123
 10
34751.07596981
 20
-40877.79758931
 10
34753.60922248
 20
-40888.28810453
 10
34733.30666914
 20
-40893.19077102
 10
34724.26433642
 20
-40855.74534361
 10
34716.37012118
 20
-40823.0544138
 42
-0.41421356
 10
34732.81794408
 20
-40796.13402171
 10
35059.2053785
 20
-40717.31788902
 10
35072.33587834
 20
-40771.69292633
 10
35095.45017672
 20
-40766.11127882
 10
35092.8724772
 20
-40755.43670362
 10
35102.31689566
 20
-40753.1560627
 10
35104.89459519
 20
-40763.8306379
 10
35121.84711552
 20
-40759.73693836
 10
35119.26941599
 20
-40749.06236315
  0
LINE
  5
238
100
AcDbEntity
  8
Ech.1_5
 62
   190
  6
CONTINUOUS
370
    -3
100
AcDbLine
 10
35062.87209036
 20
-40732.50220009
 30
0.0
 11
35410.94363228
 21
-40648.4497828
 31
0.0
  0
LWPOLYLINE
  5
239
100
AcDbEntity
  8
Ech.1_5
 62
   190
  6
CONTINUOUS
370
    -3
100
AcDbPolyline
 90
       23
 70
     0
 43
0.0
 10
35457.87716993
 20
-40625.81921963
 10
35467.32158839
 20
-40623.53857871
 10
35479.92584705
 20
-40675.73438566
 10
35456.19318275
 20
-40682.1001225
 10
35450.08426799
 20
-40659.32493922
 10
35116.23976324
 20
-40748.87098582
 10
35118.42299576
 20
-40757.91202393
 10
35107.96379793
 20
-40760.7174612
 10
35105.46838081
 20
-40750.38362771
 10
35089.68372374
 20
-40754.55444578
 10
35092.21697641
 20
-40765.04496101
 10
35071.91442307
 20
-40769.9476275
 10
35062.87209036
 20
-40732.50220009
 10
35054.97787511
 20
-40699.81127028
 42
-0.41421356
 10
35071.42569802
 20
-40672.89087819
 10
35397.86108204
 20
-40594.06316662
 10
35410.99158188
 20
-40648.43820392
 10
35434.05793066
 20
-40642.8681353
 10
35431.48023113
 20
-40632.19356009
 10
35440.92464959
 20
-40629.91291917
 10
35443.50234912
 20
-40640.58749438
 10
35460.45486945
 20
-40636.49379483
 10
35457.87716993
 20
-40625.81921963
  0
LINE
  5
23A
100
AcDbEntity
  8
Ech.1_5
 62
   190
  6
CONTINUOUS
370
    -3
100
AcDbLine
 10
35401.45728065
 20
-40609.19706346
 30
0.0
 11
35749.52882257
 21
-40525.14464618
 31
0.0
  0
LWPOLYLINE
  5
23B
100
AcDbEntity
  8
Ech.1_5
 62
   190
  6
CONTINUOUS
370
    -3
100
AcDbPolyline
 90
       23
 70
     0
 43
0.0
 10
35796.46236022
 20
-40502.51408301
 10
35805.90677868
 20
-40500.23344209
 10
35818.51103734
 20
-40552.42924904
 10
35794.77837305
 20
-40558.79498588
 10
35788.66945828
 20
-40536.0198026
 10
35454.82495353
 20
-40625.56584919
 10
35457.00818605
 20
-40634.60688731
 10
35446.54898822
 20
-40637.41232458
 10
35444.0535711
 20
-40627.07849108
 10
35428.26891403
 20
-40631.24930916
 10
35430.8021667
 20
-40641.73982439
 10
35410.49961337
 20
-40646.64249088
 10
35401.45728065
 20
-40609.19706346
 10
35393.5630654
 20
-40576.50613366
 42
-0.41421356
 10
35410.01088831
 20
-40549.58574157
 10
35736.44627233
 20
-40470.75802999
 10
35749.57677217
 20
-40525.1330673
 10
35772.64312095
 20
-40519.56299868
 10
35770.06542142
 20
-40508.88842347
 10
35779.50983988
 20
-40506.60778255
 10
35782.08753941
 20
-40517.28235776
 10
35799.04005975
 20
-40513.18865821
 10
35796.46236022
 20
-40502.51408301
  0
LINE
  5
23C
100
AcDbEntity
  8
Ech.1_5
 62
     7
100
AcDbLine
 10
35740.06503459
 20
-40485.95391994
 30
0.0
 11
36088.1365765
 21
-40401.90150266
 31
0.0
  0
LWPOLYLINE
  5
23D
100
AcDbEntity
  8
Ech.1_5
 62
   190
  6
CONTINUOUS
370
    -3
100
AcDbPolyline
 90
       23
 70
     0
 43
0.0
 10
36135.07011415
 20
-40379.27093948
 10
36144.51453262
 20
-40376.99029856
 10
36157.11879128
 20
-40429.18610552
 10
36133.38612698
 20
-40435.55184236
 10
36127.27721222
 20
-40412.77665907
 10
35793.43270747
 20
-40502.32270567
 10
35795.61593999
 20
-40511.36374378
 10
35785.15674216
 20
-40514.16918105
 10
35782.66132504
 20
-40503.83534756
 10
35766.87666797
 20
-40508.00616564
 10
35769.40992064
 20
-40518.49668086
 10
35749.1073673
 20
-40523.39934735
 10
35740.06503459
 20
-40485.95391994
 10
35732.17081934
 20
-40453.26299013
 42
-0.41421356
 10
35748.61864224
 20
-40426.34259804
 10
36075.05402627
 20
-40347.51488647
 10
36088.1845261
 20
-40401.88992377
 10
36111.25087489
 20
-40396.31985515
 10
36108.67317536
 20
-40385.64527995
 10
36118.11759382
 20
-40383.36463903
 10
36120.69529335
 20
-40394.03921423
 10
36137.64781368
 20
-40389.94551469
 10
36135.07011415
 20
-40379.27093948
  0
LINE
  5
23E
100
AcDbEntity
  8
Ech.1_5
 62
   190
  6
CONTINUOUS
370
    -3
100
AcDbLine
 10
35740.05785946
 20
-40485.95565259
 30
0.0
 11
36088.12940137
 21
-40401.90323531
 31
0.0
  0
LWPOLYLINE
  5
23F
100
AcDbEntity
  8
Ech.1_5
 62
     7
100
AcDbPolyline
 90
        5
 70
     0
 43
0.0
 10
35408.74558257
 20
-40674.60971814
 10
35446.3332874
 20
-40660.92891241
 10
35455.56783127
 20
-40686.30061317
 10
35417.98012643
 20
-40699.98141891
 10
35408.74558257
 20
-40674.60971814
  0
LWPOLYLINE
  5
240
100
AcDbEntity
  8
Ech.1_5
 62
   190
  6
CONTINUOUS
370
    -3
100
AcDbPolyline
 90
        6
 70
     1
 43
0.0
 10
36123.55713654
 20
-40414.32991499
 10
36132.77818585
 20
-40439.66453976
 10
36095.19185758
 20
-40453.34912757
 10
36089.46535085
 20
-40437.61567961
 10
36085.96943171
 20
-40428.01072072
 10
36089.46535085
 20
-40426.73831021
  0
LWPOLYLINE
  5
241
100
AcDbEntity
  8
Ech.1_5
 62
   190
  6
CONTINUOUS
370
    -3
100
AcDbPolyline
 90
        4
 70
     1
 43
0.0
 10
35784.95655774
 20
-40537.57132586
 10
35747.3688529
 20
-40551.25213159
 10
35756.60339677
 20
-40576.62383235
 10
35794.18972504
 20
-40562.93924455
  0
LWPOLYLINE
  5
242
100
AcDbEntity
  8
Ech.1_5
 62
   190
  6
CONTINUOUS
370
    -3
100
AcDbPolyline
 90
        4
 70
     1
 43
0.0
 10
35446.3332874
 20
-40660.92891241
 10
35408.79606518
 20
-40674.59134398
 10
35418.00804355
 20
-40699.90104656
 10
35455.54389106
 20
-40686.234838
  0
LWPOLYLINE
  5
243
100
AcDbEntity
  8
Ech.1_5
 62
   190
  6
CONTINUOUS
370
    -3
100
AcDbPolyline
 90
        4
 70
     1
 43
0.0
 10
35107.72553346
 20
-40784.17205594
 10
35070.13782863
 20
-40797.85286167
 10
35079.36220957
 20
-40823.19664002
 10
35116.94853784
 20
-40809.51205221
  0
LWPOLYLINE
  5
244
100
AcDbEntity
  8
Ech.1_5
 62
   190
  6
CONTINUOUS
370
    -3
100
AcDbPolyline
 90
        4
 70
     1
 43
0.0
 10
34824.13533892
 20
-40862.90591779
 10
34788.05880225
 20
-40872.58261214
 10
34788.07592665
 20
-40929.24770797
 10
34840.80689446
 20
-40910.04919638
  0
LWPOLYLINE
  5
245
100
AcDbEntity
  8
Ech.1_5
 62
   190
  6
CONTINUOUS
370
    -3
100
AcDbPolyline
 90
        4
 70
     0
 43
0.0
 10
34824.13533892
 20
-40862.90591779
 10
34788.07592668
 20
-40929.24779806
 10
34840.80438511
 20
-40910.05620869
 10
34788.05880225
 20
-40872.58261214
  0
LWPOLYLINE
  5
246
100
AcDbEntity
  8
Ech.1_5
 62
   190
  6
CONTINUOUS
370
    -3
100
AcDbPolyline
 90
        4
 70
     0
 43
0.0
 10
35107.72553346
 20
-40784.17205594
 10
35079.3723725
 20
-40823.22456243
 10
35116.96007733
 20
-40809.5437567
 10
35070.13782863
 20
-40797.85286167
  0
LWPOLYLINE
  5
247
100
AcDbEntity
  8
Ech.1_5
 62
   190
  6
CONTINUOUS
370
    -3
100
AcDbPolyline
 90
        4
 70
     0
 43
0.0
 10
35446.3332874
 20
-40660.92891241
 10
35417.98012643
 20
-40699.98141891
 10
35455.56783127
 20
-40686.30061317
 10
35408.74558257
 20
-40674.60971814
  0
LWPOLYLINE
  5
248
100
AcDbEntity
  8
Ech.1_5
 62
   190
  6
CONTINUOUS
370
    -3
100
AcDbPolyline
 90
        4
 70
     0
 43
0.0
 10
35784.91847769
 20
-40537.62377579
 10
35756.56531673
 20
-40576.67628228
 10
35794.15302156
 20
-40562.99547655
 10
35747.33077286
 20
-40551.30458152
  0
LWPOLYLINE
  5
249
100
AcDbEntity
  8
Ech.1_5
 62
   190
  6
CONTINUOUS
370
    -3
100
AcDbPolyline
 90
        4
 70
     0
 43
0.0
 10
36123.51905649
 20
-40414.38236492
 10
36095.16589553
 20
-40453.43487141
 10
36132.75360036
 20
-40439.75406568
 10
36085.93135166
 20
-40428.06317065
  0
LWPOLYLINE
  5
24A
100
AcDbEntity
  8
Ech.1_5
 62
   190
  6
CONTINUOUS
370
    -3
100
AcDbPolyline
 90
       23
 70
     1
 43
0.0
 10
35111.47651406
 20
-40782.56808274
 10
35117.58542882
 20
-40805.34326603
 10
35141.31809311
 20
-40798.97752919
 10
35128.71383445
 20
-40746.78172223
 10
35119.26941599
 20
-40749.06236315
 10
35121.84711552
 20
-40759.73693836
 10
35104.89459519
 20
-40763.8306379
 10
35102.31689566
 20
-40753.1560627
 10
35092.8724772
 20
-40755.43670362
 10
35095.45017672
 20
-40766.11127882
 10
35072.33587834
 20
-40771.69292633
 10
35062.87209036
 20
-40732.50220009
 10
35059.2053785
 20
-40717.31788902
 10
34732.81794408
 20
-40796.13402171
 42
0.41421356
 10
34716.37012118
 20
-40823.0544138
 10
34724.26433642
 20
-40855.74534361
 10
34733.30666914
 20
-40893.19077102
 10
34753.60922248
 20
-40888.28810453
 10
34751.07596981
 20
-40877.79758931
 10
34766.86062688
 20
-40873.62677123
 10
34769.356044
 20
-40883.96060472
 10
34779.81524182
 20
-40881.15516745
 10
34777.63200931
 20
-40872.11412934
  0
LWPOLYLINE
  5
24B
100
AcDbEntity
  8
Ech.1_5
 62
   190
  6
CONTINUOUS
370
    -3
100
AcDbPolyline
 90
        4
 70
     1
 43
0.0
 10
34779.02754732
 20
-41103.51705606
 10
35222.32275013
 20
-41103.51705606
 10
35222.32275013
 20
-41093.51705606
 10
34779.02754732
 20
-41093.51705606
  0
LWPOLYLINE
  5
24C
100
AcDbEntity
  8
Ech.1_5
 62
   190
  6
CONTINUOUS
370
    -3
100
AcDbPolyline
 90
        4
 70
     1
 43
0.0
 10
36380.70919227
 20
-41175.02540493
 10
35418.58032338
 20
-41175.02540493
 10
35418.58032338
 20
-41188.02540493
 10
36380.70919227
 20
-41188.02540493
  0
LWPOLYLINE
  5
24D
100
AcDbEntity
  8
Ech.1_5
 62
   190
  6
CONTINUOUS
370
    -3
100
AcDbPolyline
 90
        4
 70
     1
 43
0.0
 10
36378.86115904
 20
-41066.51705606
 10
36378.86115904
 20
-40966.51705606
 10
34782.25489874
 20
-40966.51705606
 10
34782.25489874
 20
-41066.51705606
  0
LWPOLYLINE
  5
24E
100
AcDbEntity
  8
Ech.1_5
 62
   190
  6
CONTINUOUS
370
    -3
100
AcDbPolyline
 90
        4
 70
     1
 43
0.0
 10
35373.40133298
 20
-40851.35734991
 10
35273.40133298
 20
-40887.75437334
 10
35273.40133298
 20
-40966.51705606
 10
35373.40133298
 20
-40966.51705606
  0
LWPOLYLINE
  5
24F
100
AcDbEntity
  8
Ech.1_5
 62
   190
  6
CONTINUOUS
370
    -3
100
AcDbPolyline
 90
        9
 70
     1
 43
0.0
 10
35131.35751778
 20
-40833.03631678
 10
34782.25489874
 20
-40960.09927882
 10
34782.25489874
 20
-40966.51705606
 10
35057.00264068
 20
-40966.51705606
 10
35131.35751778
 20
-40939.45409403
 10
35931.46013683
 20
-40648.24055634
 10
36378.86115904
 20
-40485.39990147
 10
36378.86115904
 20
-40378.98212422
 10
35931.46013683
 20
-40541.82277909
  0
LWPOLYLINE
  5
250
100
AcDbEntity
  8
Ech.1_5
 62
   190
  6
CONTINUOUS
370
    -3
100
AcDbPolyline
 90
        4
 70
     1
 43
0.0
 10
35287.45679217
 20
-40966.51705258
 10
36380.70919227
 20
-40966.51705258
 10
36380.70919227
 20
-41066.51705258
 10
35287.45679217
 20
-41066.51705258
  0
LWPOLYLINE
  5
251
100
AcDbEntity
  8
Ech.1_5
 62
   190
  6
CONTINUOUS
370
    -3
100
AcDbPolyline
 90
        4
 70
     1
 43
0.0
 10
36378.86115904
 20
-40378.80084845
 10
36378.86115904
 20
-40350.0680486
 10
34788.07592668
 20
-40929.24779806
 10
34797.31047055
 20
-40954.61949882
  0
LWPOLYLINE
  5
252
100
AcDbEntity
  8
Ech.1_5
 62
     7
100
AcDbPolyline
 90
       57
 70
     0
 43
0.0
 10
34693.94739105
 20
-41049.70165628
 10
34695.34247821
 20
-41049.49893006
 10
34696.73867278
 20
-41049.29428998
 10
34698.13708215
 20
-41049.08582215
 10
34699.53881374
 20
-41048.87161272
 10
34700.94497495
 20
-41048.64974781
 10
34702.35667318
 20
-41048.41831356
 10
34703.77501585
 20
-41048.17539609
 10
34705.20111034
 20
-41047.91908155
 10
34706.63606408
 20
-41047.64745605
 10
34708.08098446
 20
-41047.35860573
 10
34709.53697888
 20
-41047.05061673
 10
34711.00515476
 20
-41046.72157516
 10
34712.4866195
 20
-41046.36956718
 10
34713.9824805
 20
-41045.99267889
 10
34715.49382574
 20
-41045.5890411
 10
34717.01988945
 20
-41045.16104515
 10
34718.55654625
 20
-41044.718804
 10
34720.09931632
 20
-41044.27324521
 10
34721.64371986
 20
-41043.83529633
 10
34723.18527707
 20
-41043.4158849
 10
34724.71950813
 20
-41043.02593848
 10
34726.24193323
 20
-41042.67638462
 10
34727.74807258
 20
-41042.37815085
 10
34729.23344636
 20
-41042.14216474
 10
34730.69357477
 20
-41041.97935383
 10
34732.12397799
 20
-41041.90064566
 10
34733.52017623
 20
-41041.9169678
 10
34734.87768967
 20
-41042.03924778
 10
34736.1920385
 20
-41042.27841316
 10
34737.45874293
 20
-41042.64539148
 10
34738.67332401
 20
-41043.15110656
 10
34739.83249817
 20
-41043.80135831
 10
34740.9365466
 20
-41044.58666628
 10
34741.98641208
 20
-41045.49471415
 10
34742.98303738
 20
-41046.51318563
 10
34743.92736526
 20
-41047.62976442
 10
34744.82033851
 20
-41048.83213424
 10
34745.66289988
 20
-41050.10797878
 10
34746.45599216
 20
-41051.44498174
 10
34747.20055811
 20
-41052.83082684
 10
34747.89754051
 20
-41054.25319777
 10
34748.54788212
 20
-41055.69977824
 10
34749.15252571
 20
-41057.15825195
 10
34749.71241407
 20
-41058.6163026
 10
34750.2285262
 20
-41060.06188072
 10
34750.70285524
 20
-41061.49040174
 10
34751.13852017
 20
-41062.90556829
 10
34751.5386986
 20
-41064.31151483
 10
34751.90656818
 20
-41065.71237581
 10
34752.24530653
 20
-41067.11228567
 10
34752.55809128
 20
-41068.51537886
 10
34752.84810006
 20
-41069.92578985
 10
34753.11852916
 20
-41071.34757725
 10
34753.37339305
 20
-41072.7814748
 10
34753.61782623
 20
-41074.22366492
 10
34753.85704404
 20
-41075.67000133
  0
ARC
  5
253
100
AcDbEntity
  8
Ech.1_5
 62
     7
100
AcDbCircle
 10
34685.24655622
 20
-40982.47246253
 30
0.0
 40
67.78988877
100
AcDbArc
 50
176.81519387
 51
17.9333216
  0
LINE
  5
254
100
AcDbEntity
  8
Ech.1_5
 62
     7
100
AcDbLine
 10
34782.25489874
 20
-41066.51705606
 30
0.0
 11
34866.18611296
 21
-41066.51705606
 31
0.0
  0
LINE
  5
255
100
AcDbEntity
  8
Ech.1_5
 62
     7
100
AcDbLine
 10
34796.23816603
 20
-40952.50272058
 30
0.0
 11
34738.974457
 21
-40960.03175304
 31
0.0
  0
LINE
  5
256
100
AcDbEntity
  8
Ech.1_5
 62
     7
100
AcDbLine
 10
34796.71621891
 20
-40954.45707911
 30
0.0
 11
34740.974457
 21
-40961.78600596
 31
0.0
  0
LINE
  5
257
100
AcDbEntity
  8
Ech.1_5
 62
     7
100
AcDbLine
 10
34738.974457
 20
-40960.03175304
 30
0.0
 11
34738.974457
 21
-40988.63957264
 31
0.0
  0
LINE
  5
258
100
AcDbEntity
  8
Ech.1_5
 62
     7
100
AcDbLine
 10
34740.974457
 20
-40961.78600596
 30
0.0
 11
34740.974457
 21
-40983.37847583
 31
0.0
  0
LINE
  5
259
100
AcDbEntity
  8
Ech.1_5
 62
     7
100
AcDbLine
 10
34748.44839786
 20
-40961.59927882
 30
0.0
 11
34760.25489874
 21
-40961.59927882
 31
0.0
  0
ARC
  5
25A
100
AcDbEntity
  8
Ech.1_5
 62
     7
100
AcDbCircle
 10
34757.2353697
 20
-41075.05562387
 30
0.0
 40
3.43373615
100
AcDbArc
 50
190.3070861
 51
331.56661712
  0
LINE
  5
25B
100
AcDbEntity
  8
Ech.1_5
 62
     7
100
AcDbLine
 10
34847.32703879
 20
-40933.90789159
 30
0.0
 11
34848.01107908
 21
-40935.78727683
 31
0.0
  0
LINE
  5
25C
100
AcDbEntity
  8
Ech.1_5
 62
     7
100
AcDbLine
 10
34796.23816603
 20
-40952.50272058
 30
0.0
 11
34847.32703879
 21
-40933.90789159
 31
0.0
  0
LINE
  5
25D
100
AcDbEntity
  8
Ech.1_5
 62
     7
100
AcDbLine
 10
35262.37111924
 20
-41064.91634932
 30
0.0
 11
35304.37111924
 21
-41064.91634932
 31
0.0
  0
LINE
  5
25E
100
AcDbEntity
  8
Ech.1_5
 62
     7
100
AcDbLine
 10
35307.73422464
 20
-41066.51705606
 30
0.0
 11
35464.94223651
 21
-41066.51705606
 31
0.0
  0
LWPOLYLINE
  5
25F
100
AcDbEntity
  8
Ech.1_5
100
AcDbPolyline
 90
        5
 70
     0
 43
0.0
 10
36378.86115904
 20
-40378.80084845
 10
36378.86115904
 20
-40350.0680486
 10
34788.07592668
 20
-40929.24779806
 10
34797.31047055
 20
-40954.61949882
 10
36378.86115904
 20
-40378.80084845
  0
LWPOLYLINE
  5
260
102
{ACAD_REACTORS
330
261
102
}
100
AcDbEntity
  8
Ech.1_5
 62
     7
  6
CONTINUOUS
100
AcDbPolyline
 90
        3
 70
     1
 43
0.0
 10
34857.89972392
 20
-40906.68396809
 10
34879.67519944
 20
-40901.85974688
 10
34860.64138894
 20
-40913.48551576
  0
HATCH
  5
261
100
AcDbEntity
  8
Ech.1_5
 62
     7
  6
CONTINUOUS
100
AcDbHatch
 10
0.0
 20
0.0
 30
0.0
210
0.0
220
0.0
230
1.0
  2
SOLID
 70
     1
 71
     1
 91
        1
 92
        7
 72
     0
 73
     1
 93
        3
 10
34857.89972392
 20
-40906.68396809
 10
34879.67519944
 20
-40901.85974688
 10
34860.64138894
 20
-40913.48551576
 97
        1
330
260
 75
     0
 76
     2
 47
0.775229
 98
        1
 10
0.0
 20
0.0
  0
ARC
  5
262
100
AcDbEntity
  8
Ech.1_5
 62
     7
100
AcDbCircle
 10
35227.64828533
 20
-41733.11348464
 30
0.0
 40
901.70863502
100
AcDbArc
 50
114.11271308
 51
118.22750414
  0
ARC
  5
263
100
AcDbEntity
  8
Ech.1_5
 62
     7
100
AcDbCircle
 10
34753.0517906
 20
-40845.01909062
 30
0.0
 40
105.25912681
100
AcDbArc
 50
263.48671375
 51
297.1989192
  0
LWPOLYLINE
  5
264
100
AcDbEntity
  8
Ech.1_5
 62
     7
100
AcDbPolyline
 90
        2
 70
     1
 43
0.0
 10
35334.36427367
 20
-41021.63355147
 42
1.0
 10
35334.36427367
 20
-41020.01775201
 42
1.0
  0
LWPOLYLINE
  5
265
100
AcDbEntity
  8
Ech.1_5
 62
     7
100
AcDbPolyline
 90
        2
 70
     1
 43
0.0
 10
35334.36427367
 20
-41036.960391
 42
1.0
 10
35334.36427367
 20
-41035.34459154
 42
1.0
  0
LWPOLYLINE
  5
266
100
AcDbEntity
  8
Ech.1_5
 62
     7
100
AcDbPolyline
 90
        2
 70
     1
 43
0.0
 10
35312.14141097
 20
-41036.960391
 42
1.0
 10
35312.14141097
 20
-41035.34459154
 42
1.0
  0
LWPOLYLINE
  5
267
100
AcDbEntity
  8
Ech.1_5
 62
     7
100
AcDbPolyline
 90
        2
 70
     1
 43
0.0
 10
35312.14141097
 20
-41021.63355147
 42
1.0
 10
35312.14141097
 20
-41020.01775201
 42
1.0
  0
LWPOLYLINE
  5
268
100
AcDbEntity
  8
Ech.1_5
 62
     7
100
AcDbPolyline
 90
        2
 70
     1
 43
0.0
 10
35323.75263084
 20
-41045.09213671
 42
1.0
 10
35323.75263084
 20
-41043.47633726
 42
1.0
  0
LWPOLYLINE
  5
269
100
AcDbEntity
  8
Ech.1_5
 62
     7
100
AcDbPolyline
 90
        2
 70
     1
 43
0.0
 10
35323.75263084
 20
-41029.76529719
 42
1.0
 10
35323.75263084
 20
-41028.14949773
 42
1.0
  0
LWPOLYLINE
  5
26A
102
{ACAD_REACTORS
330
26B
102
}
100
AcDbEntity
  8
Ech.1_5
 62
     7
  6
CONTINUOUS
370
    -3
100
AcDbPolyline
 90
        4
 70
     1
 43
0.0
 10
35418.58032338
 20
-41175.02556743
 10
35418.58032338
 20
-41188.02556743
 10
36380.70919227
 20
-41188.02540493
 10
36380.70919227
 20
-41175.02540493
  0
HATCH
  5
26B
100
AcDbEntity
  8
Ech.1_5
 62
   190
  6
CONTINUOUS
100
AcDbHatch
 10
0.0
 20
0.0
 30
0.0
210
0.0
220
0.0
230
1.0
  2
DOTS2
 70
     0
 71
     1
 91
        1
 92
        7
 72
     0
 73
     1
 93
        4
 10
35418.58032338
 20
-41175.02556743
 10
35418.58032338
 20
-41188.02556743
 10
36380.70919227
 20
-41188.02540493
 10
36380.70919227
 20
-41175.02540493
 97
        1
330
26A
 75
     0
 76
     2
 52
0.0
 41
4.72440952
 77
     0
 78
     1
 53
0.0
 43
0.0
 44
0.0
 45
3.75
 46
3.535
 79
     2
 49
0.0
 49
-3.535
 47
0.775229
 98
        1
 10
0.0
 20
0.0
  0
LWPOLYLINE
  5
26C
100
AcDbEntity
  8
Ech.1_5
 62
     7
  6
CONTINUOUS
370
    -3
100
AcDbPolyline
 90
        4
 70
     1
 43
0.0
 10
35418.58032338
 20
-41175.02540493
 10
35418.58032338
 20
-41188.02540493
 10
36380.70919227
 20
-41188.02540493
 10
36380.70919227
 20
-41175.02540493
  0
LWPOLYLINE
  5
26D
102
{ACAD_REACTORS
330
26E
102
}
100
AcDbEntity
  8
Ech.1_5
 62
     7
  6
CONTINUOUS
370
    -3
100
AcDbPolyline
 90
        4
 70
     1
 43
0.0
 10
34779.02754732
 20
-41103.51705606
 10
35222.32275013
 20
-41103.51705606
 10
35222.32275013
 20
-41093.51705606
 10
34779.02754732
 20
-41093.51705606
  0
HATCH
  5
26E
100
AcDbEntity
  8
Ech.1_5
 62
   190
  6
CONTINUOUS
100
AcDbHatch
 10
0.0
 20
0.0
 30
0.0
210
0.0
220
0.0
230
1.0
  2
ANSI37
 70
     0
 71
     1
 91
        1
 92
        7
 72
     0
 73
     1
 93
        4
 10
34779.02754732
 20
-41103.51705606
 10
35222.32275013
 20
-41103.51705606
 10
35222.32275013
 20
-41093.51705606
 10
34779.02754732
 20
-41093.51705606
 97
        1
330
26D
 75
     0
 76
     2
 52
0.0
 41
1.88976388
 77
     0
 78
     2
 53
45.0
 43
0.0
 44
0.0
 45
4.24264086
 46
-4.24264086
 79
     0
 53
-45.0
 43
0.0
 44
0.0
 45
4.24264086
 46
4.24264086
 79
     0
 47
0.775229
 98
        1
 10
0.0
 20
0.0
  0
LWPOLYLINE
  5
26F
100
AcDbEntity
  8
Ech.1_5
100
AcDbPolyline
 90
        5
 70
     0
 43
0.0
 10
34779.02754732
 20
-41103.51705606
 10
35222.32275013
 20
-41103.51705606
 10
35222.32275013
 20
-41093.51705606
 10
34779.02754732
 20
-41093.51705606
 10
34779.02754732
 20
-41103.51705606
  0
LWPOLYLINE
  5
270
100
AcDbEntity
  8
Ech.1_5
100
AcDbPolyline
 90
        4
 70
     0
 43
0.0
 10
36378.86115904
 20
-41066.51705606
 10
34782.25489874
 20
-41066.51705606
 10
34782.25489874
 20
-40966.51705606
 10
36378.86115904
 20
-40966.51705606
  0
LWPOLYLINE
  5
271
100
AcDbEntity
  8
Ech.1_5
100
AcDbPolyline
 90
        5
 70
     0
 43
0.0
 10
35373.40133298
 20
-40851.35734991
 10
35273.40133298
 20
-40887.75437334
 10
35273.40133298
 20
-40966.51705606
 10
35373.40133298
 20
-40966.51705606
 10
35373.40133298
 20
-40851.35734991
  0
LWPOLYLINE
  5
272
100
AcDbEntity
  8
Ech.1_5
 62
   190
  6
CONTINUOUS
370
    -3
100
AcDbPolyline
 90
        5
 70
     1
 43
0.0
 10
35233.25489874
 20
-41066.51705606
 10
35278.25489874
 20
-41066.51705606
 10
35278.25489874
 20
-40976.51705606
 10
35254.67353973
 20
-40976.51705606
 10
35233.25489874
 20
-40976.51705606
  0
LWPOLYLINE
  5
273
100
AcDbEntity
  8
Ech.1_5
 62
   190
  6
CONTINUOUS
370
    -3
100
AcDbPolyline
 90
        4
 70
     0
 43
0.0
 10
35233.25489874
 20
-41066.51705606
 10
35278.25489874
 20
-40976.51705606
 10
35233.25489874
 20
-40976.51705606
 10
35278.25489874
 20
-41066.51705606
  0
LWPOLYLINE
  5
274
100
AcDbEntity
  8
Ech.1_5
370
    50
100
AcDbPolyline
 90
        3
 70
     0
 43
0.0
 10
35418.58032338
 20
-41150.59582109
 10
35418.58032338
 20
-41173.67433799
 10
35444.4425079
 20
-41173.67433799
  0
LWPOLYLINE
  5
275
100
AcDbEntity
  8
Ech.1_5
 62
   190
100
AcDbPolyline
 90
        4
 70
     0
 43
0.0
 10
35278.45674904
 20
-41064.91634932
 10
35278.45674904
 20
-40801.34466444
 10
35287.45674911
 20
-40801.34466444
 10
35287.45679157
 20
-41064.91634932
  0
LWPOLYLINE
  5
276
102
{ACAD_REACTORS
330
277
102
}
100
AcDbEntity
  8
Ech.1_5
 62
     9
  6
CONTINUOUS
370
    -3
100
AcDbPolyline
 90
        9
 70
     1
 43
0.0
 10
34848.01107908
 20
-40935.78727683
 10
34847.32703879
 20
-40933.90789159
 10
34796.23816603
 20
-40952.50272058
 10
34738.974457
 20
-40960.03175304
 10
34738.974457
 20
-40988.63957264
 10
34743.69118304
 20
-40983.37847583
 10
34740.974457
 20
-40983.37847583
 10
34740.974457
 20
-40961.78600596
 10
34796.71621891
 20
-40954.45707911
  0
HATCH
  5
277
100
AcDbEntity
  8
Ech.1_5
 62
     9
  6
CONTINUOUS
100
AcDbHatch
 10
0.0
 20
0.0
 30
0.0
210
0.0
220
0.0
230
1.0
  2
SOLID
 70
     1
 71
     1
 91
        1
 92
        7
 72
     0
 73
     1
 93
        9
 10
34848.01107908
 20
-40935.78727683
 10
34847.32703879
 20
-40933.90789159
 10
34796.23816603
 20
-40952.50272058
 10
34738.974457
 20
-40960.03175304
 10
34738.974457
 20
-40988.63957264
 10
34743.69118304
 20
-40983.37847583
 10
34740.974457
 20
-40983.37847583
 10
34740.974457
 20
-40961.78600596
 10
34796.71621891
 20
-40954.45707911
 97
        1
330
276
 75
     0
 76
     2
 47
0.775229
 98
        1
 10
0.0
 20
0.0
  0
LWPOLYLINE
  5
278
100
AcDbEntity
  8
Ech.1_5
100
AcDbPolyline
 90
       10
 70
     0
 43
0.0
 10
34848.01107908
 20
-40935.78727683
 10
34847.32703879
 20
-40933.90789159
 10
34796.23816603
 20
-40952.50272058
 10
34738.974457
 20
-40960.03175304
 10
34738.974457
 20
-40988.63957264
 10
34743.69118304
 20
-40983.37847583
 10
34740.974457
 20
-40983.37847583
 10
34740.974457
 20
-40961.78600596
 10
34796.71621891
 20
-40954.45707911
 10
34848.01107908
 20
-40935.78727683
  0
LWPOLYLINE
  5
279
100
AcDbEntity
  8
Ech.1_5
 62
     7
  6
CONTINUOUS
370
    -3
100
AcDbPolyline
 90
        4
 70
     1
 43
0.0
 10
35926.140183
 20
-41126.51705606
 10
35926.140183
 20
-41066.51705606
 10
35884.140183
 20
-41066.51705606
 10
35884.140183
 20
-41126.51705606
  0
LWPOLYLINE
  5
27A
100
AcDbEntity
  8
Ech.1_5
 62
   190
  6
CONTINUOUS
370
    -3
100
AcDbPolyline
 90
        4
 70
     0
 43
0.0
 10
35884.140183
 20
-41126.51705606
 10
35926.140183
 20
-41066.51705606
 10
35926.140183
 20
-41126.51705606
 10
35884.140183
 20
-41066.51705606
  0
LWPOLYLINE
  5
27B
100
AcDbEntity
  8
Ech.1_5
100
AcDbPolyline
 90
        4
 70
     0
 43
0.0
 10
36380.70919227
 20
-41175.02540493
 10
35418.58032338
 20
-41175.02540493
 10
35418.58032338
 20
-41150.34323483
 10
36380.70919227
 20
-41150.34323483
  0
LWPOLYLINE
  5
27C
100
AcDbEntity
  8
Ech.1_5
100
AcDbPolyline
 90
        5
 70
     0
 43
0.0
 10
36380.70919227
 20
-41175.02540493
 10
35418.58032338
 20
-41175.02540493
 10
35418.58032338
 20
-41188.02540493
 10
36380.70919227
 20
-41188.02540493
 10
36380.70919227
 20
-41175.02540493
  0
LWPOLYLINE
  5
27D
100
AcDbEntity
  8
Ech.1_5
 62
   190
  6
CONTINUOUS
370
    -3
100
AcDbPolyline
 90
       10
 70
     1
 43
0.0
 10
34760.25489874
 20
-40960.09927882
 10
34760.25489874
 20
-41116.29480869
 42
-0.41421356
 10
34773.11892384
 20
-41129.15883379
 10
34782.25489874
 20
-41129.15883379
 10
34782.25489874
 20
-41107.85419044
 10
34775.97093927
 20
-41107.85419044
 10
34775.97093927
 20
-41096.78847007
 10
34775.97093927
 20
-41093.51705606
 10
34782.25489874
 20
-41093.51705606
 10
34782.25489874
 20
-40960.09927882
  0
LWPOLYLINE
  5
27E
100
AcDbEntity
  8
Ech.1_5
 62
   190
  6
CONTINUOUS
370
    -3
100
AcDbPolyline
 90
        4
 70
     1
 43
0.0
 10
34796.45736934
 20
-41066.51705606
 10
34836.45736934
 20
-41066.51705606
 10
34836.45736934
 20
-41093.51705606
 10
34796.45736934
 20
-41093.51705606
  0
LWPOLYLINE
  5
27F
100
AcDbEntity
  8
Ech.1_5
 62
   190
  6
CONTINUOUS
370
    -3
100
AcDbPolyline
 90
        4
 70
     0
 43
0.0
 10
34836.45736934
 20
-41066.51705606
 10
34796.45736934
 20
-41093.51705606
 10
34836.45736934
 20
-41093.51705606
 10
34796.45736934
 20
-41066.51705606
  0
LWPOLYLINE
  5
280
100
AcDbEntity
  8
Ech.1_5
 62
   190
  6
CONTINUOUS
370
    -3
100
AcDbPolyline
 90
        4
 70
     1
 43
0.0
 10
35120.93506883
 20
-41066.51705606
 10
35160.93506883
 20
-41066.51705606
 10
35160.93506883
 20
-41093.51705606
 10
35120.93506883
 20
-41093.51705606
  0
LWPOLYLINE
  5
281
100
AcDbEntity
  8
Ech.1_5
 62
   190
  6
CONTINUOUS
370
    -3
100
AcDbPolyline
 90
        4
 70
     0
 43
0.0
 10
35160.93506883
 20
-41066.51705606
 10
35120.93506883
 20
-41093.51705606
 10
35160.93506883
 20
-41093.51705606
 10
35120.93506883
 20
-41066.51705606
  0
LINE
  5
282
100
AcDbEntity
  8
Ech.1_5
 62
   140
100
AcDbLine
 10
35224.25685727
 20
-41066.51705606
 30
0.0
 11
35271.69751854
 21
-41066.51705606
 31
0.0
  0
LWPOLYLINE
  5
283
100
AcDbEntity
  8
Ech.1_5
100
AcDbPolyline
 90
        5
 70
     0
 43
0.0
 10
35302.25284232
 20
-41010.91633431
 10
35344.25284232
 20
-41010.91633963
 10
35344.25284232
 20
-41066.51706576
 10
35302.25284232
 20
-41066.51704637
 10
35302.25284232
 20
-41010.91633963
  0
LWPOLYLINE
  5
284
100
AcDbEntity
  8
Ech.1_5
 62
     3
370
    70
100
AcDbPolyline
 90
        4
 70
     0
 43
0.0
 10
35416.59224216
 20
-41126.16836444
 10
35416.59224216
 20
-41113.17923102
 10
35422.27285512
 20
-41109.24449888
 10
35422.27285512
 20
-41095.76606888
  0
LWPOLYLINE
  5
285
100
AcDbEntity
  8
Ech.1_5
 62
   190
  6
CONTINUOUS
370
    -3
100
AcDbPolyline
 90
        5
 70
     0
 43
0.0
 10
35287.45679217
 20
-40966.51705258
 10
36380.70919227
 20
-40966.51705258
 10
36380.70919227
 20
-41066.51705258
 10
35287.45679217
 20
-41066.51705258
 10
35287.45679217
 20
-40966.51705258
  0
ARC
  5
286
100
AcDbEntity
  8
Ech.1_5
 62
     7
100
AcDbCircle
 10
34684.44038098
 20
-40974.61309946
 30
0.0
 40
62.81757614
100
AcDbArc
 50
180.12287567
 51
11.68289665
  0
ARC
  5
287
100
AcDbEntity
  8
Ech.1_5
 62
     7
100
AcDbCircle
 10
34684.44038098
 20
-40974.61309946
 30
0.0
 40
65.31757614
100
AcDbArc
 50
182.93511954
 51
11.68289665
  0
CIRCLE
  5
288
100
AcDbEntity
  8
Ech.1_5
 62
     7
100
AcDbCircle
 10
34615.96331479
 20
-40973.00366923
 30
0.0
 40
5.9222896
  0
LINE
  5
289
100
AcDbEntity
  8
Ech.1_5
 62
     7
100
AcDbLine
 10
34957.17997144
 20
-41066.51705606
 30
0.0
 11
35233.25489874
 21
-41066.51705606
 31
0.0
  0
LINE
  5
28A
100
AcDbEntity
  8
Ech.1_5
 62
     7
100
AcDbLine
 10
34872.95710984
 20
-41066.51705606
 30
0.0
 11
34957.17997144
 21
-41066.51705606
 31
0.0
  0
LINE
  5
28B
100
AcDbEntity
  8
Ech.1_5
 62
     7
100
AcDbLine
 10
34745.9565843
 20
-40961.89285571
 30
0.0
 11
34748.40479255
 21
-40961.38661827
 31
0.0
  0
LINE
  5
28C
100
AcDbEntity
  8
Ech.1_5
 62
     7
100
AcDbLine
 10
35236.75163643
 20
-41066.51705606
 30
0.0
 11
35261.98299643
 21
-41066.51705606
 31
0.0
  0
LWPOLYLINE
  5
28D
100
AcDbEntity
  8
Ech.1_5
 62
     7
100
AcDbPolyline
 90
        5
 70
     0
 43
0.0
 10
35309.51249047
 20
-41064.01668316
 42
-1.0
 10
35314.86931692
 20
-41064.01668316
 10
35314.86931692
 20
-41045.43520002
 42
1.0
 10
35309.51249047
 20
-41045.43520002
 10
35309.51249047
 20
-41064.01668316
  0
LWPOLYLINE
  5
28E
100
AcDbEntity
  8
Ech.1_5
 62
     7
100
AcDbPolyline
 90
        5
 70
     0
 43
0.0
 10
35336.99319416
 20
-41064.01668316
 10
35336.99319416
 20
-41045.43520002
 42
1.0
 10
35331.63636772
 20
-41045.43520002
 10
35331.63636772
 20
-41064.01668316
 42
-1.0
 10
35336.99319416
 20
-41064.01668316
  0
LWPOLYLINE
  5
28F
100
AcDbEntity
  8
Ech.1_5
 62
     7
100
AcDbPolyline
 90
       12
 70
     0
 43
0.0
 10
34760.25489874
 20
-40987.09927882
 10
34760.25489874
 20
-41116.29480869
 42
-0.41421356
 10
34773.11892384
 20
-41129.15883379
 10
34782.25489874
 20
-41129.15883379
 10
34782.25489874
 20
-41107.85419044
 10
34775.97093927
 20
-41107.85419044
 10
34775.97093927
 20
-41096.78847007
 10
34775.97093927
 20
-41093.51705606
 10
34782.25489874
 20
-41093.51705606
 10
34782.25489874
 20
-40960.09927882
 10
34760.25489874
 20
-40960.09927882
 10
34760.25489874
 20
-41090.45877525
  0
LINE
  5
290
100
AcDbEntity
  8
Ech.1_5
 62
     7
100
AcDbLine
 10
34790.06188943
 20
-40871.5909244
 30
0.0
 11
34789.9247116
 21
-40871.61447749
 31
0.0
  0
LINE
  5
291
100
AcDbEntity
  8
Ech.1_5
 62
     7
100
AcDbLine
 10
34739.00509718
 20
-40988.60539618
 30
0.0
 11
34743.69118304
 21
-40983.37847583
 31
0.0
  0
LINE
  5
292
100
AcDbEntity
  8
Ech.1_5
 62
     7
100
AcDbLine
 10
34741.00509718
 20
-40983.37847583
 30
0.0
 11
34743.69118304
 21
-40983.37847583
 31
0.0
  0
LWPOLYLINE
  5
293
100
AcDbEntity
  8
Ech.1_5
 62
   190
  6
CONTINUOUS
370
    -3
100
AcDbPolyline
 90
        5
 70
     0
 43
0.0
 10
35963.00108153
 20
-41571.14804489
 10
35963.00108153
 20
-40586.14804489
 10
34608.00108153
 20
-40586.14804489
 10
34608.00108153
 20
-41571.14804489
 10
35963.00108153
 20
-41571.14804489
  0
LWPOLYLINE
  5
294
100
AcDbEntity
  8
Ech.1_5
100
AcDbPolyline
 90
        9
 70
     0
 43
0.0
 10
36378.86115904
 20
-40378.98212422
 10
35931.46013683
 20
-40541.82277909
 10
35131.35751778
 20
-40833.03631678
 10
34782.25489874
 20
-40960.09927882
 10
34782.25489874
 20
-40966.51705606
 10
35057.00264068
 20
-40966.51705606
 10
35131.35751778
 20
-40939.45409403
 10
35931.46013683
 20
-40648.24055634
 10
36378.86115904
 20
-40485.39990147
  0
LWPOLYLINE
  5
295
100
AcDbEntity
  8
Ech.1_5
 62
   190
  6
CONTINUOUS
370
    -3
100
AcDbPolyline
 90
        4
 70
     1
 43
0.0
 10
35287.45659641
 20
-40781.97811196
 10
35278.45659635
 20
-40781.97811196
 10
35278.45682937
 20
-41064.91634932
 10
35287.45682944
 20
-41064.91634932
  0
LWPOLYLINE
  5
296
102
{ACAD_REACTORS
330
297
102
}
100
AcDbEntity
  8
Ech.1_5
 62
   190
  6
CONTINUOUS
370
    -3
100
AcDbPolyline
 90
        4
 70
     1
 43
0.0
 10
35278.45682937
 20
-41064.91634932
 10
35287.45682944
 20
-41064.91634932
 10
35287.45659641
 20
-40781.97811196
 10
35278.45659635
 20
-40781.97811196
  0
HATCH
  5
297
100
AcDbEntity
  8
Ech.1_5
 62
   190
  6
CONTINUOUS
100
AcDbHatch
 10
0.0
 20
0.0
 30
0.0
210
0.0
220
0.0
230
1.0
  2
CDWK10A
 70
     0
 71
     1
 91
        1
 92
        7
 72
     0
 73
     1
 93
        4
 10
35278.45682937
 20
-41064.91634932
 10
35287.45682944
 20
-41064.91634932
 10
35287.45659641
 20
-40781.97811196
 10
35278.45659635
 20
-40781.97811196
 97
        1
330
296
 75
     0
 76
     2
 52
0.0
 41
1.0
 77
     0
 78
     3
 53
45.0
 43
0.0
 44
0.0
 45
0.0
 46
42.00000167
 79
     0
 53
45.0
 43
0.0
 44
10.80000043
 45
0.0
 46
42.00000167
 79
     0
 53
45.0
 43
0.0
 44
21.60000086
 45
0.0
 46
42.00000167
 79
     0
 47
0.775229
 98
        1
 10
0.0
 20
0.0
  0
LWPOLYLINE
  5
298
100
AcDbEntity
  8
Ech.1_5
 62
   190
100
AcDbPolyline
 90
        5
 70
     0
 43
0.0
 10
34663.00413365
 20
-41334.66164523
 10
34797.43291264
 20
-41334.66164523
 10
34797.43291264
 20
-41391.38460404
 10
34663.00413365
 20
-41391.38460404
 10
34663.00413365
 20
-41334.66164523
  0
LWPOLYLINE
  5
299
100
AcDbEntity
  8
Ech.1_5
 62
   190
100
AcDbPolyline
 90
        5
 70
     0
 43
0.0
 10
34681.28417944
 20
-41368.31845636
 10
34731.28417944
 20
-41368.31845636
 10
34731.28417944
 20
-41360.90331883
 10
34681.28417944
 20
-41360.90331883
 10
34681.28417944
 20
-41368.31845636
  0
HATCH
  5
29A
100
AcDbEntity
  8
Ech.1_5
 62
   190
100
AcDbHatch
 10
0.0
 20
0.0
 30
0.0
210
0.0
220
0.0
230
1.0
  2
SOLID
 70
     1
 71
     0
 91
        1
 92
        7
 72
     0
 73
     1
 93
        4
 10
34681.28417944
 20
-41368.31845636
 10
34731.28417944
 20
-41368.31845636
 10
34731.28417944
 20
-41360.90331883
 10
34681.28417944
 20
-41360.90331883
 97
        0
 75
     0
 76
     2
 47
0.775229
 98
        1
 10
0.0
 20
0.0
  0
LWPOLYLINE
  5
29B
100
AcDbEntity
  8
Ech.1_5
 62
   190
100
AcDbPolyline
 90
        5
 70
     0
 43
0.0
 10
34731.28417944
 20
-41368.31845636
 10
34781.28417944
 20
-41368.31845636
 10
34781.28417944
 20
-41360.90331883
 10
34731.28417944
 20
-41360.90331883
 10
34731.28417944
 20
-41368.31845636
  0
LWPOLYLINE
  5
29C
100
AcDbEntity
  8
Ech.1_5
 62
   190
  6
CONTINUOUS
370
    -3
100
AcDbPolyline
 90
        5
 70
     1
 43
0.0
 10
36378.86115904
 20
-40766.51704758
 10
35314.11770786
 20
-40766.51704758
 10
35287.45679217
 20
-40776.16464723
 10
35287.45679217
 20
-40966.51705258
 10
36378.86115904
 20
-40966.51705258
  0
LINE
  5
29D
100
AcDbEntity
  8
Ech.1_5
 62
     1
100
AcDbLine
 10
35418.98565729
 20
-41066.51705606
 30
0.0
 11
36295.9159804
 21
-41066.51705606
 31
0.0
  0
LINE
  5
29E
100
AcDbEntity
  8
Ech.1_5
 62
   190
  6
CONTINUOUS
370
    -3
100
AcDbLine
 10
34724.26433642
 20
-40855.74534361
 30
0.0
 11
35072.33587834
 21
-40771.69292633
 31
0.0
  0
LWPOLYLINE
  5
29F
100
AcDbEntity
  8
Ech.1_5
 62
     5
  6
CONTINUOUS
370
    -3
100
AcDbPolyline
 90
        5
 70
     0
 43
0.0
 10
35070.13782863
 20
-40797.85286167
 10
35107.72553346
 20
-40784.17205594
 10
35116.96007733
 20
-40809.5437567
 10
35079.3723725
 20
-40823.22456243
 10
35070.13782863
 20
-40797.85286167
  0
LWPOLYLINE
  5
2A0
100
AcDbEntity
  8
Ech.1_5
 62
     5
  6
CONTINUOUS
370
    -3
100
AcDbPolyline
 90
        5
 70
     0
 43
0.0
 10
34788.05880225
 20
-40872.58261214
 10
34824.13533892
 20
-40862.90591779
 10
34840.80880533
 20
-40910.05459986
 10
34788.07592668
 20
-40929.24779806
 10
34788.05880225
 20
-40872.58261214
  0
LWPOLYLINE
  5
2A1
100
AcDbEntity
  8
Ech.1_5
 62
     5
  6
CONTINUOUS
370
    -3
100
AcDbPolyline
 90
        5
 70
     0
 43
0.0
 10
35408.78366261
 20
-40674.55726821
 10
35446.37136744
 20
-40660.87646248
 10
35455.60591131
 20
-40686.24816324
 10
35418.01820648
 20
-40699.92896898
 10
35408.78366261
 20
-40674.55726821
  0
LWPOLYLINE
  5
2A2
100
AcDbEntity
  8
Ech.1_5
 62
     5
  6
CONTINUOUS
370
    -3
100
AcDbPolyline
 90
        5
 70
     0
 43
0.0
 10
35747.3688529
 20
-40551.25213159
 10
35784.95655774
 20
-40537.57132586
 10
35794.19110161
 20
-40562.94302662
 10
35756.60339677
 20
-40576.62383235
 10
35747.3688529
 20
-40551.25213159
  0
LWPOLYLINE
  5
2A3
100
AcDbEntity
  8
Ech.1_5
 62
     5
  6
CONTINUOUS
370
    -3
100
AcDbPolyline
 90
        5
 70
     0
 43
0.0
 10
36085.96943171
 20
-40428.01072072
 10
36123.55713654
 20
-40414.32991499
 10
36132.79168041
 20
-40439.70161575
 10
36095.20397558
 20
-40453.38242148
 10
36085.96943171
 20
-40428.01072072
  0
LWPOLYLINE
  5
2A4
100
AcDbEntity
  8
Ech.1_5
 62
     5
  6
CONTINUOUS
370
    -3
100
AcDbPolyline
 90
        5
 70
     0
 43
0.0
 10
35926.140183
 20
-41126.51705606
 10
35926.140183
 20
-41066.51705606
 10
35884.140183
 20
-41066.51705606
 10
35884.140183
 20
-41126.51705606
 10
35926.140183
 20
-41126.51705606
  0
LWPOLYLINE
  5
2A5
100
AcDbEntity
  8
Ech.1_5
 62
     5
  6
CONTINUOUS
370
    -3
100
AcDbPolyline
 90
        7
 70
     0
 43
0.0
 10
35233.25489874
 20
-41066.51705606
 10
35278.25489874
 20
-41066.51705606
 10
35278.25489874
 20
-40976.51705606
 10
35254.67353973
 20
-40976.51705606
 10
35233.25489874
 20
-40976.51705606
 10
35233.25489874
 20
-41066.51705606
 10
35254.27772227
 20
-41066.51705606
  0
LWPOLYLINE
  5
2A6
100
AcDbEntity
  8
Ech.1_5
 62
     5
  6
CONTINUOUS
370
    -3
100
AcDbPolyline
 90
        5
 70
     0
 43
0.0
 10
34796.45736934
 20
-41066.51705606
 10
34836.45736934
 20
-41066.51705606
 10
34836.45736934
 20
-41093.51705606
 10
34796.45736934
 20
-41093.51705606
 10
34796.45736934
 20
-41066.51705606
  0
LWPOLYLINE
  5
2A7
100
AcDbEntity
  8
Ech.1_5
 62
     5
  6
CONTINUOUS
370
    -3
100
AcDbPolyline
 90
        5
 70
     0
 43
0.0
 10
35120.93506883
 20
-41066.51705606
 10
35160.93506883
 20
-41066.51705606
 10
35160.93506883
 20
-41093.51705606
 10
35120.93506883
 20
-41093.51705606
 10
35120.93506883
 20
-41066.51705606
  0
LINE
  5
2A8
100
AcDbEntity
  8
Ech.1_5
370
    35
100
AcDbLine
 10
35929.38471979
 20
-41151.09393889
 30
0.0
 11
35929.38471979
 21
-41074.02540493
 31
0.0
  0
LINE
  5
2A9
100
AcDbEntity
  8
Ech.1_5
  6
DASHEDX2
 48
0.2
370
    35
100
AcDbLine
 10
35929.38471979
 20
-41151.09393889
 30
0.0
 11
35929.38471979
 21
-41175.02540493
 31
0.0
  0
LWPOLYLINE
  5
2AA
100
AcDbEntity
  8
Ech.1_5
 62
     1
  6
CADWORK_22
 48
-5.0
370
    35
100
AcDbPolyline
 90
        3
 70
     0
 43
0.0
 10
35416.79768458
 20
-41102.115733
 10
35416.79768458
 20
-41068.51705606
 10
36380.70919227
 20
-41068.51705606
  0
LWPOLYLINE
  5
2AB
100
AcDbEntity
  8
Ech.1_5
 62
     9
  6
CADWORK_22
370
    35
100
AcDbPolyline
 90
        4
 70
     0
 43
0.0
 38
2500.0
 10
34794.83442327
 20
-40951.29389456
 10
34845.87988301
 20
-40932.43892893
 10
34852.80819085
 20
-40932.8237139
 10
36378.86115904
 20
-40377.38585757
  0
LINE
  5
2AC
100
AcDbEntity
  8
Ech.1_5
370
    35
100
AcDbLine
 10
35458.69997368
 20
-41151.09393889
 30
0.0
 11
35458.69997368
 21
-41074.02540493
 31
0.0
  0
LINE
  5
2AD
100
AcDbEntity
  8
Ech.1_5
  6
DASHEDX2
 48
0.2
370
    35
100
AcDbLine
 10
35458.69997368
 20
-41151.09393889
 30
0.0
 11
35458.69997368
 21
-41175.02540493
 31
0.0
  0
LWPOLYLINE
  5
2AE
100
AcDbEntity
  8
Ech.1_5
 62
   190
  6
CONTINUOUS
370
    -3
100
AcDbPolyline
 90
       64
 70
     0
 43
0.0
 10
35287.45679217
 20
-40933.18371841
 42
1.14028181
 10
35352.98764948
 20
-40924.55639727
 10
35321.92593736
 20
-40808.47770289
 42
-1.30322619
 10
35386.32098365
 20
-40808.47770289
 10
35355.25927153
 20
-40924.55639727
 42
1.30322619
 10
35419.65431781
 20
-40924.55639727
 10
35388.5926057
 20
-40808.47770289
 42
-1.30322619
 10
35452.98765198
 20
-40808.47770289
 10
35421.92593986
 20
-40924.55639727
 42
1.30322619
 10
35486.32098615
 20
-40924.55639727
 10
35455.25927403
 20
-40808.47770289
 42
-1.30322619
 10
35519.65432031
 20
-40808.47770289
 10
35488.59260819
 20
-40924.55639727
 42
1.30322619
 10
35552.98765448
 20
-40924.55639727
 10
35521.92594236
 20
-40808.47770289
 42
-1.30322619
 10
35586.32098865
 20
-40808.47770289
 10
35555.25927653
 20
-40924.55639727
 42
1.30322619
 10
35619.65432281
 20
-40924.55639727
 10
35588.59261069
 20
-40808.47770289
 42
-1.30322619
 10
35652.98765698
 20
-40808.47770289
 10
35621.92594486
 20
-40924.55639727
 42
1.30322619
 10
35686.32099114
 20
-40924.55639727
 10
35655.25927902
 20
-40808.47770289
 42
-1.30322619
 10
35719.65432531
 20
-40808.47770289
 10
35688.59261319
 20
-40924.55639727
 42
1.30322619
 10
35752.98765948
 20
-40924.55639727
 10
35721.92594736
 20
-40808.47770289
 42
-1.30322619
 10
35786.32099364
 20
-40808.47770289
 10
35755.25928152
 20
-40924.55639727
 42
1.30322619
 10
35819.65432781
 20
-40924.55639727
 10
35788.59261569
 20
-40808.47770289
 42
-1.30322619
 10
35852.98766197
 20
-40808.47770289
 10
35821.92594986
 20
-40924.55639727
 42
1.30322619
 10
35886.32099614
 20
-40924.55639727
 10
35855.25928402
 20
-40808.47770289
 42
-1.30322619
 10
35919.65433031
 20
-40808.47770289
 10
35888.59261819
 20
-40924.55639727
 42
1.30322619
 10
35952.98766447
 20
-40924.55639727
 10
35921.92595235
 20
-40808.47770289
 42
-1.30322619
 10
35986.32099864
 20
-40808.47770289
 10
35955.25928652
 20
-40924.55639727
 42
1.30322619
 10
36019.6543328
 20
-40924.55639727
 10
35988.59262069
 20
-40808.47770289
 42
-1.30322619
 10
36052.98766697
 20
-40808.47770289
 10
36021.92595485
 20
-40924.55639727
 42
1.30322619
 10
36086.32100114
 20
-40924.55639727
 10
36055.25928902
 20
-40808.47770289
 42
-1.30322619
 10
36119.6543353
 20
-40808.47770289
 10
36088.59262318
 20
-40924.55639727
 42
1.30322619
 10
36152.98766947
 20
-40924.55639727
 10
36121.92595735
 20
-40808.47770289
 42
-1.30322619
 10
36186.32100363
 20
-40808.47770289
 10
36155.25929152
 20
-40924.55639727
 42
1.30322619
 10
36219.6543378
 20
-40924.55639727
 10
36188.59262568
 20
-40808.47770289
 42
-1.30322619
 10
36252.98767197
 20
-40808.47770289
 10
36221.92595985
 20
-40924.55639727
 42
1.30322619
 10
36286.32100613
 20
-40924.55639727
 10
36255.25929401
 20
-40808.47770289
 42
-1.30322619
 10
36319.6543403
 20
-40808.47770289
 10
36288.59262818
 20
-40924.55639727
 42
1.30322619
 10
36352.98767447
 20
-40924.55639727
 10
36321.92596235
 20
-40808.47770289
 42
-0.7877227
 10
36378.86115904
 20
-40777.50852251
  0
LWPOLYLINE
  5
2AF
100
AcDbEntity
  8
Ech.1_5
 62
   190
  6
CONTINUOUS
370
    -3
100
AcDbPolyline
 90
      130
 70
     0
 43
0.0
 10
35287.45679217
 20
-41049.85038591
 42
1.14028181
 10
35320.22222001
 20
-41045.53672545
 10
35304.69136434
 20
-40987.49737971
 42
-1.30322619
 10
35336.88888668
 20
-40987.49737971
 10
35321.35803101
 20
-41045.53672545
 42
1.30322619
 10
35353.55555334
 20
-41045.53672545
 10
35338.02469767
 20
-40987.49737971
 42
-1.30322619
 10
35370.22222001
 20
-40987.49737971
 10
35354.69136434
 20
-41045.53672545
 42
1.30322619
 10
35386.88888668
 20
-41045.53672545
 10
35371.35803101
 20
-40987.49737971
 42
-1.30322619
 10
35403.55555334
 20
-40987.49737971
 10
35388.02469767
 20
-41045.53672545
 42
1.30322619
 10
35420.22222001
 20
-41045.53672545
 10
35404.69136434
 20
-40987.49737971
 42
-1.30322619
 10
35436.88888668
 20
-40987.49737971
 10
35421.35803101
 20
-41045.53672545
 42
1.30322619
 10
35453.55555334
 20
-41045.53672545
 10
35438.02469767
 20
-40987.49737971
 42
-1.30322619
 10
35470.22222001
 20
-40987.49737971
 10
35454.69136434
 20
-41045.53672545
 42
1.30322619
 10
35486.88888668
 20
-41045.53672545
 10
35471.35803101
 20
-40987.49737971
 42
-1.30322619
 10
35503.55555334
 20
-40987.49737971
 10
35488.02469767
 20
-41045.53672545
 42
1.30322619
 10
35520.22222001
 20
-41045.53672545
 10
35504.69136434
 20
-40987.49737971
 42
-1.30322619
 10
35536.88888668
 20
-40987.49737971
 10
35521.35803101
 20
-41045.53672545
 42
1.30322619
 10
35553.55555334
 20
-41045.53672545
 10
35538.02469767
 20
-40987.49737971
 42
-1.30322619
 10
35570.22222001
 20
-40987.49737971
 10
35554.69136434
 20
-41045.53672545
 42
1.30322619
 10
35586.88888668
 20
-41045.53672545
 10
35571.35803101
 20
-40987.49737971
 42
-1.30322619
 10
35603.55555334
 20
-40987.49737971
 10
35588.02469767
 20
-41045.53672545
 42
1.30322619
 10
35620.22222001
 20
-41045.53672545
 10
35604.69136434
 20
-40987.49737971
 42
-1.30322619
 10
35636.88888668
 20
-40987.49737971
 10
35621.35803101
 20
-41045.53672545
 42
1.30322619
 10
35653.55555334
 20
-41045.53672545
 10
35638.02469767
 20
-40987.49737971
 42
-1.30322619
 10
35670.22222001
 20
-40987.49737971
 10
35654.69136434
 20
-41045.53672545
 42
1.30322619
 10
35686.88888668
 20
-41045.53672545
 10
35671.35803101
 20
-40987.49737971
 42
-1.30322619
 10
35703.55555334
 20
-40987.49737971
 10
35688.02469767
 20
-41045.53672545
 42
1.30322619
 10
35720.22222001
 20
-41045.53672545
 10
35704.69136434
 20
-40987.49737971
 42
-1.30322619
 10
35736.88888668
 20
-40987.49737971
 10
35721.35803101
 20
-41045.53672545
 42
1.30322619
 10
35753.55555334
 20
-41045.53672545
 10
35738.02469767
 20
-40987.49737971
 42
-1.30322619
 10
35770.22222001
 20
-40987.49737971
 10
35754.69136434
 20
-41045.53672545
 42
1.30322619
 10
35786.88888668
 20
-41045.53672545
 10
35771.35803101
 20
-40987.49737971
 42
-1.30322619
 10
35803.55555334
 20
-40987.49737971
 10
35788.02469767
 20
-41045.53672545
 42
1.30322619
 10
35820.22222001
 20
-41045.53672545
 10
35804.69136434
 20
-40987.49737971
 42
-1.30322619
 10
35836.88888668
 20
-40987.49737971
 10
35821.35803101
 20
-41045.53672545
 42
1.30322619
 10
35853.55555334
 20
-41045.53672545
 10
35838.02469767
 20
-40987.49737971
 42
-1.30322619
 10
35870.22222001
 20
-40987.49737971
 10
35854.69136434
 20
-41045.53672545
 42
1.30322619
 10
35886.88888668
 20
-41045.53672545
 10
35871.35803101
 20
-40987.49737971
 42
-1.30322619
 10
35903.55555334
 20
-40987.49737971
 10
35888.02469767
 20
-41045.53672545
 42
1.30322619
 10
35920.22222001
 20
-41045.53672545
 10
35904.69136434
 20
-40987.49737971
 42
-1.30322619
 10
35936.88888668
 20
-40987.49737971
 10
35921.35803101
 20
-41045.53672545
 42
1.30322619
 10
35953.55555334
 20
-41045.53672545
 10
35938.02469767
 20
-40987.49737971
 42
-1.30322619
 10
35970.22222001
 20
-40987.49737971
 10
35954.69136434
 20
-41045.53672545
 42
1.30322619
 10
35986.88888668
 20
-41045.53672545
 10
35971.35803101
 20
-40987.49737971
 42
-1.30322619
 10
36003.55555334
 20
-40987.49737971
 10
35988.02469767
 20
-41045.53672545
 42
1.30322619
 10
36020.22222001
 20
-41045.53672545
 10
36004.69136434
 20
-40987.49737971
 42
-1.30322619
 10
36036.88888668
 20
-40987.49737971
 10
36021.35803101
 20
-41045.53672545
 42
1.30322619
 10
36053.55555334
 20
-41045.53672545
 10
36038.02469767
 20
-40987.49737971
 42
-1.30322619
 10
36070.22222001
 20
-40987.49737971
 10
36054.69136434
 20
-41045.53672545
 42
1.30322619
 10
36086.88888668
 20
-41045.53672545
 10
36071.35803101
 20
-40987.49737971
 42
-1.30322619
 10
36103.55555334
 20
-40987.49737971
 10
36088.02469767
 20
-41045.53672545
 42
1.30322619
 10
36120.22222001
 20
-41045.53672545
 10
36104.69136434
 20
-40987.49737971
 42
-1.30322619
 10
36136.88888668
 20
-40987.49737971
 10
36121.35803101
 20
-41045.53672545
 42
1.30322619
 10
36153.55555334
 20
-41045.53672545
 10
36138.02469767
 20
-40987.49737971
 42
-1.30322619
 10
36170.22222001
 20
-40987.49737971
 10
36154.69136434
 20
-41045.53672545
 42
1.30322619
 10
36186.88888668
 20
-41045.53672545
 10
36171.35803101
 20
-40987.49737971
 42
-1.30322619
 10
36203.55555334
 20
-40987.49737971
 10
36188.02469767
 20
-41045.53672545
 42
1.30322619
 10
36220.22222001
 20
-41045.53672545
 10
36204.69136434
 20
-40987.49737971
 42
-1.30322619
 10
36236.88888668
 20
-40987.49737971
 10
36221.35803101
 20
-41045.53672545
 42
1.30322619
 10
36253.55555334
 20
-41045.53672545
 10
36238.02469767
 20
-40987.49737971
 42
-1.30322619
 10
36270.22222001
 20
-40987.49737971
 10
36254.69136434
 20
-41045.53672545
 42
1.30322619
 10
36286.88888668
 20
-41045.53672545
 10
36271.35803101
 20
-40987.49737971
 42
-1.30322619
 10
36303.55555334
 20
-40987.49737971
 10
36288.02469767
 20
-41045.53672545
 42
1.30322619
 10
36320.22222001
 20
-41045.53672545
 10
36304.69136434
 20
-40987.49737971
 42
-1.30322619
 10
36336.88888668
 20
-40987.49737971
 10
36321.35803101
 20
-41045.53672545
 42
1.30322619
 10
36353.55555334
 20
-41045.53672545
 10
36338.02469767
 20
-40987.49737971
 42
-1.30322619
 10
36370.22222001
 20
-40987.49737971
 10
36354.69136434
 20
-41045.53672545
 42
0.71015703
 10
36380.70919227
 20
-41063.24403711
  0
LWPOLYLINE
  5
2B0
102
{ACAD_REACTORS
330
2B1
102
}
100
AcDbEntity
  8
Ech.1_5
 62
     9
  6
CONTINUOUS
370
    -3
100
AcDbPolyline
 90
        8
 70
     1
 43
0.0
 38
2500.0
 39
-2500.0
 10
35413.45543689
 20
-41066.51705606
 10
35234.95954974
 20
-41066.51705606
 10
35234.95966784
 20
-41310.97472168
 10
35340.16304215
 20
-41310.97472168
 10
35356.64854531
 20
-41292.99737327
 10
35342.53860529
 20
-41328.95307328
 10
35359.02495937
 20
-41310.97472168
 10
35413.45543689
 20
-41310.97472168
  0
HATCH
  5
2B1
100
AcDbEntity
  8
Ech.1_5
 62
     9
  6
CONTINUOUS
100
AcDbHatch
 10
0.0
 20
0.0
 30
0.0
210
0.0
220
0.0
230
1.0
  2
ANSI31
 70
     0
 71
     1
 91
        1
 92
        7
 72
     0
 73
     1
 93
        8
 10
35413.45543689
 20
-41066.51705606
 10
35234.95954974
 20
-41066.51705606
 10
35234.95966784
 20
-41310.97472168
 10
35340.16304215
 20
-41310.97472168
 10
35356.64854531
 20
-41292.99737327
 10
35342.53860529
 20
-41328.95307328
 10
35359.02495937
 20
-41310.97472168
 10
35413.45543689
 20
-41310.97472168
 97
        1
330
2B0
 75
     0
 76
     2
 52
0.0
 41
4.72443907
 77
     0
 78
     1
 53
45.0
 43
0.0
 44
0.0
 45
10.60660172
 46
-10.60660172
 79
     0
 47
0.775229
 98
        1
 10
0.0
 20
0.0
  0
LWPOLYLINE
  5
2B2
100
AcDbEntity
  8
Ech.1_5
 62
   190
  6
CONTINUOUS
370
    -3
100
AcDbPolyline
 90
        4
 70
     1
 43
0.0
 10
35423.45543689
 20
-41310.97472168
 10
35473.45543689
 20
-41310.97472168
 10
35473.45543689
 20
-41188.02540493
 10
35423.45543689
 20
-41188.02540493
  0
LWPOLYLINE
  5
2B3
100
AcDbEntity
  8
Ech.1_5
 62
   190
  6
CONTINUOUS
370
    -3
100
AcDbPolyline
 90
        4
 70
     1
 43
0.0
 10
35486.45538893
 20
-41188.02540493
 10
35473.45538893
 20
-41188.02540493
 10
35473.45540731
 20
-41310.97472168
 10
35486.45540731
 20
-41310.97472168
  0
LWPOLYLINE
  5
2B4
102
{ACAD_REACTORS
330
2B5
102
}
100
AcDbEntity
  8
Ech.1_5
 62
     7
  6
CONTINUOUS
370
    -3
100
AcDbPolyline
 90
        4
 70
     1
 43
0.0
 10
35473.45538893
 20
-41188.02556171
 10
35473.45540731
 20
-41310.97472168
 10
35486.45540731
 20
-41310.97472168
 10
35486.45538893
 20
-41188.02540493
  0
HATCH
  5
2B5
100
AcDbEntity
  8
Ech.1_5
 62
   190
  6
CONTINUOUS
100
AcDbHatch
 10
0.0
 20
0.0
 30
0.0
210
0.0
220
0.0
230
1.0
  2
DOTS2
 70
     0
 71
     1
 91
        1
 92
        7
 72
     0
 73
     1
 93
        4
 10
35473.45538893
 20
-41188.02556171
 10
35473.45540731
 20
-41310.97472168
 10
35486.45540731
 20
-41310.97472168
 10
35486.45538893
 20
-41188.02540493
 97
        1
330
2B4
 75
     0
 76
     2
 52
0.0
 41
4.72440952
 77
     0
 78
     1
 53
0.0
 43
0.0
 44
0.0
 45
3.75
 46
3.535
 79
     2
 49
0.0
 49
-3.535
 47
0.775229
 98
        1
 10
0.0
 20
0.0
  0
LWPOLYLINE
  5
2B6
100
AcDbEntity
  8
Ech.1_5
 62
   190
  6
CONTINUOUS
370
    -3
100
AcDbPolyline
 90
        6
 70
     0
 43
0.0
 10
35160.16304216
 20
-41310.9752836
 10
35340.16304215
 20
-41310.97472168
 10
35356.64854531
 20
-41292.99737327
 10
35342.53860529
 20
-41328.95307328
 10
35359.02495937
 20
-41310.97472168
 10
35539.28395402
 20
-41310.97472168
  0
LWPOLYLINE
  5
2B7
100
AcDbEntity
  8
Ech.1_5
 62
   190
  6
CONTINUOUS
370
    -3
100
AcDbPolyline
 90
       28
 70
     0
 43
0.0
 10
35431.78876223
 20
-41188.02540493
 42
1.14028181
 10
35433.9455904
 20
-41204.40810313
 10
35462.96523543
 20
-41196.64268274
 42
-1.30322619
 10
35462.96523543
 20
-41212.74142847
 10
35433.9455904
 20
-41204.97600808
 42
1.30322619
 10
35433.9455904
 20
-41221.07475381
 10
35462.96523543
 20
-41213.30933342
 42
-1.30322619
 10
35462.96523543
 20
-41229.40807915
 10
35433.9455904
 20
-41221.64265876
 42
1.30322619
 10
35433.9455904
 20
-41237.74140449
 10
35462.96523543
 20
-41229.9759841
 42
-1.30322619
 10
35462.96523543
 20
-41246.07472983
 10
35433.9455904
 20
-41238.30930944
 42
1.30322619
 10
35433.9455904
 20
-41254.40805517
 10
35462.96523543
 20
-41246.64263478
 42
-1.30322619
 10
35462.96523543
 20
-41262.74138051
 10
35433.9455904
 20
-41254.97596012
 42
1.30322619
 10
35433.9455904
 20
-41271.07470585
 10
35462.96523543
 20
-41263.30928546
 42
-1.30322619
 10
35462.96523543
 20
-41279.40803119
 10
35433.9455904
 20
-41271.6426108
 42
1.30322619
 10
35433.9455904
 20
-41287.74135653
 10
35462.96523543
 20
-41279.97593614
 42
-1.30322619
 10
35462.96523543
 20
-41296.07468187
 10
35433.9455904
 20
-41288.30926148
 42
1.30322619
 10
35433.9455904
 20
-41304.40800721
 10
35462.96523543
 20
-41296.64258682
 42
-0.79495292
 10
35470.59666065
 20
-41310.97472168
  0
TEXT
  5
2B8
100
AcDbEntity
  8
Ech.1_5
 62
   190
100
AcDbText
 10
34692.57847206
 20
-41351.31731574
 30
0.0
 40
8.00000012
  1
Echelle en mm
  7
ARIAL
 50
0.0
 41
1.0
 51
0.0
100
AcDbText
  0
TEXT
  5
2B9
100
AcDbEntity
  8
Ech.1_5
 62
   190
100
AcDbText
 10
34678.59788731
 20
-41379.52715127
 30
0.0
 40
8.00000012
  1
0
  7
ARIAL
 50
0.0
 41
1.0
 51
0.0
100
AcDbText
  0
TEXT
  5
2BA
100
AcDbEntity
  8
Ech.1_5
 62
   190
100
AcDbText
 10
34765.1949452
 20
-41379.52715127
 30
0.0
 40
8.00000012
  1
100
  7
ARIAL
 50
0.0
 41
1.0
 51
0.0
100
AcDbText
  0
TEXT
  5
2BB
100
AcDbEntity
  8
Ech.1_5
 62
   190
100
AcDbText
 10
34726.45451364
 20
-41379.52715127
 30
0.0
 40
8.00000012
  1
50
  7
ARIAL
 50
0.0
 41
1.0
 51
0.0
100
AcDbText
  0
POINT
  5
2BC
100
AcDbEntity
  8
Ech.1_5
 62
     7
100
AcDbPoint
 10
35335.17217339
 20
-41019.76470642
 30
0.0
  0
POINT
  5
2BD
100
AcDbEntity
  8
Ech.1_5
 62
     7
100
AcDbPoint
 10
35311.33351124
 20
-41019.76470642
 30
0.0
  0
POINT
  5
2BE
100
AcDbEntity
  8
Ech.1_5
 62
     7
100
AcDbPoint
 10
35324.56053056
 20
-41027.89645214
 30
0.0
  0
ENDSEC
  0
SECTION
  2
OBJECTS
  0
DICTIONARY
  5
1
100
AcDbDictionary
  3
ACAD_GROUP
350
2
  3
ACAD_MLINESTYLE
350
3
  0
DICTIONARY
  5
2
102
{CDWK_REACTORS
330
1
102
}
100
AcDbDictionary
  0
DICTIONARY
  5
3
102
{CDWK_REACTORS
330
1
102
}
100
AcDbDictionary
  3
STANDARD
350
4
  0
MLINESTYLE
  5
4
102
{CDWK_REACTORS
330
3
102
}
100
AcDbMlineStyle
  2
STANDARD
 70
     0
  3

 62
     0
 51
90.0
 52
90.0
 71
     2
 49
0.5
 62
   256
  6
BYLAYER
 49
-0.5
 62
   256
  6
BYLAYER
  0
ENDSEC
  0
EOF
