  0
SECTION
  2
HEADER
  9
$ACADVER
  1
AC1014
  9
$DWGCODEPAGE
  3
ANSI_1252
  9
$INSBASE
 10
0.0
 20
0.0
 30
0.0
  9
$EXTMIN
 10
16.95292807
 20
-41530.17451731
  9
$EXTMAX
 10
33945.84564643
 20
784.39574146
  9
$LIMMIN
 10
16.95292807
 20
-41530.17451731
  9
$LIMMAX
 10
33945.84564643
 20
784.39574146
  9
$ORTHOMODE
 70
     0
  9
$REGENMODE
 70
     1
  9
$FILLMODE
 70
     1
  9
$QTEXTMODE
 70
     0
  9
$MIRRTEXT
 70
     1
  9
$DRAGMODE
 70
     2
  9
$LTSCALE
 40
5.0
  9
$OSMODE
 70
     0
  9
$ATTMODE
 70
     1
  9
$TEXTSIZE
 40
3.5
  9
$TRACEWID
 40
1.0
  9
$TEXTSTYLE
  7
STANDARD
  9
$CLAYER
  8
0
  9
$CELTYPE
  6
BYLAYER
  9
$CECOLOR
 62
   256
  9
$DIMSCALE
 40
1.0
  9
$DIMASZ
 40
2.0
  9
$DIMEXO
 40
5.0
  9
$DIMDLI
 40
10.0
  9
$DIMRND
 40
0.0
  9
$DIMDLE
 40
2.0
  9
$DIMEXE
 40
2.0
  9
$DIMTP
 40
0.0
  9
$DIMTM
 40
0.0
  9
$DIMTXT
 40
2.5
  9
$DIMCEN
 40
1.5
  9
$DIMTSZ
 40
0.0
  9
$DIMTOL
 70
     0
  9
$DIMLIM
 70
     0
  9
$DIMTIH
 70
     1
  9
$DIMTOH
 70
     0
  9
$DIMSE1
 70
     0
  9
$DIMSE2
 70
     0
  9
$DIMTAD
 70
     1
  9
$DIMZIN
 70
     8
  9
$DIMBLK
  1

  9
$DIMASO
 70
     1
  9
$DIMSHO
 70
     1
  9
$DIMPOST
  1

  9
$DIMAPOST
  1

  9
$DIMALT
 70
     0
  9
$DIMALTD
 70
     2
  9
$DIMALTF
 40
25.4
  9
$DIMLFAC
 40
1.0
  9
$DIMTOFL
 70
     0
  9
$DIMTVP
 40
0.0
  9
$DIMTIX
 70
     0
  9
$DIMSOXD
 70
     0
  9
$DIMSAH
 70
     0
  9
$DIMBLK1
  1

  9
$DIMBLK2
  1

  9
$DIMSTYLE
  2
*UNNAMED
  9
$DIMCLRD
 70
   190
  9
$DIMCLRE
 70
   190
  9
$DIMCLRT
 70
   190
  9
$DIMTFAC
 40
1.0
  9
$DIMGAP
 40
0.09
  9
$DIMUNIT
 70
     2
  9
$LUNITS
 70
     2
  9
$LUPREC
 70
     6
  9
$AXISMODE
 70
     0
  9
$AXISUNIT
 10
0.0
 20
0.0
  9
$SKETCHINC
 40
0.1
  9
$FILLETRAD
 40
0.0
  9
$AUNITS
 70
     0
  9
$AUPREC
 70
     0
  9
$MENU
  1
ACAD
  9
$ELEVATION
 40
0.0
  9
$PELEVATION
 40
0.0
  9
$THICKNESS
 40
0.0
  9
$LIMCHECK
 70
     0
  9
$BLIPMODE
 70
     1
  9
$CHAMFERA
 40
0.0
  9
$CHAMFERB
 40
0.0
  9
$SKPOLY
 70
     1
  9
$TDCREATE
 40
2457811.0000000000
  9
$TDUPDATE
 40
2457811.0000000000
  9
$TDINDWG
 40
0.0
  9
$TDUSRTIMER
 40
0.0
  9
$USRTIMER
 70
     1
  9
$ANGBASE
 50
0.0
  9
$ANGDIR
 70
     0
  9
$PDMODE
 70
     0
  9
$PDSIZE
 40
0.0
  9
$PLINEWID
 40
0.0
  9
$COORDS
 70
     2
  9
$SPLFRAME
 70
     0
  9
$SPLINETYPE
 70
     6
  9
$SPLINESEGS
 70
     8
  9
$ATTDIA
 70
     1
  9
$ATTREQ
 70
     1
  9
$HANDLING
 70
     1
  9
$HANDSEED
  5
     2DF
  9
$SURFTAB1
 70
     6
  9
$SURFTAB2
 70
     6
  9
$SURFTYPE
 70
     6
  9
$SURFU
 70
     6
  9
$SURFV
 70
     6
  9
$UCSNAME
  2

  9
$UCSORG
 10
0.0
 20
0.0
 30
0.0
  9
$UCSXDIR
 10
1.0
 20
0.0
 30
0.0
  9
$UCSYDIR
 10
0.0
 20
1.0
 30
0.0
  9
$PUCSNAME
  2

  9
$PUCSORG
 10
0.0
 20
0.0
 30
0.0
  9
$PUCSXDIR
 10
1.0
 20
0.0
 30
0.0
  9
$PUCSYDIR
 10
0.0
 20
1.0
 30
0.0
  9
$USERI1
 70
     0
  9
$USERI2
 70
     0
  9
$USERI3
 70
     0
  9
$USERI4
 70
     0
  9
$USERI5
 70
     0
  9
$USERR1
 40
0.0
  9
$USERR2
 40
0.0
  9
$USERR3
 40
0.0
  9
$USERR4
 40
0.0
  9
$USERR5
 40
0.0
  9
$WORLDVIEW
 70
     1
  9
$SHADEDGE
 70
     3
  9
$SHADEDIF
 70
    70
  9
$TILEMODE
 70
     1
  9
$MAXACTVP
 70
    16
  9
$PINSBASE
 10
0.0
 20
0.0
 30
0.0
  9
$PLIMCHECK
 70
     0
  9
$PEXTMIN
 10
1.0000000000000E+20
 20
1.0000000000000E+20
 30
1.0000000000000E+20
  9
$PEXTMAX
 10
-1.0000000000000E+20
 20
-1.0000000000000E+20
 30
-1.0000000000000E+20
  9
$PLIMMIN
 10
0.0
 20
0.0
  9
$UNITMODE
 70
     0
  9
$VISRETAIN
 70
     0
  9
$MEASUREMENT
 70
     1
  0
ENDSEC
  0
SECTION
  2
TABLES
  0
TABLE
  2
VPORT
  5
E9
100
AcDbSymbolTable
 70
     1
  0
ENDTAB
  0
TABLE
  2
STYLE
  5
EA
100
AcDbSymbolTable
 70
     3
  0
STYLE
  5
EB
100
AcDbSymbolTableRecord
100
AcDbTextStyleTableRecord
  2
STANDARD
 70
     0
 40
0.0
 41
1.0
 50
0.0
 71
     0
 42
3.5
  3
MONOTXT
  4

  0
STYLE
  5
EC
100
AcDbSymbolTableRecord
100
AcDbTextStyleTableRecord
  2
SYMAP
 70
     0
 40
0.0
 41
1.0
 50
0.0
 71
     0
 42
3.5
  3
SYMAP
  4

  0
STYLE
  5
ED
100
AcDbSymbolTableRecord
100
AcDbTextStyleTableRecord
  2
CADWORK1
 70
     0
 40
0.0
 41
1.0
 50
0.0
 71
     0
 42
3.5
  3
MONOTXT
  4

  0
STYLE
  5
EE
100
AcDbSymbolTableRecord
100
AcDbTextStyleTableRecord
  2
MONOTXT
 70
     0
 40
0.0
 41
1.0
 50
0.0
 71
     0
 42
3.5
  3
MONOTXT
  4

  0
STYLE
  5
EF
100
AcDbSymbolTableRecord
100
AcDbTextStyleTableRecord
  2
ARIAL
 70
     0
 40
0.0
 41
1.0
 50
0.0
 71
     0
 42
3.5
  3

  4

1001
ACAD
1000
Arial
1071
        0
  0
ENDTAB
  0
TABLE
  2
LTYPE
  5
F0
100
AcDbSymbolTable
 70
    13
  0
LTYPE
  5
F1
100
AcDbSymbolTableRecord
100
AcDbLinetypeTableRecord
  2
BYBLOCK
 70
    64
  3

 72
    65
 73
     0
 40
0.0
  0
LTYPE
  5
F2
100
AcDbSymbolTableRecord
100
AcDbLinetypeTableRecord
  2
BYLAYER
 70
    64
  3

 72
    65
 73
     0
 40
0.0
  0
LTYPE
  5
F3
100
AcDbSymbolTableRecord
100
AcDbLinetypeTableRecord
  2
CONTINUOUS
 70
    64
  3
Solid line
 72
    65
 73
     0
 40
0.0
  0
LTYPE
  5
F4
100
AcDbSymbolTableRecord
100
AcDbLinetypeTableRecord
  2
DOT2
 70
    64
  3
...............................................
 72
    65
 73
     2
 40
1.25
 49
0.0
 74
     0
 49
-1.25
 74
     0
  0
LTYPE
  5
F5
100
AcDbSymbolTableRecord
100
AcDbLinetypeTableRecord
  2
DASHDOT
 70
    64
  3
 __ . __ . __ . __ . __ . __ . __ . __ . __ . __
 72
    65
 73
     4
 40
10.0
 49
5.0
 74
     0
 49
-2.5
 74
     0
 49
0.0
 74
     0
 49
-2.5
 74
     0
  0
LTYPE
  5
F6
100
AcDbSymbolTableRecord
100
AcDbLinetypeTableRecord
  2
DASHEDX2
 70
    64
  3
____  ____  ____  ____  ____  ____  ____  ____
 72
    65
 73
     2
 40
3.75
 49
2.5
 74
     0
 49
-1.25
 74
     0
  0
LTYPE
  5
F7
100
AcDbSymbolTableRecord
100
AcDbLinetypeTableRecord
  2
CADWORK_22
 70
    64
  3
22 =======================================
 72
    65
 73
     0
 40
0.0
  0
LTYPE
  5
F8
100
AcDbSymbolTableRecord
100
AcDbLinetypeTableRecord
  2
DAL
 70
    64
  3
Solid line (for MAPS)
 72
    65
 73
     0
 40
0.0
  0
LTYPE
  5
F9
100
AcDbSymbolTableRecord
100
AcDbLinetypeTableRecord
  2
MUR
 70
    64
  3
Solid line (for MAPS)
 72
    65
 73
     0
 40
0.0
  0
LTYPE
  5
FA
100
AcDbSymbolTableRecord
100
AcDbLinetypeTableRecord
  2
SOM
 70
    64
  3
Solid line (for MAPS)
 72
    65
 73
     0
 40
0.0
  0
LTYPE
  5
FB
100
AcDbSymbolTableRecord
100
AcDbLinetypeTableRecord
  2
COL
 70
    64
  3
Solid line (for MAPS)
 72
    65
 73
     0
 40
0.0
  0
LTYPE
  5
FC
100
AcDbSymbolTableRecord
100
AcDbLinetypeTableRecord
  2
LGN
 70
    64
  3
Solid line (for MAPS)
 72
    65
 73
     0
 40
0.0
  0
LTYPE
  5
FD
100
AcDbSymbolTableRecord
100
AcDbLinetypeTableRecord
  2
PNT
 70
    64
  3
Solid line (for MAPS)
 72
    65
 73
     0
 40
0.0
  0
ENDTAB
  0
TABLE
  2
LAYER
  5
FE
100
AcDbSymbolTable
 70
    32
  0
LAYER
  5
FF
100
AcDbSymbolTableRecord
100
AcDbLayerTableRecord
  2
Standard
 70
     0
 62
     7
  6
CONTINUOUS
370
    -3
  0
LAYER
  5
100
100
AcDbSymbolTableRecord
100
AcDbLayerTableRecord
  2
Ech.1_1
 70
     0
 62
     7
  6
CONTINUOUS
370
    -3
  0
LAYER
  5
101
100
AcDbSymbolTableRecord
100
AcDbLayerTableRecord
  2
Ech.1_2
 70
     0
 62
     7
  6
CONTINUOUS
370
    -3
  0
LAYER
  5
102
100
AcDbSymbolTableRecord
100
AcDbLayerTableRecord
  2
Ech.1_5
 70
     0
 62
     7
  6
CONTINUOUS
370
    -3
  0
LAYER
  5
103
100
AcDbSymbolTableRecord
100
AcDbLayerTableRecord
  2
Ech.1_10
 70
     0
 62
     7
  6
CONTINUOUS
370
    -3
  0
LAYER
  5
104
100
AcDbSymbolTableRecord
100
AcDbLayerTableRecord
  2
Ech.1_20
 70
     0
 62
     7
  6
CONTINUOUS
370
    -3
  0
LAYER
  5
105
100
AcDbSymbolTableRecord
100
AcDbLayerTableRecord
  2
Ech.1_25
 70
     0
 62
     7
  6
CONTINUOUS
370
    -3
  0
LAYER
  5
106
100
AcDbSymbolTableRecord
100
AcDbLayerTableRecord
  2
Ech.1_33
 70
     0
 62
     7
  6
CONTINUOUS
370
    -3
  0
LAYER
  5
107
100
AcDbSymbolTableRecord
100
AcDbLayerTableRecord
  2
Ech.1_50
 70
     0
 62
     7
  6
CONTINUOUS
370
    -3
  0
LAYER
  5
108
100
AcDbSymbolTableRecord
100
AcDbLayerTableRecord
  2
Ech.1_75
 70
     0
 62
     7
  6
CONTINUOUS
370
    -3
  0
LAYER
  5
109
100
AcDbSymbolTableRecord
100
AcDbLayerTableRecord
  2
Ech.1_100
 70
     0
 62
     7
  6
CONTINUOUS
370
    -3
  0
LAYER
  5
10A
100
AcDbSymbolTableRecord
100
AcDbLayerTableRecord
  2
Ech.1_200
 70
     0
 62
     7
  6
CONTINUOUS
370
    -3
  0
LAYER
  5
10B
100
AcDbSymbolTableRecord
100
AcDbLayerTableRecord
  2
Ech.1_500
 70
     0
 62
     7
  6
CONTINUOUS
370
    -3
  0
LAYER
  5
10C
100
AcDbSymbolTableRecord
100
AcDbLayerTableRecord
  2
Ech.1_1000
 70
     0
 62
     7
  6
CONTINUOUS
370
    -3
  0
LAYER
  5
10D
100
AcDbSymbolTableRecord
100
AcDbLayerTableRecord
  2
Cadres traceur
 70
     0
 62
     7
  6
CONTINUOUS
370
    18
  0
LAYER
  5
10E
100
AcDbSymbolTableRecord
100
AcDbLayerTableRecord
  2
Cadres laser
 70
     0
 62
     7
  6
CONTINUOUS
370
    18
  0
LAYER
  5
10F
100
AcDbSymbolTableRecord
100
AcDbLayerTableRecord
  2
Légende d_aide
 70
     0
 62
     7
  6
CONTINUOUS
370
    18
  0
LAYER
  5
110
100
AcDbSymbolTableRecord
100
AcDbLayerTableRecord
  2
hachures ok
 70
     0
 62
     7
  6
CONTINUOUS
370
    18
  0
LAYER
  5
111
100
AcDbSymbolTableRecord
100
AcDbLayerTableRecord
  2
ossature bois
 70
     0
 62
     7
  6
CONTINUOUS
370
    18
  0
LAYER
  5
112
100
AcDbSymbolTableRecord
100
AcDbLayerTableRecord
  2
VR
 70
     0
 62
     7
  6
CONTINUOUS
370
    25
  0
LAYER
  5
113
100
AcDbSymbolTableRecord
100
AcDbLayerTableRecord
  2
Calque1
 70
     0
 62
     7
  6
CONTINUOUS
370
     9
  0
LAYER
  5
114
100
AcDbSymbolTableRecord
100
AcDbLayerTableRecord
  2
0
 70
     0
 62
     7
  6
CONTINUOUS
370
    -3
  0
LAYER
  5
115
100
AcDbSymbolTableRecord
100
AcDbLayerTableRecord
  2
menuiserie
 70
     0
 62
     7
  6
CONTINUOUS
370
    -3
  0
LAYER
  5
116
100
AcDbSymbolTableRecord
100
AcDbLayerTableRecord
  2
cotation
 70
     0
 62
   250
  6
CONTINUOUS
370
     9
  0
LAYER
  5
117
100
AcDbSymbolTableRecord
100
AcDbLayerTableRecord
  2
Defpoints
 70
     0
 62
    10
  6
CONTINUOUS
370
    -3
  0
LAYER
  5
118
100
AcDbSymbolTableRecord
100
AcDbLayerTableRecord
  2
HACHURE
 70
     0
 62
   254
  6
CONTINUOUS
370
    25
  0
LAYER
  5
119
100
AcDbSymbolTableRecord
100
AcDbLayerTableRecord
  2
mat1
 70
     0
 62
     7
  6
CONTINUOUS
370
    30
  0
LAYER
  5
11A
100
AcDbSymbolTableRecord
100
AcDbLayerTableRecord
  2
mat2
 70
     0
 62
     7
  6
CONTINUOUS
370
     5
  0
LAYER
  5
11B
100
AcDbSymbolTableRecord
100
AcDbLayerTableRecord
  2
hach
 70
     0
 62
     8
  6
CONTINUOUS
370
     5
  0
LAYER
  5
11C
100
AcDbSymbolTableRecord
100
AcDbLayerTableRecord
  2
menuiseries
 70
     0
 62
     7
  6
CONTINUOUS
370
     9
  0
LAYER
  5
11D
100
AcDbSymbolTableRecord
100
AcDbLayerTableRecord
  2
BétonMétal
 70
     0
 62
     7
  6
CONTINUOUS
370
    80
  0
LAYER
  5
11E
100
AcDbSymbolTableRecord
100
AcDbLayerTableRecord
  2
bois
 70
     0
 62
     7
  6
CONTINUOUS
370
    60
  0
ENDTAB
  0
TABLE
  2
VIEW
  5
11F
100
AcDbSymbolTable
 70
     0
  0
ENDTAB
  0
TABLE
  2
UCS
  5
120
100
AcDbSymbolTable
 70
     0
  0
ENDTAB
  0
TABLE
  2
APPID
  5
121
100
AcDbSymbolTable
 70
     1
  0
APPID
  5
122
100
AcDbSymbolTableRecord
100
AcDbRegAppTableRecord
  2
ACAD
 70
     0
  0
ENDTAB
  0
TABLE
  2
DIMSTYLE
  5
123
100
AcDbSymbolTable
 70
     0
  0
ENDTAB
  0
TABLE
  2
BLOCK_RECORD
  5
124
100
AcDbSymbolTable
 70
     0
  0
BLOCK_RECORD
  5
125
100
AcDbSymbolTableRecord
100
AcDbBlockTableRecord
  2
*MODEL_SPACE
  0
BLOCK_RECORD
  5
126
100
AcDbSymbolTableRecord
100
AcDbBlockTableRecord
  2
*PAPER_SPACE
  0
BLOCK_RECORD
  5
127
100
AcDbSymbolTableRecord
100
AcDbBlockTableRecord
  2
CDWK_EXTR_0
  0
BLOCK_RECORD
  5
128
100
AcDbSymbolTableRecord
100
AcDbBlockTableRecord
  2
CDWK_EXTR_1D
  0
BLOCK_RECORD
  5
129
100
AcDbSymbolTableRecord
100
AcDbBlockTableRecord
  2
CDWK_EXTR_1G
  0
BLOCK_RECORD
  5
12A
100
AcDbSymbolTableRecord
100
AcDbBlockTableRecord
  2
CDWK_EXTR_2
  0
BLOCK_RECORD
  5
12B
100
AcDbSymbolTableRecord
100
AcDbBlockTableRecord
  2
CDWK_EXTR_3
  0
BLOCK_RECORD
  5
12C
100
AcDbSymbolTableRecord
100
AcDbBlockTableRecord
  2
CDWK_EXTR_4
  0
BLOCK_RECORD
  5
12D
100
AcDbSymbolTableRecord
100
AcDbBlockTableRecord
  2
CDWK_PTTYP0
  0
BLOCK_RECORD
  5
12E
100
AcDbSymbolTableRecord
100
AcDbBlockTableRecord
  2
CDWK_PTTYP1
  0
BLOCK_RECORD
  5
12F
100
AcDbSymbolTableRecord
100
AcDbBlockTableRecord
  2
CDWK_PTTYP2
  0
BLOCK_RECORD
  5
130
100
AcDbSymbolTableRecord
100
AcDbBlockTableRecord
  2
CDWK_PTTYP3
  0
BLOCK_RECORD
  5
131
100
AcDbSymbolTableRecord
100
AcDbBlockTableRecord
  2
CDWK_PTTYP4
  0
BLOCK_RECORD
  5
132
100
AcDbSymbolTableRecord
100
AcDbBlockTableRecord
  2
CDWK_PTTYP5
  0
BLOCK_RECORD
  5
133
100
AcDbSymbolTableRecord
100
AcDbBlockTableRecord
  2
CDWK_PTTYP6
  0
BLOCK_RECORD
  5
134
100
AcDbSymbolTableRecord
100
AcDbBlockTableRecord
  2
CDWK_PTTYP7
  0
BLOCK_RECORD
  5
135
100
AcDbSymbolTableRecord
100
AcDbBlockTableRecord
  2
CDWK_PTTYP8
  0
BLOCK_RECORD
  5
136
100
AcDbSymbolTableRecord
100
AcDbBlockTableRecord
  2
CDWK_PTTYP9
  0
BLOCK_RECORD
  5
137
100
AcDbSymbolTableRecord
100
AcDbBlockTableRecord
  2
CDWK_PTTYP10
  0
BLOCK_RECORD
  5
138
100
AcDbSymbolTableRecord
100
AcDbBlockTableRecord
  2
CDWK_PTTYP11
  0
BLOCK_RECORD
  5
139
100
AcDbSymbolTableRecord
100
AcDbBlockTableRecord
  2
CDWK_PTTYP12
  0
BLOCK_RECORD
  5
13A
100
AcDbSymbolTableRecord
100
AcDbBlockTableRecord
  2
CDWK_PTTYP13
  0
BLOCK_RECORD
  5
13B
100
AcDbSymbolTableRecord
100
AcDbBlockTableRecord
  2
CDWK_PTTYP14
  0
BLOCK_RECORD
  5
13C
100
AcDbSymbolTableRecord
100
AcDbBlockTableRecord
  2
CDWK_PTTYP15
  0
BLOCK_RECORD
  5
13D
100
AcDbSymbolTableRecord
100
AcDbBlockTableRecord
  2
CDWK_PTTYP16
  0
BLOCK_RECORD
  5
13E
100
AcDbSymbolTableRecord
100
AcDbBlockTableRecord
  2
CDWK_PTTYP17
  0
BLOCK_RECORD
  5
13F
100
AcDbSymbolTableRecord
100
AcDbBlockTableRecord
  2
CDWK_PTTYP18
  0
BLOCK_RECORD
  5
140
100
AcDbSymbolTableRecord
100
AcDbBlockTableRecord
  2
CDWK_PTTYP19
  0
BLOCK_RECORD
  5
141
100
AcDbSymbolTableRecord
100
AcDbBlockTableRecord
  2
CDWK_PTTYP20
  0
BLOCK_RECORD
  5
142
100
AcDbSymbolTableRecord
100
AcDbBlockTableRecord
  2
CDWK_PTTYP21
  0
BLOCK_RECORD
  5
143
100
AcDbSymbolTableRecord
100
AcDbBlockTableRecord
  2
CDWK_PTTYP22
  0
BLOCK_RECORD
  5
144
100
AcDbSymbolTableRecord
100
AcDbBlockTableRecord
  2
CDWK_PTTYP23
  0
BLOCK_RECORD
  5
145
100
AcDbSymbolTableRecord
100
AcDbBlockTableRecord
  2
CDWK_PTTYP24
  0
BLOCK_RECORD
  5
146
100
AcDbSymbolTableRecord
100
AcDbBlockTableRecord
  2
CDWK_PTTYP25
  0
BLOCK_RECORD
  5
147
100
AcDbSymbolTableRecord
100
AcDbBlockTableRecord
  2
CDWK_PTTYP26
  0
BLOCK_RECORD
  5
148
100
AcDbSymbolTableRecord
100
AcDbBlockTableRecord
  2
CDWK_PTTYP27
  0
BLOCK_RECORD
  5
149
100
AcDbSymbolTableRecord
100
AcDbBlockTableRecord
  2
CDWK_PTTYP28
  0
BLOCK_RECORD
  5
14A
100
AcDbSymbolTableRecord
100
AcDbBlockTableRecord
  2
CDWK_PTTYP29
  0
BLOCK_RECORD
  5
14B
100
AcDbSymbolTableRecord
100
AcDbBlockTableRecord
  2
CDWK_PTTYP30
  0
BLOCK_RECORD
  5
14C
100
AcDbSymbolTableRecord
100
AcDbBlockTableRecord
  2
CDWK_PTTYP31
  0
BLOCK_RECORD
  5
14D
100
AcDbSymbolTableRecord
100
AcDbBlockTableRecord
  2
CDWK_PTTYP32
  0
BLOCK_RECORD
  5
14E
100
AcDbSymbolTableRecord
100
AcDbBlockTableRecord
  2
CDWK_PTTYP33
  0
BLOCK_RECORD
  5
14F
100
AcDbSymbolTableRecord
100
AcDbBlockTableRecord
  2
CDWK_PTTYP34
  0
BLOCK_RECORD
  5
150
100
AcDbSymbolTableRecord
100
AcDbBlockTableRecord
  2
CDWK_PTTYP35
  0
BLOCK_RECORD
  5
151
100
AcDbSymbolTableRecord
100
AcDbBlockTableRecord
  2
CDWK_PTTYP36
  0
BLOCK_RECORD
  5
152
100
AcDbSymbolTableRecord
100
AcDbBlockTableRecord
  2
CDWK_PTTYP37
  0
BLOCK_RECORD
  5
153
100
AcDbSymbolTableRecord
100
AcDbBlockTableRecord
  2
CDWK_PTTYP38
  0
BLOCK_RECORD
  5
154
100
AcDbSymbolTableRecord
100
AcDbBlockTableRecord
  2
*X1
  0
BLOCK_RECORD
  5
155
100
AcDbSymbolTableRecord
100
AcDbBlockTableRecord
  2
*X2
  0
BLOCK_RECORD
  5
156
100
AcDbSymbolTableRecord
100
AcDbBlockTableRecord
  2
*X3
  0
BLOCK_RECORD
  5
157
100
AcDbSymbolTableRecord
100
AcDbBlockTableRecord
  2
*X4
  0
BLOCK_RECORD
  5
158
100
AcDbSymbolTableRecord
100
AcDbBlockTableRecord
  2
*X5
  0
BLOCK_RECORD
  5
159
100
AcDbSymbolTableRecord
100
AcDbBlockTableRecord
  2
*X6
  0
BLOCK_RECORD
  5
15A
100
AcDbSymbolTableRecord
100
AcDbBlockTableRecord
  2
*D1
  0
BLOCK_RECORD
  5
15B
100
AcDbSymbolTableRecord
100
AcDbBlockTableRecord
  2
*D2
  0
ENDTAB
  0
ENDSEC
  0
SECTION
  2
BLOCKS
  0
BLOCK
  5
15C
100
AcDbEntity
  8
0
100
AcDbBlockBegin
  2
*MODEL_SPACE
 70
     0
 10
0.0
 20
0.0
 30
0.0
  3
*MODEL_SPACE
  1

  0
ENDBLK
  5
15D
100
AcDbEntity
100
AcDbBlockEnd
  0
BLOCK
  5
15E
100
AcDbEntity
  8
0
100
AcDbBlockBegin
  2
*PAPER_SPACE
 70
     0
 10
0.0
 20
0.0
 30
0.0
  3
*PAPER_SPACE
  1

  0
ENDBLK
  5
15F
100
AcDbEntity
100
AcDbBlockEnd
  0
BLOCK
  5
160
100
AcDbEntity
  8
0
100
AcDbBlockBegin
  2
CDWK_EXTR_0
 70
     0
 10
0.0
 20
0.0
 30
0.0
  3
CDWK_EXTR_0
  1

  4
Cadwork line-extremity
  0
LINE
  5
161
100
AcDbEntity
  8
0
 62
     0
370
    -2
100
AcDbLine
 10
0.0
 20
0.0
 30
0.0
 11
2.0
 21
0.5
 31
0.0
  0
LINE
  5
162
100
AcDbEntity
  8
0
 62
     0
370
    -2
100
AcDbLine
 10
0.0
 20
0.0
 30
0.0
 11
2.0
 21
-0.5
 31
0.0
  0
LINE
  5
163
100
AcDbEntity
  8
0
 62
     0
370
    -2
100
AcDbLine
 10
2.0
 20
0.5
 30
0.0
 11
2.0
 21
-0.5
 31
0.0
  0
ENDBLK
  5
164
100
AcDbEntity
100
AcDbBlockEnd
  0
BLOCK
  5
165
100
AcDbEntity
  8
0
100
AcDbBlockBegin
  2
CDWK_EXTR_1D
 70
     0
 10
0.0
 20
0.0
 30
0.0
  3
CDWK_EXTR_1D
  1

  4
Cadwork line-extremity
  0
LINE
  5
166
100
AcDbEntity
  8
0
 62
     0
370
    -2
100
AcDbLine
 10
0.0
 20
0.0
 30
0.0
 11
0.0
 21
1.0
 31
0.0
  0
LINE
  5
167
100
AcDbEntity
  8
0
 62
     0
370
    -2
100
AcDbLine
 10
0.0
 20
1.0
 30
0.0
 11
0.5
 21
1.5
 31
0.0
  0
LINE
  5
168
100
AcDbEntity
  8
0
 62
     0
370
    -2
100
AcDbLine
 10
0.5
 20
1.5
 30
0.0
 11
1.5
 21
1.5
 31
0.0
  0
ENDBLK
  5
169
100
AcDbEntity
100
AcDbBlockEnd
  0
BLOCK
  5
16A
100
AcDbEntity
  8
0
100
AcDbBlockBegin
  2
CDWK_EXTR_1G
 70
     0
 10
0.0
 20
0.0
 30
0.0
  3
CDWK_EXTR_1G
  1

  4
Cadwork line-extremity
  0
LINE
  5
16B
100
AcDbEntity
  8
0
 62
     0
370
    -2
100
AcDbLine
 10
0.0
 20
0.0
 30
0.0
 11
0.0
 21
-1.0
 31
0.0
  0
LINE
  5
16C
100
AcDbEntity
  8
0
 62
     0
370
    -2
100
AcDbLine
 10
0.0
 20
-1.0
 30
0.0
 11
0.5
 21
-1.5
 31
0.0
  0
LINE
  5
16D
100
AcDbEntity
  8
0
 62
     0
370
    -2
100
AcDbLine
 10
0.5
 20
-1.5
 30
0.0
 11
1.5
 21
-1.5
 31
0.0
  0
ENDBLK
  5
16E
100
AcDbEntity
100
AcDbBlockEnd
  0
BLOCK
  5
16F
100
AcDbEntity
  8
0
100
AcDbBlockBegin
  2
CDWK_EXTR_2
 70
     0
 10
0.0
 20
0.0
 30
0.0
  3
CDWK_EXTR_2
  1

  4
Cadwork line-extremity
  0
SOLID
  5
170
100
AcDbEntity
  8
0
 62
     0
100
AcDbTrace
 10
0.0
 20
0.0
 11
2.0
 21
0.5
 12
2.0
 22
-0.5
 13
2.0
 23
-0.5
  0
ENDBLK
  5
171
100
AcDbEntity
100
AcDbBlockEnd
  0
BLOCK
  5
172
100
AcDbEntity
  8
0
100
AcDbBlockBegin
  2
CDWK_EXTR_3
 70
     0
 10
0.0
 20
0.0
 30
0.0
  3
CDWK_EXTR_3
  1

  4
Cadwork line-extremity
  0
SOLID
  5
173
100
AcDbEntity
  8
0
 62
     0
100
AcDbTrace
 10
0.0
 20
0.0
 11
2.0
 21
0.5
 12
2.0
 22
-0.5
 13
2.0
 23
-0.5
  0
LINE
  5
174
100
AcDbEntity
  8
0
 62
     0
370
    -2
100
AcDbLine
 10
0.0
 20
1.0
 30
0.0
 11
0.0
 21
-1.0
 31
0.0
  0
ENDBLK
  5
175
100
AcDbEntity
100
AcDbBlockEnd
  0
BLOCK
  5
176
100
AcDbEntity
  8
0
100
AcDbBlockBegin
  2
CDWK_EXTR_4
 70
     0
 10
0.0
 20
0.0
 30
0.0
  3
CDWK_EXTR_4
  1

  4
Cadwork line-extremity
  0
HATCH
  5
177
100
AcDbEntity
  8
0
 62
     0
370
    -2
100
AcDbHatch
 10
0.0
 20
0.0
 30
0.0
210
0.0
220
0.0
230
1.0
  2
SOLID
 70
     1
 71
     0
 91
        1
 92
        1
 93
        1
 72
     2
 10
0.0
 20
0.0
 40
0.5
 50
0.0
 51
360.0
 73
     1
 97
        0
 75
     0
 76
     1
 98
        1
 10
0.0
 20
0.0
  0
ENDBLK
  5
178
100
AcDbEntity
100
AcDbBlockEnd
  0
BLOCK
  5
179
100
AcDbEntity
  8
0
100
AcDbBlockBegin
  2
CDWK_PTTYP0
 70
     0
 10
0.0
 20
0.0
 30
0.0
  3
CDWK_PTTYP0
  1

  4
Cadwork point
  0
POINT
  5
17A
100
AcDbEntity
  8
0
 62
     0
100
AcDbPoint
 10
0.0
 20
0.0
 30
0.0
  0
ENDBLK
  5
17B
100
AcDbEntity
100
AcDbBlockEnd
  0
BLOCK
  5
17C
100
AcDbEntity
  8
0
100
AcDbBlockBegin
  2
CDWK_PTTYP1
 70
     0
 10
0.0
 20
0.0
 30
0.0
  3
CDWK_PTTYP1
  1

  4
Cadwork node
  0
LINE
  5
17D
100
AcDbEntity
  8
0
 62
     0
370
    -2
100
AcDbLine
 10
-0.5
 20
0.5
 30
0.0
 11
0.5
 21
0.5
 31
0.0
  0
LINE
  5
17E
100
AcDbEntity
  8
0
 62
     0
370
    -2
100
AcDbLine
 10
0.5
 20
0.5
 30
0.0
 11
0.5
 21
-0.5
 31
0.0
  0
LINE
  5
17F
100
AcDbEntity
  8
0
 62
     0
370
    -2
100
AcDbLine
 10
0.5
 20
-0.5
 30
0.0
 11
-0.5
 21
-0.5
 31
0.0
  0
LINE
  5
180
100
AcDbEntity
  8
0
 62
     0
370
    -2
100
AcDbLine
 10
-0.5
 20
-0.5
 30
0.0
 11
-0.5
 21
0.5
 31
0.0
  0
ENDBLK
  5
181
100
AcDbEntity
100
AcDbBlockEnd
  0
BLOCK
  5
182
100
AcDbEntity
  8
0
100
AcDbBlockBegin
  2
CDWK_PTTYP2
 70
     0
 10
0.0
 20
0.0
 30
0.0
  3
CDWK_PTTYP2
  1

  4
Cadwork node
  0
LINE
  5
183
100
AcDbEntity
  8
0
 62
     0
370
    -2
100
AcDbLine
 10
0.0
 20
0.5
 30
0.0
 11
0.0
 21
-0.5
 31
0.0
  0
LINE
  5
184
100
AcDbEntity
  8
0
 62
     0
370
    -2
100
AcDbLine
 10
-0.5
 20
0.0
 30
0.0
 11
0.5
 21
0.0
 31
0.0
  0
ENDBLK
  5
185
100
AcDbEntity
100
AcDbBlockEnd
  0
BLOCK
  5
186
100
AcDbEntity
  8
0
100
AcDbBlockBegin
  2
CDWK_PTTYP3
 70
     0
 10
0.0
 20
0.0
 30
0.0
  3
CDWK_PTTYP3
  1

  4
Cadwork node
  0
CIRCLE
  5
187
100
AcDbEntity
  8
0
 62
     0
370
    -2
100
AcDbCircle
 10
0.0
 20
0.0
 30
0.0
 40
0.5
  0
ENDBLK
  5
188
100
AcDbEntity
100
AcDbBlockEnd
  0
BLOCK
  5
189
100
AcDbEntity
  8
0
100
AcDbBlockBegin
  2
CDWK_PTTYP4
 70
     0
 10
0.0
 20
0.0
 30
0.0
  3
CDWK_PTTYP4
  1

  4
Cadwork node
  0
HATCH
  5
18A
100
AcDbEntity
  8
0
 62
     0
370
    -2
100
AcDbHatch
 10
0.0
 20
0.0
 30
0.0
210
0.0
220
0.0
230
1.0
  2
SOLID
 70
     1
 71
     0
 91
        1
 92
        1
 93
        1
 72
     2
 10
0.0
 20
0.0
 40
0.5
 50
0.0
 51
360.0
 73
     1
 97
        0
 75
     0
 76
     1
 98
        1
 10
0.0
 20
0.0
  0
ENDBLK
  5
18B
100
AcDbEntity
100
AcDbBlockEnd
  0
BLOCK
  5
18C
100
AcDbEntity
  8
0
100
AcDbBlockBegin
  2
CDWK_PTTYP5
 70
     0
 10
0.0
 20
0.0
 30
0.0
  3
CDWK_PTTYP5
  1

  4
Cadwork node
  0
LINE
  5
18D
100
AcDbEntity
  8
0
 62
     0
370
    -2
100
AcDbLine
 10
-0.5
 20
0.5
 30
0.0
 11
0.5
 21
0.5
 31
0.0
  0
LINE
  5
18E
100
AcDbEntity
  8
0
 62
     0
370
    -2
100
AcDbLine
 10
0.5
 20
0.5
 30
0.0
 11
0.5
 21
-0.5
 31
0.0
  0
LINE
  5
18F
100
AcDbEntity
  8
0
 62
     0
370
    -2
100
AcDbLine
 10
0.5
 20
-0.5
 30
0.0
 11
-0.5
 21
-0.5
 31
0.0
  0
LINE
  5
190
100
AcDbEntity
  8
0
 62
     0
370
    -2
100
AcDbLine
 10
-0.5
 20
-0.5
 30
0.0
 11
-0.5
 21
0.5
 31
0.0
  0
SOLID
  5
191
100
AcDbEntity
  8
0
 62
     0
100
AcDbTrace
 10
-0.5
 20
-0.5
 11
-0.5
 21
0.0
 12
0.0
 22
-0.5
 13
0.0
 23
0.0
  0
SOLID
  5
192
100
AcDbEntity
  8
0
 62
     0
100
AcDbTrace
 10
0.0
 20
0.0
 11
0.0
 21
0.5
 12
0.5
 22
0.0
 13
0.5
 23
0.5
  0
ENDBLK
  5
193
100
AcDbEntity
100
AcDbBlockEnd
  0
BLOCK
  5
194
100
AcDbEntity
  8
0
100
AcDbBlockBegin
  2
CDWK_PTTYP6
 70
     0
 10
0.0
 20
0.0
 30
0.0
  3
CDWK_PTTYP6
  1

  4
Cadwork node
  0
LINE
  5
195
100
AcDbEntity
  8
0
 62
     0
370
    -2
100
AcDbLine
 10
-0.5
 20
0.5
 30
0.0
 11
0.5
 21
0.5
 31
0.0
  0
LINE
  5
196
100
AcDbEntity
  8
0
 62
     0
370
    -2
100
AcDbLine
 10
0.5
 20
0.5
 30
0.0
 11
0.5
 21
-0.5
 31
0.0
  0
LINE
  5
197
100
AcDbEntity
  8
0
 62
     0
370
    -2
100
AcDbLine
 10
0.5
 20
-0.5
 30
0.0
 11
-0.5
 21
-0.5
 31
0.0
  0
LINE
  5
198
100
AcDbEntity
  8
0
 62
     0
370
    -2
100
AcDbLine
 10
-0.5
 20
-0.5
 30
0.0
 11
-0.5
 21
0.5
 31
0.0
  0
SOLID
  5
199
100
AcDbEntity
  8
0
 62
     0
100
AcDbTrace
 10
-0.5
 20
-0.5
 11
-0.5
 21
0.5
 12
0.5
 22
0.5
 13
0.5
 23
0.5
  0
ENDBLK
  5
19A
100
AcDbEntity
100
AcDbBlockEnd
  0
BLOCK
  5
19B
100
AcDbEntity
  8
0
100
AcDbBlockBegin
  2
CDWK_PTTYP7
 70
     0
 10
0.0
 20
0.0
 30
0.0
  3
CDWK_PTTYP7
  1

  4
Cadwork node
  0
LINE
  5
19C
100
AcDbEntity
  8
0
 62
     0
370
    -2
100
AcDbLine
 10
-0.5
 20
0.5
 30
0.0
 11
0.5
 21
0.5
 31
0.0
  0
LINE
  5
19D
100
AcDbEntity
  8
0
 62
     0
370
    -2
100
AcDbLine
 10
0.5
 20
0.5
 30
0.0
 11
0.5
 21
-0.5
 31
0.0
  0
LINE
  5
19E
100
AcDbEntity
  8
0
 62
     0
370
    -2
100
AcDbLine
 10
0.5
 20
-0.5
 30
0.0
 11
-0.5
 21
-0.5
 31
0.0
  0
LINE
  5
19F
100
AcDbEntity
  8
0
 62
     0
370
    -2
100
AcDbLine
 10
-0.5
 20
-0.5
 30
0.0
 11
-0.5
 21
0.5
 31
0.0
  0
LINE
  5
1A0
100
AcDbEntity
  8
0
 62
     0
370
    -2
100
AcDbLine
 10
0.0
 20
0.5
 30
0.0
 11
0.0
 21
-0.5
 31
0.0
  0
LINE
  5
1A1
100
AcDbEntity
  8
0
 62
     0
370
    -2
100
AcDbLine
 10
-0.5
 20
0.0
 30
0.0
 11
0.5
 21
0.0
 31
0.0
  0
ENDBLK
  5
1A2
100
AcDbEntity
100
AcDbBlockEnd
  0
BLOCK
  5
1A3
100
AcDbEntity
  8
0
100
AcDbBlockBegin
  2
CDWK_PTTYP8
 70
     0
 10
0.0
 20
0.0
 30
0.0
  3
CDWK_PTTYP8
  1

  4
Cadwork node
  0
SOLID
  5
1A4
100
AcDbEntity
  8
0
 62
     0
100
AcDbTrace
 10
-0.5
 20
0.5
 11
0.5
 21
0.5
 12
-0.5
 22
-0.5
 13
0.5
 23
-0.5
  0
ENDBLK
  5
1A5
100
AcDbEntity
100
AcDbBlockEnd
  0
BLOCK
  5
1A6
100
AcDbEntity
  8
0
100
AcDbBlockBegin
  2
CDWK_PTTYP9
 70
     0
 10
0.0
 20
0.0
 30
0.0
  3
CDWK_PTTYP9
  1

  4
Cadwork node
  0
CIRCLE
  5
1A7
100
AcDbEntity
  8
0
 62
     0
370
    -2
100
AcDbCircle
 10
0.0
 20
0.0
 30
0.0
 40
0.5
  0
CIRCLE
  5
1A8
100
AcDbEntity
  8
0
 62
     0
370
    -2
100
AcDbCircle
 10
0.0
 20
0.0
 30
0.0
 40
0.16666667
  0
ENDBLK
  5
1A9
100
AcDbEntity
100
AcDbBlockEnd
  0
BLOCK
  5
1AA
100
AcDbEntity
  8
0
100
AcDbBlockBegin
  2
CDWK_PTTYP10
 70
     0
 10
0.0
 20
0.0
 30
0.0
  3
CDWK_PTTYP10
  1

  4
Cadwork node
  0
CIRCLE
  5
1AB
100
AcDbEntity
  8
0
 62
     0
370
    -2
100
AcDbCircle
 10
0.0
 20
0.0
 30
0.0
 40
0.5
  0
ENDBLK
  5
1AC
100
AcDbEntity
100
AcDbBlockEnd
  0
BLOCK
  5
1AD
100
AcDbEntity
  8
0
100
AcDbBlockBegin
  2
CDWK_PTTYP11
 70
     0
 10
0.0
 20
0.0
 30
0.0
  3
CDWK_PTTYP11
  1

  4
Cadwork node
  0
CIRCLE
  5
1AE
100
AcDbEntity
  8
0
 62
     0
370
    -2
100
AcDbCircle
 10
0.0
 20
0.0
 30
0.0
 40
0.5
  0
CIRCLE
  5
1AF
100
AcDbEntity
  8
0
 62
     0
370
    -2
100
AcDbCircle
 10
0.0
 20
0.0
 30
0.0
 40
0.25
  0
ENDBLK
  5
1B0
100
AcDbEntity
100
AcDbBlockEnd
  0
BLOCK
  5
1B1
100
AcDbEntity
  8
0
100
AcDbBlockBegin
  2
CDWK_PTTYP12
 70
     0
 10
0.0
 20
0.0
 30
0.0
  3
CDWK_PTTYP12
  1

  4
Cadwork node
  0
CIRCLE
  5
1B2
100
AcDbEntity
  8
0
 62
     0
370
    -2
100
AcDbCircle
 10
0.0
 20
0.0
 30
0.0
 40
0.5
  0
CIRCLE
  5
1B3
100
AcDbEntity
  8
0
 62
     0
370
    -2
100
AcDbCircle
 10
0.25
 20
0.0
 30
0.0
 40
0.25
  0
ENDBLK
  5
1B4
100
AcDbEntity
100
AcDbBlockEnd
  0
BLOCK
  5
1B5
100
AcDbEntity
  8
0
100
AcDbBlockBegin
  2
CDWK_PTTYP13
 70
     0
 10
0.0
 20
0.0
 30
0.0
  3
CDWK_PTTYP13
  1

  4
Cadwork node
  0
CIRCLE
  5
1B6
100
AcDbEntity
  8
0
 62
     0
370
    -2
100
AcDbCircle
 10
0.0
 20
0.0
 30
0.0
 40
0.5
  0
CIRCLE
  5
1B7
100
AcDbEntity
  8
0
 62
     0
370
    -2
100
AcDbCircle
 10
0.25
 20
0.0
 30
0.0
 40
0.25
  0
CIRCLE
  5
1B8
100
AcDbEntity
  8
0
 62
     0
370
    -2
100
AcDbCircle
 10
-0.25
 20
0.0
 30
0.0
 40
0.25
  0
ENDBLK
  5
1B9
100
AcDbEntity
100
AcDbBlockEnd
  0
BLOCK
  5
1BA
100
AcDbEntity
  8
0
100
AcDbBlockBegin
  2
CDWK_PTTYP14
 70
     0
 10
0.0
 20
0.0
 30
0.0
  3
CDWK_PTTYP14
  1

  4
Cadwork node
  0
POINT
  5
1BB
100
AcDbEntity
  8
0
 62
     0
100
AcDbPoint
 10
0.0
 20
0.0
 30
0.0
  0
ENDBLK
  5
1BC
100
AcDbEntity
100
AcDbBlockEnd
  0
BLOCK
  5
1BD
100
AcDbEntity
  8
0
100
AcDbBlockBegin
  2
CDWK_PTTYP15
 70
     0
 10
0.0
 20
0.0
 30
0.0
  3
CDWK_PTTYP15
  1

  4
Cadwork node
  0
POINT
  5
1BE
100
AcDbEntity
  8
0
 62
     0
100
AcDbPoint
 10
0.0
 20
0.0
 30
0.0
  0
ENDBLK
  5
1BF
100
AcDbEntity
100
AcDbBlockEnd
  0
BLOCK
  5
1C0
100
AcDbEntity
  8
0
100
AcDbBlockBegin
  2
CDWK_PTTYP16
 70
     0
 10
0.0
 20
0.0
 30
0.0
  3
CDWK_PTTYP16
  1

  4
Cadwork node
  0
LINE
  5
1C1
100
AcDbEntity
  8
0
 62
     0
370
    -2
100
AcDbLine
 10
-0.5
 20
-0.28867513
 30
0.0
 11
0.5
 21
-0.28867513
 31
0.0
  0
LINE
  5
1C2
100
AcDbEntity
  8
0
 62
     0
370
    -2
100
AcDbLine
 10
0.5
 20
-0.28867513
 30
0.0
 11
0.0
 21
0.57735027
 31
0.0
  0
LINE
  5
1C3
100
AcDbEntity
  8
0
 62
     0
370
    -2
100
AcDbLine
 10
0.0
 20
0.57735027
 30
0.0
 11
-0.5
 21
-0.28867513
 31
0.0
  0
CIRCLE
  5
1C4
100
AcDbEntity
  8
0
 62
     0
370
    -2
100
AcDbCircle
 10
0.0
 20
0.0
 30
0.0
 40
0.28867513
  0
ENDBLK
  5
1C5
100
AcDbEntity
100
AcDbBlockEnd
  0
BLOCK
  5
1C6
100
AcDbEntity
  8
0
100
AcDbBlockBegin
  2
CDWK_PTTYP17
 70
     0
 10
0.0
 20
0.0
 30
0.0
  3
CDWK_PTTYP17
  1

  4
Cadwork node
  0
CIRCLE
  5
1C7
100
AcDbEntity
  8
0
 62
     0
370
    -2
100
AcDbCircle
 10
0.0
 20
0.0
 30
0.0
 40
0.5
  0
HATCH
  5
1C8
100
AcDbEntity
  8
0
 62
     0
370
    -2
100
AcDbHatch
 10
0.0
 20
0.0
 30
0.0
210
0.0
220
0.0
230
1.0
  2
SOLID
 70
     1
 71
     0
 91
        1
 92
        1
 93
        1
 72
     2
 10
0.0
 20
0.0
 40
0.25
 50
0.0
 51
360.0
 73
     1
 97
        0
 75
     0
 76
     1
 98
        1
 10
0.0
 20
0.0
  0
ENDBLK
  5
1C9
100
AcDbEntity
100
AcDbBlockEnd
  0
BLOCK
  5
1CA
100
AcDbEntity
  8
0
100
AcDbBlockBegin
  2
CDWK_PTTYP18
 70
     0
 10
0.0
 20
0.0
 30
0.0
  3
CDWK_PTTYP18
  1

  4
Cadwork node
  0
CIRCLE
  5
1CB
100
AcDbEntity
  8
0
 62
     0
370
    -2
100
AcDbCircle
 10
0.0
 20
0.0
 30
0.0
 40
0.5
  0
CIRCLE
  5
1CC
100
AcDbEntity
  8
0
 62
     0
370
    -2
100
AcDbCircle
 10
0.0
 20
0.0
 30
0.0
 40
0.2
  0
ENDBLK
  5
1CD
100
AcDbEntity
100
AcDbBlockEnd
  0
BLOCK
  5
1CE
100
AcDbEntity
  8
0
100
AcDbBlockBegin
  2
CDWK_PTTYP19
 70
     0
 10
0.0
 20
0.0
 30
0.0
  3
CDWK_PTTYP19
  1

  4
Cadwork node
  0
CIRCLE
  5
1CF
100
AcDbEntity
  8
0
 62
     0
370
    -2
100
AcDbCircle
 10
0.0
 20
0.0
 30
0.0
 40
0.4
  0
CIRCLE
  5
1D0
100
AcDbEntity
  8
0
 62
     0
370
    -2
100
AcDbCircle
 10
0.0
 20
0.0
 30
0.0
 40
0.25
  0
LINE
  5
1D1
100
AcDbEntity
  8
0
 62
     0
370
    -2
100
AcDbLine
 10
-0.25
 20
0.0
 30
0.0
 11
0.25
 21
0.0
 31
0.0
  0
ENDBLK
  5
1D2
100
AcDbEntity
100
AcDbBlockEnd
  0
BLOCK
  5
1D3
100
AcDbEntity
  8
0
100
AcDbBlockBegin
  2
CDWK_PTTYP20
 70
     0
 10
0.0
 20
0.0
 30
0.0
  3
CDWK_PTTYP20
  1

  4
Cadwork node
  0
CIRCLE
  5
1D4
100
AcDbEntity
  8
0
 62
     0
370
    -2
100
AcDbCircle
 10
0.0
 20
0.0
 30
0.0
 40
0.5
  0
CIRCLE
  5
1D5
100
AcDbEntity
  8
0
 62
     0
370
    -2
100
AcDbCircle
 10
0.0
 20
0.0
 30
0.0
 40
0.3
  0
ENDBLK
  5
1D6
100
AcDbEntity
100
AcDbBlockEnd
  0
BLOCK
  5
1D7
100
AcDbEntity
  8
0
100
AcDbBlockBegin
  2
CDWK_PTTYP21
 70
     0
 10
0.0
 20
0.0
 30
0.0
  3
CDWK_PTTYP21
  1

  4
Cadwork node
  0
CIRCLE
  5
1D8
100
AcDbEntity
  8
0
 62
     0
370
    -2
100
AcDbCircle
 10
0.0
 20
0.0
 30
0.0
 40
0.5
  0
LINE
  5
1D9
100
AcDbEntity
  8
0
 62
     0
370
    -2
100
AcDbLine
 10
-0.5
 20
0.0
 30
0.0
 11
0.5
 21
0.0
 31
0.0
  0
ENDBLK
  5
1DA
100
AcDbEntity
100
AcDbBlockEnd
  0
BLOCK
  5
1DB
100
AcDbEntity
  8
0
100
AcDbBlockBegin
  2
CDWK_PTTYP22
 70
     0
 10
0.0
 20
0.0
 30
0.0
  3
CDWK_PTTYP22
  1

  4
Cadwork node
  0
POINT
  5
1DC
100
AcDbEntity
  8
0
 62
     0
100
AcDbPoint
 10
0.0
 20
0.0
 30
0.0
  0
ENDBLK
  5
1DD
100
AcDbEntity
100
AcDbBlockEnd
  0
BLOCK
  5
1DE
100
AcDbEntity
  8
0
100
AcDbBlockBegin
  2
CDWK_PTTYP23
 70
     0
 10
0.0
 20
0.0
 30
0.0
  3
CDWK_PTTYP23
  1

  4
Cadwork node
  0
POINT
  5
1DF
100
AcDbEntity
  8
0
 62
     0
100
AcDbPoint
 10
0.0
 20
0.0
 30
0.0
  0
ENDBLK
  5
1E0
100
AcDbEntity
100
AcDbBlockEnd
  0
BLOCK
  5
1E1
100
AcDbEntity
  8
0
100
AcDbBlockBegin
  2
CDWK_PTTYP24
 70
     0
 10
0.0
 20
0.0
 30
0.0
  3
CDWK_PTTYP24
  1

  4
Cadwork node
  0
POINT
  5
1E2
100
AcDbEntity
  8
0
 62
     0
100
AcDbPoint
 10
0.0
 20
0.0
 30
0.0
  0
ENDBLK
  5
1E3
100
AcDbEntity
100
AcDbBlockEnd
  0
BLOCK
  5
1E4
100
AcDbEntity
  8
0
100
AcDbBlockBegin
  2
CDWK_PTTYP25
 70
     0
 10
0.0
 20
0.0
 30
0.0
  3
CDWK_PTTYP25
  1

  4
Cadwork node
  0
LINE
  5
1E5
100
AcDbEntity
  8
0
 62
     0
370
    -2
100
AcDbLine
 10
-0.43290044
 20
-0.25
 30
0.0
 11
0.43290044
 21
-0.25
 31
0.0
  0
LINE
  5
1E6
100
AcDbEntity
  8
0
 62
     0
370
    -2
100
AcDbLine
 10
-0.43290044
 20
-0.25
 30
0.0
 11
0.0
 21
0.5
 31
0.0
  0
LINE
  5
1E7
100
AcDbEntity
  8
0
 62
     0
370
    -2
100
AcDbLine
 10
0.43290044
 20
-0.25
 30
0.0
 11
0.0
 21
0.5
 31
0.0
  0
CIRCLE
  5
1E8
100
AcDbEntity
  8
0
 62
     0
370
    -2
100
AcDbCircle
 10
0.0
 20
0.0
 30
0.0
 40
0.5
  0
ENDBLK
  5
1E9
100
AcDbEntity
100
AcDbBlockEnd
  0
BLOCK
  5
1EA
100
AcDbEntity
  8
0
100
AcDbBlockBegin
  2
CDWK_PTTYP26
 70
     0
 10
0.0
 20
0.0
 30
0.0
  3
CDWK_PTTYP26
  1

  4
Cadwork node
  0
LINE
  5
1EB
100
AcDbEntity
  8
0
 62
     0
370
    -2
100
AcDbLine
 10
-0.5
 20
-0.28850001
 30
0.0
 11
0.5
 21
-0.28850001
 31
0.0
  0
LINE
  5
1EC
100
AcDbEntity
  8
0
 62
     0
370
    -2
100
AcDbLine
 10
-0.5
 20
-0.28850001
 30
0.0
 11
0.0
 21
0.57736721
 31
0.0
  0
LINE
  5
1ED
100
AcDbEntity
  8
0
 62
     0
370
    -2
100
AcDbLine
 10
0.5
 20
-0.28850001
 30
0.0
 11
0.0
 21
0.57736721
 31
0.0
  0
CIRCLE
  5
1EE
100
AcDbEntity
  8
0
 62
     0
370
    -2
100
AcDbCircle
 10
0.0
 20
0.0
 30
0.0
 40
0.1312336
  0
ENDBLK
  5
1EF
100
AcDbEntity
100
AcDbBlockEnd
  0
BLOCK
  5
1F0
100
AcDbEntity
  8
0
100
AcDbBlockBegin
  2
CDWK_PTTYP27
 70
     0
 10
0.0
 20
0.0
 30
0.0
  3
CDWK_PTTYP27
  1

  4
Cadwork node
  0
LINE
  5
1F1
100
AcDbEntity
  8
0
 62
     0
370
    -2
100
AcDbLine
 10
-0.43290044
 20
-0.25
 30
0.0
 11
0.43290044
 21
-0.25
 31
0.0
  0
LINE
  5
1F2
100
AcDbEntity
  8
0
 62
     0
370
    -2
100
AcDbLine
 10
-0.43290044
 20
-0.25
 30
0.0
 11
0.0
 21
0.5
 31
0.0
  0
LINE
  5
1F3
100
AcDbEntity
  8
0
 62
     0
370
    -2
100
AcDbLine
 10
0.43290044
 20
-0.25
 30
0.0
 11
0.0
 21
0.5
 31
0.0
  0
CIRCLE
  5
1F4
100
AcDbEntity
  8
0
 62
     0
370
    -2
100
AcDbCircle
 10
0.0
 20
0.0
 30
0.0
 40
0.5
  0
CIRCLE
  5
1F5
100
AcDbEntity
  8
0
 62
     0
370
    -2
100
AcDbCircle
 10
0.0
 20
0.0
 30
0.0
 40
0.1312336
  0
ENDBLK
  5
1F6
100
AcDbEntity
100
AcDbBlockEnd
  0
BLOCK
  5
1F7
100
AcDbEntity
  8
0
100
AcDbBlockBegin
  2
CDWK_PTTYP28
 70
     0
 10
0.0
 20
0.0
 30
0.0
  3
CDWK_PTTYP28
  1

  4
Cadwork node
  0
POINT
  5
1F8
100
AcDbEntity
  8
0
 62
     0
100
AcDbPoint
 10
0.0
 20
0.0
 30
0.0
  0
ENDBLK
  5
1F9
100
AcDbEntity
100
AcDbBlockEnd
  0
BLOCK
  5
1FA
100
AcDbEntity
  8
0
100
AcDbBlockBegin
  2
CDWK_PTTYP29
 70
     0
 10
0.0
 20
0.0
 30
0.0
  3
CDWK_PTTYP29
  1

  4
Cadwork node
  0
CIRCLE
  5
1FB
100
AcDbEntity
  8
0
 62
     0
370
    -2
100
AcDbCircle
 10
0.0
 20
0.0
 30
0.0
 40
0.5
  0
CIRCLE
  5
1FC
100
AcDbEntity
  8
0
 62
     0
370
    -2
100
AcDbCircle
 10
0.0
 20
0.0
 30
0.0
 40
0.375
  0
CIRCLE
  5
1FD
100
AcDbEntity
  8
0
 62
     0
370
    -2
100
AcDbCircle
 10
0.0
 20
0.0
 30
0.0
 40
0.21875
  0
ENDBLK
  5
1FE
100
AcDbEntity
100
AcDbBlockEnd
  0
BLOCK
  5
1FF
100
AcDbEntity
  8
0
100
AcDbBlockBegin
  2
CDWK_PTTYP30
 70
     0
 10
0.0
 20
0.0
 30
0.0
  3
CDWK_PTTYP30
  1

  4
Cadwork node
  0
LINE
  5
200
100
AcDbEntity
  8
0
 62
     0
370
    -2
100
AcDbLine
 10
0.17680339
 20
0.17680339
 30
0.0
 11
0.5
 21
0.5
 31
0.0
  0
LINE
  5
201
100
AcDbEntity
  8
0
 62
     0
370
    -2
100
AcDbLine
 10
-0.17680339
 20
0.17680339
 30
0.0
 11
-0.5
 21
0.5
 31
0.0
  0
LINE
  5
202
100
AcDbEntity
  8
0
 62
     0
370
    -2
100
AcDbLine
 10
0.17680339
 20
-0.17680339
 30
0.0
 11
0.5
 21
-0.5
 31
0.0
  0
LINE
  5
203
100
AcDbEntity
  8
0
 62
     0
370
    -2
100
AcDbLine
 10
-0.17680339
 20
-0.17680339
 30
0.0
 11
-0.5
 21
-0.5
 31
0.0
  0
ENDBLK
  5
204
100
AcDbEntity
100
AcDbBlockEnd
  0
BLOCK
  5
205
100
AcDbEntity
  8
0
100
AcDbBlockBegin
  2
CDWK_PTTYP31
 70
     0
 10
0.0
 20
0.0
 30
0.0
  3
CDWK_PTTYP31
  1

  4
Cadwork node
  0
CIRCLE
  5
206
100
AcDbEntity
  8
0
 62
     0
370
    -2
100
AcDbCircle
 10
0.0
 20
0.0
 30
0.0
 40
0.075
  0
LINE
  5
207
100
AcDbEntity
  8
0
 62
     0
370
    -2
100
AcDbLine
 10
0.075
 20
0.0
 30
0.0
 11
0.5
 21
0.0
 31
0.0
  0
LINE
  5
208
100
AcDbEntity
  8
0
 62
     0
370
    -2
100
AcDbLine
 10
-0.075
 20
0.0
 30
0.0
 11
-0.5
 21
0.0
 31
0.0
  0
LINE
  5
209
100
AcDbEntity
  8
0
 62
     0
370
    -2
100
AcDbLine
 10
0.0
 20
0.075
 30
0.0
 11
0.0
 21
0.5
 31
0.0
  0
LINE
  5
20A
100
AcDbEntity
  8
0
 62
     0
370
    -2
100
AcDbLine
 10
0.0
 20
-0.075
 30
0.0
 11
0.0
 21
-0.5
 31
0.0
  0
ENDBLK
  5
20B
100
AcDbEntity
100
AcDbBlockEnd
  0
BLOCK
  5
20C
100
AcDbEntity
  8
0
100
AcDbBlockBegin
  2
CDWK_PTTYP32
 70
     0
 10
0.0
 20
0.0
 30
0.0
  3
CDWK_PTTYP32
  1

  4
Cadwork node
  0
CIRCLE
  5
20D
100
AcDbEntity
  8
0
 62
     0
370
    -2
100
AcDbCircle
 10
0.0
 20
0.0
 30
0.0
 40
0.5
  0
CIRCLE
  5
20E
100
AcDbEntity
  8
0
 62
     0
370
    -2
100
AcDbCircle
 10
0.0
 20
0.0
 30
0.0
 40
0.16666667
  0
LINE
  5
20F
100
AcDbEntity
  8
0
 62
     0
370
    -2
100
AcDbLine
 10
0.11786893
 20
0.11786893
 30
0.0
 11
0.35360678
 21
0.35360678
 31
0.0
  0
LINE
  5
210
100
AcDbEntity
  8
0
 62
     0
370
    -2
100
AcDbLine
 10
-0.11786893
 20
0.11786893
 30
0.0
 11
-0.35360678
 21
0.35360678
 31
0.0
  0
LINE
  5
211
100
AcDbEntity
  8
0
 62
     0
370
    -2
100
AcDbLine
 10
0.11786893
 20
-0.11786893
 30
0.0
 11
0.35360678
 21
-0.35360678
 31
0.0
  0
LINE
  5
212
100
AcDbEntity
  8
0
 62
     0
370
    -2
100
AcDbLine
 10
-0.11786893
 20
-0.11786893
 30
0.0
 11
-0.35360678
 21
-0.35360678
 31
0.0
  0
ENDBLK
  5
213
100
AcDbEntity
100
AcDbBlockEnd
  0
BLOCK
  5
214
100
AcDbEntity
  8
0
100
AcDbBlockBegin
  2
CDWK_PTTYP33
 70
     0
 10
0.0
 20
0.0
 30
0.0
  3
CDWK_PTTYP33
  1

  4
Cadwork node
  0
CIRCLE
  5
215
100
AcDbEntity
  8
0
 62
     0
370
    -2
100
AcDbCircle
 10
0.0
 20
0.0
 30
0.0
 40
0.5
  0
LINE
  5
216
100
AcDbEntity
  8
0
 62
     0
370
    -2
100
AcDbLine
 10
0.0
 20
0.5
 30
0.0
 11
0.0
 21
-0.5
 31
0.0
  0
LINE
  5
217
100
AcDbEntity
  8
0
 62
     0
370
    -2
100
AcDbLine
 10
-0.5
 20
0.0
 30
0.0
 11
0.5
 21
0.0
 31
0.0
  0
ENDBLK
  5
218
100
AcDbEntity
100
AcDbBlockEnd
  0
BLOCK
  5
219
100
AcDbEntity
  8
0
100
AcDbBlockBegin
  2
CDWK_PTTYP34
 70
     0
 10
0.0
 20
0.0
 30
0.0
  3
CDWK_PTTYP34
  1

  4
Cadwork node
  0
CIRCLE
  5
21A
100
AcDbEntity
  8
0
 62
     0
370
    -2
100
AcDbCircle
 10
0.0
 20
0.0
 30
0.0
 40
0.5
  0
LINE
  5
21B
100
AcDbEntity
  8
0
 62
     0
370
    -2
100
AcDbLine
 10
-0.30360678
 20
-0.40360678
 30
0.0
 11
0.40360678
 21
0.30360678
 31
0.0
  0
LINE
  5
21C
100
AcDbEntity
  8
0
 62
     0
370
    -2
100
AcDbLine
 10
-0.40360678
 20
-0.30360678
 30
0.0
 11
0.30360678
 21
0.40360678
 31
0.0
  0
ENDBLK
  5
21D
100
AcDbEntity
100
AcDbBlockEnd
  0
BLOCK
  5
21E
100
AcDbEntity
  8
0
100
AcDbBlockBegin
  2
CDWK_PTTYP35
 70
     0
 10
0.0
 20
0.0
 30
0.0
  3
CDWK_PTTYP35
  1

  4
Cadwork node
  0
CIRCLE
  5
21F
100
AcDbEntity
  8
0
 62
     0
370
    -2
100
AcDbCircle
 10
0.0
 20
0.0
 30
0.0
 40
0.21431634
  0
LINE
  5
220
100
AcDbEntity
  8
0
 62
     0
370
    -2
100
AcDbLine
 10
0.0
 20
0.21431634
 30
0.0
 11
0.0
 21
0.5
 31
0.0
  0
LINE
  5
221
100
AcDbEntity
  8
0
 62
     0
370
    -2
100
AcDbLine
 10
0.0
 20
-0.21431634
 30
0.0
 11
0.0
 21
-0.5
 31
0.0
  0
ENDBLK
  5
222
100
AcDbEntity
100
AcDbBlockEnd
  0
BLOCK
  5
223
100
AcDbEntity
  8
0
100
AcDbBlockBegin
  2
CDWK_PTTYP36
 70
     0
 10
0.0
 20
0.0
 30
0.0
  3
CDWK_PTTYP36
  1

  4
Cadwork node
  0
LINE
  5
224
100
AcDbEntity
  8
0
 62
     0
370
    -2
100
AcDbLine
 10
-0.5
 20
-0.16666667
 30
0.0
 11
0.5
 21
-0.16666667
 31
0.0
  0
LINE
  5
225
100
AcDbEntity
  8
0
 62
     0
370
    -2
100
AcDbLine
 10
0.5
 20
-0.16666667
 30
0.0
 11
0.5
 21
0.16666667
 31
0.0
  0
LINE
  5
226
100
AcDbEntity
  8
0
 62
     0
370
    -2
100
AcDbLine
 10
0.5
 20
0.16666667
 30
0.0
 11
-0.5
 21
0.16666667
 31
0.0
  0
LINE
  5
227
100
AcDbEntity
  8
0
 62
     0
370
    -2
100
AcDbLine
 10
-0.5
 20
0.16666667
 30
0.0
 11
-0.5
 21
-0.16666667
 31
0.0
  0
SOLID
  5
228
100
AcDbEntity
  8
0
 62
     0
100
AcDbTrace
 10
-0.5
 20
-0.16666667
 11
0.5
 21
0.16666667
 12
0.5
 22
-0.16666667
 13
0.5
 23
-0.16666667
  0
ENDBLK
  5
229
100
AcDbEntity
100
AcDbBlockEnd
  0
BLOCK
  5
22A
100
AcDbEntity
  8
0
100
AcDbBlockBegin
  2
CDWK_PTTYP37
 70
     0
 10
0.0
 20
0.0
 30
0.0
  3
CDWK_PTTYP37
  1

  4
Cadwork node
  0
CIRCLE
  5
22B
100
AcDbEntity
  8
0
 62
     0
370
    -2
100
AcDbCircle
 10
0.0
 20
0.0
 30
0.0
 40
0.5
  0
SOLID
  5
22C
100
AcDbEntity
  8
0
 62
     0
100
AcDbTrace
 10
0.0
 20
0.0
 11
0.35350001
 21
0.35350001
 12
0.5
 22
0.0
 13
0.46200001
 23
0.19149999
  0
SOLID
  5
22D
100
AcDbEntity
  8
0
 62
     0
100
AcDbTrace
 10
0.0
 20
0.0
 11
0.35350001
 21
-0.35350001
 12
0.5
 22
0.0
 13
0.46200001
 23
-0.19149999
  0
SOLID
  5
22E
100
AcDbEntity
  8
0
 62
     0
100
AcDbTrace
 10
0.0
 20
0.0
 11
0.0
 21
-0.5
 12
0.35350001
 22
-0.35350001
 13
0.19149999
 23
-0.46200001
  0
SOLID
  5
22F
100
AcDbEntity
  8
0
 62
     0
100
AcDbTrace
 10
0.0
 20
0.0
 11
0.0
 21
-0.5
 12
-0.35350001
 22
-0.35350001
 13
-0.19149999
 23
-0.46200001
  0
ENDBLK
  5
230
100
AcDbEntity
100
AcDbBlockEnd
  0
BLOCK
  5
231
100
AcDbEntity
  8
0
100
AcDbBlockBegin
  2
CDWK_PTTYP38
 70
     0
 10
0.0
 20
0.0
 30
0.0
  3
CDWK_PTTYP38
  1

  4
Cadwork node
  0
CIRCLE
  5
232
100
AcDbEntity
  8
0
 62
     0
370
    -2
100
AcDbCircle
 10
0.0
 20
0.0
 30
0.0
 40
0.5
  0
SOLID
  5
233
100
AcDbEntity
  8
0
 62
     0
100
AcDbTrace
 10
0.0
 20
0.0
 11
0.35350001
 21
0.35350001
 12
0.0
 22
0.5
 13
0.19149999
 23
0.46200001
  0
SOLID
  5
234
100
AcDbEntity
  8
0
 62
     0
100
AcDbTrace
 10
0.0
 20
0.0
 11
0.5
 21
0.0
 12
0.35350001
 22
0.35350001
 13
0.46200001
 23
0.19149999
  0
SOLID
  5
235
100
AcDbEntity
  8
0
 62
     0
100
AcDbTrace
 10
0.0
 20
0.0
 11
0.0
 21
-0.5
 12
-0.35350001
 22
-0.35350001
 13
-0.19149999
 23
-0.46200001
  0
SOLID
  5
236
100
AcDbEntity
  8
0
 62
     0
100
AcDbTrace
 10
0.0
 20
0.0
 11
-0.5
 21
0.0
 12
-0.35350001
 22
-0.35350001
 13
-0.46200001
 23
-0.19149999
  0
ENDBLK
  5
237
100
AcDbEntity
100
AcDbBlockEnd
  0
BLOCK
  5
238
100
AcDbEntity
  8
Ech.1_5
100
AcDbBlockBegin
  2
*X1
 70
     1
 10
0.0
 20
0.0
 30
0.0
  3
*X1
  1

  4
Cadwork hatch
  0
ENDBLK
  5
239
100
AcDbEntity
100
AcDbBlockEnd
  0
BLOCK
  5
23A
100
AcDbEntity
  8
Ech.1_5
100
AcDbBlockBegin
  2
*X2
 70
     1
 10
0.0
 20
0.0
 30
0.0
  3
*X2
  1

  4
Cadwork hatch
  0
ENDBLK
  5
23B
100
AcDbEntity
100
AcDbBlockEnd
  0
BLOCK
  5
23C
100
AcDbEntity
  8
Ech.1_5
100
AcDbBlockBegin
  2
*X3
 70
     1
 10
0.0
 20
0.0
 30
0.0
  3
*X3
  1

  4
Cadwork hatch
  0
ENDBLK
  5
23D
100
AcDbEntity
100
AcDbBlockEnd
  0
BLOCK
  5
23E
100
AcDbEntity
  8
Ech.1_5
100
AcDbBlockBegin
  2
*X4
 70
     1
 10
0.0
 20
0.0
 30
0.0
  3
*X4
  1

  4
Cadwork hatch
  0
ENDBLK
  5
23F
100
AcDbEntity
100
AcDbBlockEnd
  0
BLOCK
  5
240
100
AcDbEntity
  8
Ech.1_5
100
AcDbBlockBegin
  2
*X5
 70
     1
 10
0.0
 20
0.0
 30
0.0
  3
*X5
  1

  4
Cadwork hatch
  0
ENDBLK
  5
241
100
AcDbEntity
100
AcDbBlockEnd
  0
BLOCK
  5
242
100
AcDbEntity
  8
Ech.1_5
100
AcDbBlockBegin
  2
*X6
 70
     1
 10
0.0
 20
0.0
 30
0.0
  3
*X6
  1

  4
Cadwork hatch
  0
ENDBLK
  5
243
100
AcDbEntity
100
AcDbBlockEnd
  0
BLOCK
  5
244
100
AcDbEntity
  8
Ech.1_5
100
AcDbBlockBegin
  2
*D1
 70
     1
 10
0.0
 20
0.0
 30
0.0
  3
*D1
  1

  4
Cadwork dimension
  0
TEXT
  5
245
100
AcDbEntity
  8
Ech.1_5
 62
   190
370
    18
100
AcDbText
 10
33384.98329898
 20
-41042.3209765
 30
0.0
 40
25.0
  1
1/3 *
  7
ARIAL
 50
89.9999975
 41
1.0
 51
0.0
100
AcDbText
  0
LINE
  5
246
100
AcDbEntity
  8
Ech.1_5
 62
   190
370
    -2
100
AcDbLine
 10
33389.95446145
 20
-41109.06584226
 30
0.0
 11
33396.87354282
 21
-41109.06584226
 31
0.0
  0
LINE
  5
247
100
AcDbEntity
  8
Ech.1_5
 62
   190
370
    -2
100
AcDbLine
 10
33389.95446145
 20
-40947.06583586
 30
0.0
 11
33394.1789828
 21
-40947.06583586
 31
0.0
  0
LINE
  5
248
100
AcDbEntity
  8
Ech.1_5
 62
   190
370
    -2
100
AcDbLine
 10
33394.95446145
 20
-41114.06584226
 30
0.0
 11
33394.95446145
 21
-40942.06583586
 31
0.0
  0
LINE
  5
249
100
AcDbEntity
  8
Ech.1_5
 62
   190
370
    -2
100
AcDbLine
 10
33397.45446145
 20
-41111.56584226
 30
0.0
 11
33392.45446145
 21
-41106.56584226
 31
0.0
  0
LINE
  5
24A
100
AcDbEntity
  8
Ech.1_5
 62
   190
370
    -2
100
AcDbLine
 10
33397.45446145
 20
-40949.56583586
 30
0.0
 11
33392.45446145
 21
-40944.56583586
 31
0.0
  0
ENDBLK
  5
24B
100
AcDbEntity
100
AcDbBlockEnd
  0
BLOCK
  5
24C
100
AcDbEntity
  8
Ech.1_5
100
AcDbBlockBegin
  2
*D2
 70
     1
 10
0.0
 20
0.0
 30
0.0
  3
*D2
  1

  4
Cadwork dimension
  0
TEXT
  5
24D
100
AcDbEntity
  8
Ech.1_5
 62
   190
370
    18
100
AcDbText
 10
33384.98329898
 20
-40861.32096295
 30
0.0
 40
25.0
  1
2/3 *
  7
ARIAL
 50
89.9999975
 41
1.0
 51
0.0
100
AcDbText
  0
LINE
  5
24E
100
AcDbEntity
  8
Ech.1_5
 62
   190
370
    -2
100
AcDbLine
 10
33399.95446145
 20
-40947.06583586
 30
0.0
 11
33394.1789828
 21
-40947.06583586
 31
0.0
  0
LINE
  5
24F
100
AcDbEntity
  8
Ech.1_5
 62
   190
370
    -2
100
AcDbLine
 10
33399.95446145
 20
-40747.06581516
 30
0.0
 11
33370.74383826
 21
-40747.06581516
 31
0.0
  0
LINE
  5
250
100
AcDbEntity
  8
Ech.1_5
 62
   190
370
    -2
100
AcDbLine
 10
33394.95446145
 20
-40952.06583586
 30
0.0
 11
33394.95446145
 21
-40742.06581516
 31
0.0
  0
LINE
  5
251
100
AcDbEntity
  8
Ech.1_5
 62
   190
370
    -2
100
AcDbLine
 10
33397.45446145
 20
-40949.56583586
 30
0.0
 11
33392.45446145
 21
-40944.56583586
 31
0.0
  0
LINE
  5
252
100
AcDbEntity
  8
Ech.1_5
 62
   190
370
    -2
100
AcDbLine
 10
33397.45446145
 20
-40749.56581516
 30
0.0
 11
33392.45446145
 21
-40744.56581516
 31
0.0
  0
ENDBLK
  5
253
100
AcDbEntity
100
AcDbBlockEnd
  0
ENDSEC
  0
SECTION
  2
ENTITIES
  0
INSERT
  5
254
100
AcDbEntity
  8
Ech.1_5
 62
     0
370
    -3
100
AcDbBlockReference
  2
*X1
 10
0.0
 20
0.0
 30
0.0
  0
INSERT
  5
255
100
AcDbEntity
  8
Ech.1_5
 62
     0
370
    -3
100
AcDbBlockReference
  2
*X2
 10
0.0
 20
0.0
 30
0.0
  0
INSERT
  5
256
100
AcDbEntity
  8
Ech.1_5
 62
     0
370
    -3
100
AcDbBlockReference
  2
*X3
 10
0.0
 20
0.0
 30
0.0
  0
INSERT
  5
257
100
AcDbEntity
  8
Ech.1_5
 62
     0
370
    -3
100
AcDbBlockReference
  2
*X4
 10
0.0
 20
0.0
 30
0.0
  0
INSERT
  5
258
100
AcDbEntity
  8
Ech.1_5
 62
     0
370
    -3
100
AcDbBlockReference
  2
*X5
 10
0.0
 20
0.0
 30
0.0
  0
INSERT
  5
259
100
AcDbEntity
  8
Ech.1_5
 62
     0
370
    -3
100
AcDbBlockReference
  2
*X6
 10
0.0
 20
0.0
 30
0.0
  0
LWPOLYLINE
  5
25A
100
AcDbEntity
  8
Ech.1_5
 62
   190
  6
CONTINUOUS
370
    -3
100
AcDbPolyline
 90
        4
 70
     1
 43
0.0
 10
32423.82071636
 20
-41151.81232065
 10
32870.25241555
 20
-40989.32888575
 10
32866.83069918
 20
-40979.93251127
 10
32420.33748036
 20
-41142.43833489
  0
LWPOLYLINE
  5
25B
102
{ACAD_REACTORS
330
25C
102
}
100
AcDbEntity
  8
Ech.1_5
 62
     7
  6
CONTINUOUS
370
    -3
100
AcDbPolyline
 90
        4
 70
     1
 43
0.0
 10
32423.82071636
 20
-41151.81232065
 10
32870.25241555
 20
-40989.32888575
 10
32866.83069918
 20
-40979.93251127
 10
32420.33748036
 20
-41142.43833489
  0
HATCH
  5
25C
100
AcDbEntity
  8
Ech.1_5
 62
   190
  6
CONTINUOUS
100
AcDbHatch
 10
0.0
 20
0.0
 30
0.0
210
0.0
220
0.0
230
1.0
  2
ANSI37
 70
     0
 71
     1
 91
        1
 92
        7
 72
     0
 73
     1
 93
        4
 10
32423.82071636
 20
-41151.81232065
 10
32870.25241555
 20
-40989.32888575
 10
32866.83069918
 20
-40979.93251127
 10
32420.33748036
 20
-41142.43833489
 97
        1
330
25B
 75
     0
 76
     2
 52
0.0
 41
1.88976388
 77
     0
 78
     2
 53
45.0
 43
0.0
 44
0.0
 45
4.24264086
 46
-4.24264086
 79
     0
 53
-45.0
 43
0.0
 44
0.0
 45
4.24264086
 46
4.24264086
 79
     0
 47
0.775229
 98
        1
 10
0.0
 20
0.0
  0
LWPOLYLINE
  5
25D
100
AcDbEntity
  8
Ech.1_5
 62
     7
  6
CONTINUOUS
370
    -3
100
AcDbPolyline
 90
        4
 70
     1
 43
0.0
 10
33103.79458822
 20
-41007.06581516
 10
33103.79458822
 20
-40947.06581516
 10
33061.79458822
 20
-40947.06581516
 10
33061.79458822
 20
-41007.06581516
  0
LWPOLYLINE
  5
25E
100
AcDbEntity
  8
Ech.1_5
 62
   190
  6
CONTINUOUS
370
    -3
100
AcDbPolyline
 90
        4
 70
     0
 43
0.0
 10
33061.79458822
 20
-41007.06581516
 10
33103.79458822
 20
-40947.06581516
 10
33103.79458822
 20
-41007.06581516
 10
33061.79458822
 20
-40947.06581516
  0
LWPOLYLINE
  5
25F
100
AcDbEntity
  8
Ech.1_5
 62
     5
  6
CONTINUOUS
370
    -3
100
AcDbPolyline
 90
        5
 70
     0
 43
0.0
 10
33103.79458822
 20
-41007.06581516
 10
33103.79458822
 20
-40947.06581516
 10
33061.79458822
 20
-40947.06581516
 10
33061.79458822
 20
-41007.06581516
 10
33103.79458822
 20
-41007.06581516
  0
LWPOLYLINE
  5
260
100
AcDbEntity
  8
Ech.1_5
 62
   190
  6
CONTINUOUS
370
    -3
100
AcDbPolyline
 90
        4
 70
     1
 43
0.0
 10
33945.84564582
 20
-41009.06587588
 10
33065.20687616
 20
-41009.06581516
 10
33065.20687616
 20
-41109.06581516
 10
33945.84564582
 20
-41109.06587588
  0
LWPOLYLINE
  5
261
100
AcDbEntity
  8
Ech.1_5
 62
   190
  6
CONTINUOUS
370
    -3
100
AcDbPolyline
 90
        4
 70
     1
 43
0.0
 10
32442.23998321
 20
-40999.31883357
 10
33945.84564582
 20
-40452.05112831
 10
33945.84564582
 20
-40423.31827659
 10
32433.00543934
 20
-40973.94713281
  0
LWPOLYLINE
  5
262
100
AcDbEntity
  8
Ech.1_5
 62
   190
  6
CONTINUOUS
370
    -3
100
AcDbPolyline
 90
        6
 70
     1
 43
0.0
 10
32427.1844114
 20
-41004.79861357
 10
32427.1844114
 20
-41111.21639082
 10
33227.28703044
 20
-40820.00285313
 10
33945.84564582
 20
-40558.46890555
 10
33945.84564582
 20
-40452.05112831
 10
33227.28703044
 20
-40713.58507588
  0
LWPOLYLINE
  5
263
100
AcDbEntity
  8
Ech.1_5
 62
     7
100
AcDbPolyline
 90
       57
 70
     0
 43
0.0
 10
32338.87690371
 20
-41094.77970066
 10
32340.27199087
 20
-41094.57697444
 10
32341.66818544
 20
-41094.37233435
 10
32343.06659481
 20
-41094.16386652
 10
32344.4683264
 20
-41093.94965709
 10
32345.87448761
 20
-41093.72779218
 10
32347.28618584
 20
-41093.49635793
 10
32348.70452851
 20
-41093.25344047
 10
32350.130623
 20
-41092.99712592
 10
32351.56557674
 20
-41092.72550042
 10
32353.01049712
 20
-41092.4366501
 10
32354.46649154
 20
-41092.1286611
 10
32355.93466742
 20
-41091.79961954
 10
32357.41613216
 20
-41091.44761155
 10
32358.91199316
 20
-41091.07072326
 10
32360.4233384
 20
-41090.66708548
 10
32361.94940211
 20
-41090.23908952
 10
32363.48605891
 20
-41089.79684837
 10
32365.02882898
 20
-41089.35128958
 10
32366.57323252
 20
-41088.9133407
 10
32368.11478973
 20
-41088.49392928
 10
32369.64902079
 20
-41088.10398286
 10
32371.17144589
 20
-41087.75442899
 10
32372.67758524
 20
-41087.45619523
 10
32374.16295902
 20
-41087.22020911
 10
32375.62308743
 20
-41087.0573982
 10
32377.05349065
 20
-41086.97869004
 10
32378.44968889
 20
-41086.99501217
 10
32379.80720233
 20
-41087.11729215
 10
32381.12155116
 20
-41087.35645753
 10
32382.38825559
 20
-41087.72343585
 10
32383.60283667
 20
-41088.22915093
 10
32384.76201083
 20
-41088.87940269
 10
32385.86605926
 20
-41089.66471065
 10
32386.91592474
 20
-41090.57275852
 10
32387.91255004
 20
-41091.59123
 10
32388.85687792
 20
-41092.7078088
 10
32389.74985117
 20
-41093.91017861
 10
32390.59241254
 20
-41095.18602315
 10
32391.38550482
 20
-41096.52302611
 10
32392.13007077
 20
-41097.90887121
 10
32392.82705317
 20
-41099.33124214
 10
32393.47739478
 20
-41100.77782261
 10
32394.08203837
 20
-41102.23629632
 10
32394.64192673
 20
-41103.69434697
 10
32395.15803886
 20
-41105.13992509
 10
32395.6323679
 20
-41106.56844611
 10
32396.06803283
 20
-41107.98361267
 10
32396.46821126
 20
-41109.38955921
 10
32396.83608084
 20
-41110.79042018
 10
32397.17481919
 20
-41112.19033004
 10
32397.48760394
 20
-41113.59342324
 10
32397.77761272
 20
-41115.00383422
 10
32398.04804182
 20
-41116.42562162
 10
32398.30290571
 20
-41117.85951918
 10
32398.54733889
 20
-41119.3017093
 10
32398.7865567
 20
-41120.7480457
  0
ARC
  5
264
100
AcDbEntity
  8
Ech.1_5
 62
     7
100
AcDbCircle
 10
32330.17606888
 20
-41027.5505069
 30
0.0
 40
67.78988877
100
AcDbArc
 50
176.81519387
 51
17.9333216
  0
LINE
  5
265
100
AcDbEntity
  8
Ech.1_5
 62
     7
100
AcDbLine
 10
32427.1844114
 20
-41004.79861357
 30
0.0
 11
33227.28703044
 21
-40713.58507588
 31
0.0
  0
LINE
  5
266
100
AcDbEntity
  8
Ech.1_5
 62
     7
100
AcDbLine
 10
32393.37791052
 20
-41006.67732319
 30
0.0
 11
32405.1844114
 21
-41006.67732319
 31
0.0
  0
LINE
  5
267
100
AcDbEntity
  8
Ech.1_5
 62
     7
100
AcDbLine
 10
32427.1844114
 20
-41111.21639082
 30
0.0
 11
32427.1844114
 21
-41111.21639082
 31
0.0
  0
ARC
  5
268
100
AcDbEntity
  8
Ech.1_5
 62
     7
100
AcDbCircle
 10
32402.16488236
 20
-41120.13366825
 30
0.0
 40
3.43373615
100
AcDbArc
 50
190.3070861
 51
331.56661712
  0
LINE
  5
269
100
AcDbEntity
  8
Ech.1_5
 62
     7
100
AcDbLine
 10
32952.51670928
 20
-40947.06581516
 30
0.0
 11
32998.1844114
 21
-40947.06581516
 31
0.0
  0
LINE
  5
26A
100
AcDbEntity
  8
Ech.1_5
 62
     7
100
AcDbLine
 10
33139.6806147
 20
-40947.06581516
 30
0.0
 11
33227.28703044
 21
-40947.06581516
 31
0.0
  0
LINE
  5
26B
100
AcDbEntity
  8
Ech.1_5
 62
     7
100
AcDbLine
 10
33000.1844114
 20
-40947.06581516
 30
0.0
 11
33112.6806147
 21
-40947.06581516
 31
0.0
  0
LWPOLYLINE
  5
26C
102
{ACAD_REACTORS
330
26D
102
}
100
AcDbEntity
  8
Ech.1_5
 62
     7
  6
CONTINUOUS
100
AcDbPolyline
 90
        3
 70
     1
 43
0.0
 10
32502.82923658
 20
-40951.76201247
 10
32524.6047121
 20
-40946.93779125
 10
32505.5709016
 20
-40958.56356014
  0
HATCH
  5
26D
100
AcDbEntity
  8
Ech.1_5
 62
     7
  6
CONTINUOUS
100
AcDbHatch
 10
0.0
 20
0.0
 30
0.0
210
0.0
220
0.0
230
1.0
  2
SOLID
 70
     1
 71
     1
 91
        1
 92
        7
 72
     0
 73
     1
 93
        3
 10
32502.82923658
 20
-40951.76201247
 10
32524.6047121
 20
-40946.93779125
 10
32505.5709016
 20
-40958.56356014
 97
        1
330
26C
 75
     0
 76
     2
 47
0.775229
 98
        1
 10
0.0
 20
0.0
  0
ARC
  5
26E
100
AcDbEntity
  8
Ech.1_5
 62
     7
100
AcDbCircle
 10
32872.57779798
 20
-41778.19152899
 30
0.0
 40
901.708635
100
AcDbArc
 50
114.11271308
 51
118.22750414
  0
ARC
  5
26F
100
AcDbEntity
  8
Ech.1_5
 62
     7
100
AcDbCircle
 10
32397.98130326
 20
-40890.097135
 30
0.0
 40
105.25912681
100
AcDbArc
 50
263.48671375
 51
297.1989192
  0
LWPOLYLINE
  5
270
100
AcDbEntity
  8
Ech.1_5
 62
   190
  6
CONTINUOUS
370
    -3
100
AcDbPolyline
 90
        2
 70
     1
 43
0.0
 10
32993.61410872
 20
-40901.86825359
 42
1.0
 10
32993.61410872
 20
-40900.25245413
 42
1.0
  0
LWPOLYLINE
  5
271
100
AcDbEntity
  8
Ech.1_5
 62
   190
  6
CONTINUOUS
370
    -3
100
AcDbPolyline
 90
        2
 70
     1
 43
0.0
 10
32993.61410872
 20
-40917.19509312
 42
1.0
 10
32993.61410872
 20
-40915.57929366
 42
1.0
  0
LWPOLYLINE
  5
272
100
AcDbEntity
  8
Ech.1_5
 62
   190
  6
CONTINUOUS
370
    -3
100
AcDbPolyline
 90
        2
 70
     1
 43
0.0
 10
32971.39124603
 20
-40917.19509312
 42
1.0
 10
32971.39124603
 20
-40915.57929366
 42
1.0
  0
LWPOLYLINE
  5
273
100
AcDbEntity
  8
Ech.1_5
 62
   190
  6
CONTINUOUS
370
    -3
100
AcDbPolyline
 90
        2
 70
     1
 43
0.0
 10
32971.39124603
 20
-40901.86825359
 42
1.0
 10
32971.39124603
 20
-40900.25245413
 42
1.0
  0
LWPOLYLINE
  5
274
100
AcDbEntity
  8
Ech.1_5
 62
   190
  6
CONTINUOUS
370
    -3
100
AcDbPolyline
 90
        2
 70
     1
 43
0.0
 10
32983.00246589
 20
-40925.32683883
 42
1.0
 10
32983.00246589
 20
-40923.71103938
 42
1.0
  0
LWPOLYLINE
  5
275
100
AcDbEntity
  8
Ech.1_5
 62
   190
  6
CONTINUOUS
370
    -3
100
AcDbPolyline
 90
        2
 70
     1
 43
0.0
 10
32983.00246589
 20
-40909.9999993
 42
1.0
 10
32983.00246589
 20
-40908.38419985
 42
1.0
  0
LWPOLYLINE
  5
276
100
AcDbEntity
  8
Ech.1_5
 62
   190
  6
CONTINUOUS
370
    -3
100
AcDbPolyline
 90
        4
 70
     1
 43
0.0
 10
33945.84564582
 20
-41122.06589844
 10
33945.84564582
 20
-41109.06589844
 10
33065.20687616
 20
-41109.06603838
 10
33065.20687616
 20
-41122.06603838
  0
LWPOLYLINE
  5
277
102
{ACAD_REACTORS
330
278
102
}
100
AcDbEntity
  8
Ech.1_5
 62
     7
  6
CONTINUOUS
370
    -3
100
AcDbPolyline
 90
        4
 70
     1
 43
0.0
 10
33945.84564582
 20
-41122.06587588
 10
33945.84564582
 20
-41109.06587588
 10
33065.20687616
 20
-41109.06587588
 10
33065.20687616
 20
-41122.06587588
  0
HATCH
  5
278
100
AcDbEntity
  8
Ech.1_5
 62
   190
  6
CONTINUOUS
100
AcDbHatch
 10
0.0
 20
0.0
 30
0.0
210
0.0
220
0.0
230
1.0
  2
DOTS2
 70
     0
 71
     1
 91
        1
 92
        7
 72
     0
 73
     1
 93
        4
 10
33945.84564582
 20
-41122.06587588
 10
33945.84564582
 20
-41109.06587588
 10
33065.20687616
 20
-41109.06587588
 10
33065.20687616
 20
-41122.06587588
 97
        1
330
277
 75
     0
 76
     2
 52
0.0
 41
4.72440952
 77
     0
 78
     1
 53
0.0
 43
0.0
 44
0.0
 45
3.75
 46
3.535
 79
     2
 49
0.0
 49
-3.535
 47
0.775229
 98
        1
 10
0.0
 20
0.0
  0
LWPOLYLINE
  5
279
100
AcDbEntity
  8
Ech.1_5
100
AcDbPolyline
 90
        4
 70
     0
 43
0.0
 10
33945.84564582
 20
-41109.06587588
 10
33065.20687616
 20
-41109.06587588
 10
33065.20687616
 20
-41122.06587588
 10
33945.84564582
 20
-41122.06587588
  0
LWPOLYLINE
  5
27A
100
AcDbEntity
  8
Ech.1_5
100
AcDbPolyline
 90
        4
 70
     0
 43
0.0
 10
33945.84564582
 20
-41109.06587588
 10
33065.20687616
 20
-41109.06587588
 10
33065.20687616
 20
-41084.38370578
 10
33945.84564582
 20
-41084.38370578
  0
LWPOLYLINE
  5
27B
100
AcDbEntity
  8
Ech.1_5
370
    50
100
AcDbPolyline
 90
        3
 70
     0
 43
0.0
 10
33066.21549583
 20
-41084.38370578
 10
33066.21549583
 20
-41107.46222269
 10
33092.07768035
 20
-41107.46222269
  0
LWPOLYLINE
  5
27C
100
AcDbEntity
  8
Ech.1_5
 62
     7
  6
CONTINUOUS
370
    -3
100
AcDbPolyline
 90
       10
 70
     0
 43
0.0
 10
32405.1844114
 20
-41162.47984185
 42
-0.41421356
 10
32418.0484365
 20
-41175.34386695
 10
32427.1844114
 20
-41175.34386695
 10
32427.1844114
 20
-41152.81497469
 10
32417.7584722
 20
-41152.81497469
 10
32417.7584722
 20
-41138.73368885
 10
32427.1844114
 20
-41138.73368885
 10
32427.1844114
 20
-41004.79861357
 10
32405.1844114
 20
-41004.79861357
 10
32405.1844114
 20
-41162.47984185
  0
LWPOLYLINE
  5
27D
100
AcDbEntity
  8
Ech.1_5
 62
   190
  6
CONTINUOUS
370
    -3
100
AcDbPolyline
 90
        9
 70
     1
 43
0.0
 10
32405.1844114
 20
-41162.47984185
 42
-0.41421356
 10
32418.0484365
 20
-41175.34386695
 10
32427.1844114
 20
-41175.34386695
 10
32427.1844114
 20
-41152.81497469
 10
32417.7584722
 20
-41152.81497469
 10
32417.7584722
 20
-41138.73368885
 10
32427.1844114
 20
-41138.73368885
 10
32427.1844114
 20
-41004.79861357
 10
32405.1844114
 20
-41004.79861357
  0
LWPOLYLINE
  5
27E
100
AcDbEntity
  8
Ech.1_5
100
AcDbPolyline
 90
       10
 70
     0
 43
0.0
 10
32492.94059174
 20
-40980.86532121
 10
32492.25655145
 20
-40978.98593597
 10
32441.16767869
 20
-40997.58076495
 10
32383.90396966
 20
-41005.10979741
 10
32383.90396966
 20
-41033.71761701
 10
32388.6206957
 20
-41028.45652021
 10
32385.90396966
 20
-41028.45652021
 10
32385.90396966
 20
-41006.86405033
 10
32441.64573157
 20
-40999.53512348
 10
32492.94059174
 20
-40980.86532121
  0
LWPOLYLINE
  5
27F
102
{ACAD_REACTORS
330
280
102
}
100
AcDbEntity
  8
Ech.1_5
 62
     9
  6
CONTINUOUS
370
    -3
100
AcDbPolyline
 90
        9
 70
     1
 43
0.0
 10
32492.94059174
 20
-40980.86532121
 10
32492.25655145
 20
-40978.98593597
 10
32441.16767869
 20
-40997.58076495
 10
32383.90396966
 20
-41005.10979741
 10
32383.90396966
 20
-41033.71761701
 10
32388.6206957
 20
-41028.45652021
 10
32385.90396966
 20
-41028.45652021
 10
32385.90396966
 20
-41006.86405033
 10
32441.64573157
 20
-40999.53512348
  0
HATCH
  5
280
100
AcDbEntity
  8
Ech.1_5
 62
     9
  6
CONTINUOUS
100
AcDbHatch
 10
0.0
 20
0.0
 30
0.0
210
0.0
220
0.0
230
1.0
  2
SOLID
 70
     1
 71
     1
 91
        1
 92
        7
 72
     0
 73
     1
 93
        9
 10
32492.94059174
 20
-40980.86532121
 10
32492.25655145
 20
-40978.98593597
 10
32441.16767869
 20
-40997.58076495
 10
32383.90396966
 20
-41005.10979741
 10
32383.90396966
 20
-41033.71761701
 10
32388.6206957
 20
-41028.45652021
 10
32385.90396966
 20
-41028.45652021
 10
32385.90396966
 20
-41006.86405033
 10
32441.64573157
 20
-40999.53512348
 97
        1
330
27F
 75
     0
 76
     2
 47
0.775229
 98
        1
 10
0.0
 20
0.0
  0
LWPOLYLINE
  5
281
100
AcDbEntity
  8
Ech.1_5
100
AcDbPolyline
 90
        4
 70
     0
 43
0.0
 10
33945.84564582
 20
-40947.06581516
 10
32878.1844114
 20
-40947.06581516
 10
33152.93215334
 20
-40847.06581516
 10
33945.84564582
 20
-40847.06581516
  0
LWPOLYLINE
  5
282
100
AcDbEntity
  8
Ech.1_5
 62
   190
  6
CONTINUOUS
370
    -3
100
AcDbPolyline
 90
        5
 70
     0
 43
0.0
 10
32961.50265855
 20
-40847.06585111
 10
33945.84564582
 20
-40847.06581516
 10
33945.84564582
 20
-40947.06581516
 10
32961.50265855
 20
-40947.06585111
 10
32961.50265855
 20
-40847.06585111
  0
LWPOLYLINE
  5
283
100
AcDbEntity
  8
Ech.1_5
 62
   190
  6
CONTINUOUS
370
    -3
100
AcDbPolyline
 90
        4
 70
     0
 43
0.0
 10
32952.50263497
 20
-40947.06581516
 10
32952.50263497
 20
-40834.97084057
 10
32961.50263503
 20
-40834.97084057
 10
32961.50267749
 20
-40947.06581516
  0
LWPOLYLINE
  5
284
100
AcDbEntity
  8
Ech.1_5
 62
   190
  6
CONTINUOUS
370
    -3
100
AcDbPolyline
 90
        4
 70
     1
 43
0.0
 10
32427.1844114
 20
-41111.21639082
 10
32464.77211623
 20
-41097.53558508
 10
32474.0066601
 20
-41122.90728585
 10
32436.41895527
 20
-41136.58809158
  0
LWPOLYLINE
  5
285
100
AcDbEntity
  8
Ech.1_5
 62
   190
  6
CONTINUOUS
370
    -3
100
AcDbPolyline
 90
        4
 70
     0
 43
0.0
 10
32464.77211623
 20
-41097.53558508
 10
32436.41895527
 20
-41136.58809158
 10
32474.0066601
 20
-41122.90728585
 10
32427.1844114
 20
-41111.21639082
  0
LWPOLYLINE
  5
286
100
AcDbEntity
  8
Ech.1_5
 62
   190
  6
CONTINUOUS
370
    -3
100
AcDbPolyline
 90
        4
 70
     1
 43
0.0
 10
32757.36216232
 20
-40991.11817971
 10
32794.94986715
 20
-40977.43737397
 10
32804.18441102
 20
-41002.80907473
 10
32766.59670619
 20
-41016.48988047
  0
LWPOLYLINE
  5
287
100
AcDbEntity
  8
Ech.1_5
 62
   190
  6
CONTINUOUS
370
    -3
100
AcDbPolyline
 90
        4
 70
     0
 43
0.0
 10
32794.94986715
 20
-40977.43737397
 10
32766.59670619
 20
-41016.48988047
 10
32804.18441102
 20
-41002.80907473
 10
32757.36216232
 20
-40991.11817971
  0
LWPOLYLINE
  5
288
100
AcDbEntity
  8
Ech.1_5
 62
   190
  6
CONTINUOUS
370
    -3
100
AcDbPolyline
 90
        5
 70
     0
 43
0.0
 10
32961.50267737
 20
-40891.15103643
 10
33003.50267737
 20
-40891.15104174
 10
33003.50267737
 20
-40946.75176788
 10
32961.50267737
 20
-40946.75174848
 10
32961.50267737
 20
-40891.15104174
  0
LINE
  5
289
100
AcDbEntity
  8
Ech.1_5
100
AcDbLine
 10
32878.1844114
 20
-40947.06581516
 30
0.0
 11
32911.4844114
 21
-40947.06581516
 31
0.0
  0
LWPOLYLINE
  5
28A
100
AcDbEntity
  8
Ech.1_5
 62
     3
370
    70
100
AcDbPolyline
 90
        4
 70
     0
 43
0.0
 10
33061.05828951
 20
-41003.25752881
 10
33061.05828951
 20
-40990.26839539
 10
33066.73890247
 20
-40986.33366325
 10
33066.73890247
 20
-40972.85523325
  0
ARC
  5
28B
100
AcDbEntity
  8
Ech.1_5
 62
     7
100
AcDbCircle
 10
32329.36989364
 20
-41019.69114383
 30
0.0
 40
65.31757614
100
AcDbArc
 50
182.93511954
 51
11.68289665
  0
ARC
  5
28C
100
AcDbEntity
  8
Ech.1_5
 62
     7
100
AcDbCircle
 10
32329.36989364
 20
-41019.69114383
 30
0.0
 40
62.81757614
100
AcDbArc
 50
180.12287567
 51
11.68289665
  0
CIRCLE
  5
28D
100
AcDbEntity
  8
Ech.1_5
 62
     7
100
AcDbCircle
 10
32260.89282745
 20
-41018.0817136
 30
0.0
 40
5.9222896
  0
LINE
  5
28E
100
AcDbEntity
  8
Ech.1_5
 62
     7
100
AcDbLine
 10
32390.88609696
 20
-41006.97090009
 30
0.0
 11
32393.33430521
 21
-41006.46466264
 31
0.0
  0
LWPOLYLINE
  5
28F
100
AcDbEntity
  8
Ech.1_5
 62
   190
  6
CONTINUOUS
370
    -3
100
AcDbPolyline
 90
        5
 70
     0
 43
0.0
 10
32968.76232553
 20
-40944.25138528
 42
-1.0
 10
32974.11915197
 20
-40944.25138528
 10
32974.11915197
 20
-40925.66990214
 42
1.0
 10
32968.76232553
 20
-40925.66990214
 10
32968.76232553
 20
-40944.25138528
  0
LWPOLYLINE
  5
290
100
AcDbEntity
  8
Ech.1_5
 62
   190
  6
CONTINUOUS
370
    -3
100
AcDbPolyline
 90
        5
 70
     0
 43
0.0
 10
32996.24302922
 20
-40944.25138528
 10
32996.24302922
 20
-40925.66990214
 42
1.0
 10
32990.88620277
 20
-40925.66990214
 10
32990.88620277
 20
-40944.25138528
 42
-1.0
 10
32996.24302922
 20
-40944.25138528
  0
LWPOLYLINE
  5
291
100
AcDbEntity
  8
Ech.1_5
 62
     7
  6
CONTINUOUS
370
    -3
100
AcDbPolyline
 90
        6
 70
     0
 43
0.0
 10
33945.84564582
 20
-40558.46890555
 10
33227.28703044
 20
-40820.00285313
 10
32427.1844114
 20
-41111.21639082
 10
32427.1844114
 20
-41004.79861357
 10
33227.28703044
 20
-40713.58507588
 10
33945.84564582
 20
-40452.05112831
  0
LWPOLYLINE
  5
292
100
AcDbEntity
  8
Ech.1_5
 62
   190
  6
CONTINUOUS
370
    -3
100
AcDbPolyline
 90
        5
 70
     1
 43
0.0
 10
32907.51670928
 20
-40947.06581516
 10
32952.51670928
 20
-40947.06581516
 10
32952.51670928
 20
-40857.06581516
 10
32928.93535027
 20
-40857.06581516
 10
32907.51670928
 20
-40857.06581516
  0
LWPOLYLINE
  5
293
100
AcDbEntity
  8
Ech.1_5
 62
   190
  6
CONTINUOUS
370
    -3
100
AcDbPolyline
 90
        4
 70
     0
 43
0.0
 10
32907.51670928
 20
-40947.06581516
 10
32952.51670928
 20
-40857.06581516
 10
32907.51670928
 20
-40857.06581516
 10
32952.51670928
 20
-40947.06581516
  0
LWPOLYLINE
  5
294
100
AcDbEntity
  8
Ech.1_5
 62
   190
  6
CONTINUOUS
370
    -3
100
AcDbPolyline
 90
        4
 70
     1
 43
0.0
 10
32961.50248234
 20
-40816.28307198
 10
32952.50248227
 20
-40816.28307198
 10
32952.5027153
 20
-40947.06581516
 10
32961.50271536
 20
-40947.06581516
  0
LWPOLYLINE
  5
295
102
{ACAD_REACTORS
330
296
102
}
100
AcDbEntity
  8
Ech.1_5
 62
   190
  6
CONTINUOUS
370
    -3
100
AcDbPolyline
 90
        4
 70
     1
 43
0.0
 10
32952.5027153
 20
-40947.06581516
 10
32961.50271536
 20
-40947.06581516
 10
32961.50248234
 20
-40816.28307198
 10
32952.50248227
 20
-40816.28307198
  0
HATCH
  5
296
100
AcDbEntity
  8
Ech.1_5
 62
   190
  6
CONTINUOUS
100
AcDbHatch
 10
0.0
 20
0.0
 30
0.0
210
0.0
220
0.0
230
1.0
  2
CDWK10A
 70
     0
 71
     1
 91
        1
 92
        7
 72
     0
 73
     1
 93
        4
 10
32952.5027153
 20
-40947.06581516
 10
32961.50271536
 20
-40947.06581516
 10
32961.50248234
 20
-40816.28307198
 10
32952.50248227
 20
-40816.28307198
 97
        1
330
295
 75
     0
 76
     2
 52
0.0
 41
1.0
 77
     0
 78
     3
 53
45.0
 43
0.0
 44
0.0
 45
0.0
 46
42.00000167
 79
     0
 53
45.0
 43
0.0
 44
10.80000043
 45
0.0
 46
42.00000167
 79
     0
 53
45.0
 43
0.0
 44
21.60000086
 45
0.0
 46
42.00000167
 79
     0
 47
0.775229
 98
        1
 10
0.0
 20
0.0
  0
LWPOLYLINE
  5
297
100
AcDbEntity
  8
Ech.1_5
100
AcDbPolyline
 90
        5
 70
     0
 43
0.0
 10
33065.20687616
 20
-41009.06581516
 10
33945.84564582
 20
-41009.06587588
 10
33945.84564582
 20
-41109.06587588
 10
33065.20687616
 20
-41109.06581516
 10
33065.20687616
 20
-41009.06581516
  0
LWPOLYLINE
  5
298
100
AcDbEntity
  8
Ech.1_5
 62
   190
  6
CONTINUOUS
370
    -3
100
AcDbPolyline
 90
        5
 70
     0
 43
0.0
 10
33945.84564582
 20
-40452.05112831
 10
32442.23998321
 20
-40999.31883357
 10
32433.00543934
 20
-40973.94713281
 10
33945.84564582
 20
-40423.31827659
 10
33945.84564582
 20
-40452.05112831
  0
LWPOLYLINE
  5
299
100
AcDbEntity
  8
Ech.1_5
 62
   190
  6
CONTINUOUS
370
    -3
100
AcDbPolyline
 90
        5
 70
     0
 43
0.0
 10
33608.81348265
 20
-41530.17451731
 10
33608.81348265
 20
-40545.17451731
 10
32253.81348265
 20
-40545.17451731
 10
32253.81348265
 20
-41530.17451731
 10
33608.81348265
 20
-41530.17451731
  0
LWPOLYLINE
  5
29A
100
AcDbEntity
  8
Ech.1_5
 62
     7
  6
CONTINUOUS
370
    -3
100
AcDbPolyline
 90
        4
 70
     1
 43
0.0
 10
33568.429891
 20
-41007.06581516
 10
33568.429891
 20
-40947.06581516
 10
33526.429891
 20
-40947.06581516
 10
33526.429891
 20
-41007.06581516
  0
LWPOLYLINE
  5
29B
100
AcDbEntity
  8
Ech.1_5
 62
   190
  6
CONTINUOUS
370
    -3
100
AcDbPolyline
 90
        4
 70
     0
 43
0.0
 10
33526.429891
 20
-41007.06581516
 10
33568.429891
 20
-40947.06581516
 10
33568.429891
 20
-41007.06581516
 10
33526.429891
 20
-40947.06581516
  0
LWPOLYLINE
  5
29C
100
AcDbEntity
  8
Ech.1_5
 62
   190
  6
CONTINUOUS
370
    -3
100
AcDbPolyline
 90
        5
 70
     1
 43
0.0
 10
33945.84564582
 20
-40747.06581516
 10
33135.29945527
 20
-40747.06581516
 10
33015.31343969
 20
-40790.73715336
 10
33015.31343969
 20
-40847.06584914
 10
33945.84564582
 20
-40848.22612503
  0
LWPOLYLINE
  5
29D
100
AcDbEntity
  8
Ech.1_5
 62
   190
  6
CONTINUOUS
370
    -3
100
AcDbPolyline
 90
        4
 70
     1
 43
0.0
 10
33945.84564582
 20
-40847.06581516
 10
32961.50265855
 20
-40847.06585111
 10
32961.50265855
 20
-40947.06585111
 10
33945.84564582
 20
-40947.06581516
  0
LWPOLYLINE
  5
29E
100
AcDbEntity
  8
Ech.1_5
 62
   190
  6
CONTINUOUS
370
    -3
100
AcDbPolyline
 90
      118
 70
     0
 43
0.0
 10
33945.84564643
 20
-40863.73248183
 42
1.14028181
 10
33913.08021875
 20
-40868.04614349
 10
33928.61107654
 20
-40926.08548866
 42
-1.30322619
 10
33896.4135542
 20
-40926.08548984
 10
33911.94440775
 20
-40868.04614353
 42
1.30322619
 10
33879.74688542
 20
-40868.04614471
 10
33895.27774321
 20
-40926.08548988
 42
-1.30322619
 10
33863.08022087
 20
-40926.08549105
 10
33878.61107442
 20
-40868.04614475
 42
1.30322619
 10
33846.41355208
 20
-40868.04614593
 10
33861.94440987
 20
-40926.0854911
 42
-1.30322619
 10
33829.74688754
 20
-40926.08549227
 10
33845.27774109
 20
-40868.04614597
 42
1.30322619
 10
33813.08021875
 20
-40868.04614714
 10
33828.61107654
 20
-40926.08549231
 42
-1.30322619
 10
33796.4135542
 20
-40926.08549349
 10
33811.94440775
 20
-40868.04614718
 42
1.30322619
 10
33779.74688542
 20
-40868.04614836
 10
33795.27774321
 20
-40926.08549353
 42
-1.30322619
 10
33763.08022087
 20
-40926.08549471
 10
33778.61107442
 20
-40868.0461484
 42
1.30322619
 10
33746.41355208
 20
-40868.04614958
 10
33761.94440987
 20
-40926.08549475
 42
-1.30322619
 10
33729.74688754
 20
-40926.08549592
 10
33745.27774109
 20
-40868.04614962
 42
1.30322619
 10
33713.08021875
 20
-40868.04615079
 10
33728.61107654
 20
-40926.08549596
 42
-1.30322619
 10
33696.4135542
 20
-40926.08549714
 10
33711.94440775
 20
-40868.04615084
 42
1.30322619
 10
33679.74688542
 20
-40868.04615201
 10
33695.27774321
 20
-40926.08549718
 42
-1.30322619
 10
33663.08022087
 20
-40926.08549836
 10
33678.61107442
 20
-40868.04615205
 42
1.30322619
 10
33646.41355208
 20
-40868.04615323
 10
33661.94440987
 20
-40926.0854984
 42
-1.30322619
 10
33629.74688754
 20
-40926.08549958
 10
33645.27774109
 20
-40868.04615327
 42
1.30322619
 10
33613.08021875
 20
-40868.04615445
 10
33628.61107654
 20
-40926.08549962
 42
-1.30322619
 10
33596.4135542
 20
-40926.08550079
 10
33611.94440775
 20
-40868.04615449
 42
1.30322619
 10
33579.74688542
 20
-40868.04615566
 10
33595.27774321
 20
-40926.08550083
 42
-1.30322619
 10
33563.08022087
 20
-40926.08550201
 10
33578.61107442
 20
-40868.04615571
 42
1.30322619
 10
33546.41355208
 20
-40868.04615688
 10
33561.94440987
 20
-40926.08550205
 42
-1.30322619
 10
33529.74688754
 20
-40926.08550323
 10
33545.27774109
 20
-40868.04615692
 42
1.30322619
 10
33513.08021875
 20
-40868.0461581
 10
33528.61107654
 20
-40926.08550327
 42
-1.30322619
 10
33496.4135542
 20
-40926.08550444
 10
33511.94440775
 20
-40868.04615814
 42
1.30322619
 10
33479.74688542
 20
-40868.04615932
 10
33495.27774321
 20
-40926.08550449
 42
-1.30322619
 10
33463.08022087
 20
-40926.08550566
 10
33478.61107442
 20
-40868.04615936
 42
1.30322619
 10
33446.41355208
 20
-40868.04616053
 10
33461.94440987
 20
-40926.0855057
 42
-1.30322619
 10
33429.74688754
 20
-40926.08550688
 10
33445.27774109
 20
-40868.04616057
 42
1.30322619
 10
33413.08021875
 20
-40868.04616175
 10
33428.61107654
 20
-40926.08550692
 42
-1.30322619
 10
33396.4135542
 20
-40926.0855081
 10
33411.94440775
 20
-40868.04616179
 42
1.30322619
 10
33379.74688542
 20
-40868.04616297
 10
33395.27774321
 20
-40926.08550814
 42
-1.30322619
 10
33363.08022087
 20
-40926.08550931
 10
33378.61107442
 20
-40868.04616301
 42
1.30322619
 10
33346.41355208
 20
-40868.04616418
 10
33361.94440987
 20
-40926.08550935
 42
-1.30322619
 10
33329.74688754
 20
-40926.08551053
 10
33345.27774109
 20
-40868.04616423
 42
1.30322619
 10
33313.08021875
 20
-40868.0461654
 10
33328.61107654
 20
-40926.08551057
 42
-1.30322619
 10
33296.4135542
 20
-40926.08551175
 10
33311.94440775
 20
-40868.04616544
 42
1.30322619
 10
33279.74688542
 20
-40868.04616662
 10
33295.27774321
 20
-40926.08551179
 42
-1.30322619
 10
33263.08022087
 20
-40926.08551297
 10
33278.61107442
 20
-40868.04616666
 42
1.30322619
 10
33246.41355208
 20
-40868.04616784
 10
33261.94440987
 20
-40926.08551301
 42
-1.30322619
 10
33229.74688754
 20
-40926.08551418
 10
33245.27774109
 20
-40868.04616788
 42
1.30322619
 10
33213.08021875
 20
-40868.04616905
 10
33228.61107654
 20
-40926.08551422
 42
-1.30322619
 10
33196.4135542
 20
-40926.0855154
 10
33211.94440775
 20
-40868.0461691
 42
1.30322619
 10
33179.74688542
 20
-40868.04617027
 10
33195.27774321
 20
-40926.08551544
 42
-1.30322619
 10
33163.08022087
 20
-40926.08551662
 10
33178.61107442
 20
-40868.04617031
 42
1.30322619
 10
33146.41355208
 20
-40868.04617149
 10
33161.94440987
 20
-40926.08551666
 42
-1.30322619
 10
33129.74688754
 20
-40926.08551783
 10
33145.27774109
 20
-40868.04617153
 42
1.30322619
 10
33113.08021875
 20
-40868.04617271
 10
33128.61107654
 20
-40926.08551788
 42
-1.30322619
 10
33096.4135542
 20
-40926.08551905
 10
33111.94440775
 20
-40868.04617275
 42
1.30322619
 10
33079.74688542
 20
-40868.04617392
 10
33095.27774321
 20
-40926.08551909
 42
-1.30322619
 10
33063.08022087
 20
-40926.08552027
 10
33078.61107442
 20
-40868.04617396
 42
1.30322619
 10
33046.41355208
 20
-40868.04617514
 10
33061.94440987
 20
-40926.08552031
 42
-1.30322619
 10
33029.74688754
 20
-40926.08552149
 10
33045.27774109
 20
-40868.04617518
 42
1.30322619
 10
33013.08021875
 20
-40868.04617636
 10
33028.61107654
 20
-40926.08552153
 42
-1.30322619
 10
32996.4135542
 20
-40926.0855227
 10
33011.94440775
 20
-40868.0461764
 42
1.30322619
 10
32979.74688542
 20
-40868.04617757
 10
32995.27774321
 20
-40926.08552274
 42
-1.30322619
 10
32963.08022087
 20
-40926.08552392
 10
32978.61107442
 20
-40868.04617762
 42
0.51212838
 10
32961.50265856
 20
-40847.09646125
  0
LWPOLYLINE
  5
29F
100
AcDbEntity
  8
Ech.1_5
 62
   190
  6
CONTINUOUS
370
    -3
100
AcDbPolyline
 90
       25
 70
     1
 43
0.0
 10
33095.01378065
 20
-40704.02427397
 10
33101.12269541
 20
-40726.79945726
 10
33124.85535971
 20
-40720.43372041
 10
33112.25110105
 20
-40668.23791346
 10
33102.80668259
 20
-40670.51855438
 10
33105.38438211
 20
-40681.19312959
 10
33088.43186178
 20
-40685.28682913
 10
33085.85416225
 20
-40674.61225393
 10
33076.40974379
 20
-40676.89289485
 10
33078.98744332
 20
-40687.56747005
 10
33055.92109454
 20
-40693.13753867
 10
33055.48425076
 20
-40691.3285141
 10
33055.42912603
 20
-40691.34182563
 10
33046.38679331
 20
-40653.89639822
 10
33042.73546997
 20
-40638.7758129
 10
32716.35521068
 20
-40717.59021294
 42
0.41421356
 10
32699.90738777
 20
-40744.51060503
 10
32704.13489116
 20
-40762.01722378
 10
32716.84393573
 20
-40814.64696225
 10
32737.14648907
 20
-40809.74429576
 10
32734.6132364
 20
-40799.25378053
 10
32750.39789347
 20
-40795.08296246
 10
32752.89331059
 20
-40805.41679595
 10
32763.35250842
 20
-40802.61135868
 10
32761.1692759
 20
-40793.57032057
  0
LWPOLYLINE
  5
2A0
100
AcDbEntity
  8
Ech.1_5
 62
   190
  6
CONTINUOUS
370
    -3
100
AcDbPolyline
 90
       26
 70
     1
 43
0.0
 10
33433.59897094
 20
-40580.71913735
 10
33439.70788571
 20
-40603.49432063
 10
33463.44055
 20
-40597.12858379
 10
33450.83629134
 20
-40544.93277684
 10
33441.39187288
 20
-40547.21341776
 10
33443.96957241
 20
-40557.88799297
 10
33427.01705207
 20
-40561.98169251
 10
33424.43935254
 20
-40551.30711731
 10
33414.99493408
 20
-40553.58775823
 10
33417.57263361
 20
-40564.26233343
 10
33394.50628483
 20
-40569.83240205
 10
33394.08482956
 20
-40568.08710323
 10
33394.03687996
 20
-40568.09868211
 10
33384.99454725
 20
-40530.65325469
 10
33381.32783539
 20
-40515.46894363
 10
33054.94040097
 20
-40594.28507632
 42
0.41421356
 10
33038.49257806
 20
-40621.20546841
 10
33042.73546997
 20
-40638.7758129
 10
33042.7905947
 20
-40638.76250137
 10
33055.48425076
 20
-40691.3285141
 10
33075.73167936
 20
-40686.43915914
 10
33073.19842669
 20
-40675.94864391
 10
33088.98308376
 20
-40671.77782584
 10
33091.47850088
 20
-40682.11165933
 10
33101.93769871
 20
-40679.30622206
 10
33099.75446619
 20
-40670.26518395
  0
LWPOLYLINE
  5
2A1
100
AcDbEntity
  8
Ech.1_5
 62
   190
  6
CONTINUOUS
370
    -3
100
AcDbPolyline
 90
       23
 70
     1
 43
0.0
 10
33772.20672488
 20
-40457.47599383
 10
33778.31563964
 20
-40480.25117711
 10
33802.04830394
 20
-40473.88544027
 10
33789.44404528
 20
-40421.68963332
 10
33779.99962681
 20
-40423.97027424
 10
33782.57732634
 20
-40434.64484944
 10
33765.62480601
 20
-40438.73854899
 10
33763.04710648
 20
-40428.06397378
 10
33753.60268802
 20
-40430.3446147
 10
33756.18038755
 20
-40441.01918991
 10
33733.11403876
 20
-40446.58925853
 10
33719.98353893
 20
-40392.21422122
 10
33393.5481549
 20
-40471.0419328
 42
0.41421356
 10
33377.100332
 20
-40497.96232489
 10
33381.32783539
 20
-40515.46894363
 10
33381.37578499
 20
-40515.45736475
 10
33394.08482956
 20
-40568.08710323
 10
33414.3394333
 20
-40563.19601562
 10
33411.80618063
 20
-40552.70550039
 10
33427.5908377
 20
-40548.53468231
 10
33430.08625482
 20
-40558.86851581
 10
33440.54545265
 20
-40556.06307854
 10
33438.36222013
 20
-40547.02204042
  0
LINE
  5
2A2
100
AcDbEntity
  8
Ech.1_5
 62
   190
  6
CONTINUOUS
370
    -3
100
AcDbLine
 10
32369.19384908
 20
-40900.44467836
 30
0.0
 11
32717.265391
 21
-40816.39226108
 31
0.0
  0
LWPOLYLINE
  5
2A3
100
AcDbEntity
  8
Ech.1_5
 62
   190
  6
CONTINUOUS
370
    -3
100
AcDbPolyline
 90
       23
 70
     0
 43
0.0
 10
32764.19892865
 20
-40793.76169791
 10
32773.64334711
 20
-40791.48105699
 10
32786.24760577
 20
-40843.67686394
 10
32762.51494148
 20
-40850.04260078
 10
32756.40602672
 20
-40827.2674175
 10
32422.56152197
 20
-40916.81346409
 10
32424.74475448
 20
-40925.85450221
 10
32414.28555666
 20
-40928.65993948
 10
32411.79013954
 20
-40918.32610598
 10
32396.00548247
 20
-40922.49692406
 10
32398.53873514
 20
-40932.98743929
 10
32378.2361818
 20
-40937.89010578
 10
32369.19384908
 20
-40900.44467836
 10
32361.29963384
 20
-40867.75374856
 42
-0.41421356
 10
32377.74745674
 20
-40840.83335647
 10
32704.13489116
 20
-40762.01722378
 10
32717.265391
 20
-40816.39226108
 10
32740.37968938
 20
-40810.81061358
 10
32737.80198986
 20
-40800.13603837
 10
32747.24640832
 20
-40797.85539745
 10
32749.82410785
 20
-40808.52997266
 10
32766.77662818
 20
-40804.43627311
 10
32764.19892865
 20
-40793.76169791
  0
LINE
  5
2A4
100
AcDbEntity
  8
Ech.1_5
 62
   190
  6
CONTINUOUS
370
    -3
100
AcDbLine
 10
32707.80160302
 20
-40777.20153484
 30
0.0
 11
33055.87314494
 21
-40693.14911756
 31
0.0
  0
LWPOLYLINE
  5
2A5
100
AcDbEntity
  8
Ech.1_5
 62
   190
  6
CONTINUOUS
370
    -3
100
AcDbPolyline
 90
       23
 70
     0
 43
0.0
 10
33102.80668259
 20
-40670.51855438
 10
33112.25110105
 20
-40668.23791346
 10
33124.85535971
 20
-40720.43372041
 10
33101.12269541
 20
-40726.79945726
 10
33095.01378065
 20
-40704.02427397
 10
32761.1692759
 20
-40793.57032057
 10
32763.35250842
 20
-40802.61135868
 10
32752.89331059
 20
-40805.41679595
 10
32750.39789347
 20
-40795.08296246
 10
32734.6132364
 20
-40799.25378053
 10
32737.14648907
 20
-40809.74429576
 10
32716.84393573
 20
-40814.64696225
 10
32707.80160302
 20
-40777.20153484
 10
32699.90738777
 20
-40744.51060503
 42
-0.41421356
 10
32716.35521068
 20
-40717.59021294
 10
33042.7905947
 20
-40638.76250137
 10
33055.92109454
 20
-40693.13753867
 10
33078.98744332
 20
-40687.56747005
 10
33076.40974379
 20
-40676.89289485
 10
33085.85416225
 20
-40674.61225393
 10
33088.43186178
 20
-40685.28682913
 10
33105.38438211
 20
-40681.19312959
 10
33102.80668259
 20
-40670.51855438
  0
LINE
  5
2A6
100
AcDbEntity
  8
Ech.1_5
 62
   190
  6
CONTINUOUS
370
    -3
100
AcDbLine
 10
33046.38679331
 20
-40653.89639822
 30
0.0
 11
33394.45833523
 21
-40569.84398094
 31
0.0
  0
LWPOLYLINE
  5
2A7
100
AcDbEntity
  8
Ech.1_5
 62
   190
  6
CONTINUOUS
370
    -3
100
AcDbPolyline
 90
       23
 70
     0
 43
0.0
 10
33441.39187288
 20
-40547.21341776
 10
33450.83629134
 20
-40544.93277684
 10
33463.44055
 20
-40597.12858379
 10
33439.70788571
 20
-40603.49432063
 10
33433.59897094
 20
-40580.71913735
 10
33099.75446619
 20
-40670.26518395
 10
33101.93769871
 20
-40679.30622206
 10
33091.47850088
 20
-40682.11165933
 10
33088.98308376
 20
-40671.77782584
 10
33073.19842669
 20
-40675.94864391
 10
33075.73167936
 20
-40686.43915914
 10
33055.42912603
 20
-40691.34182563
 10
33046.38679331
 20
-40653.89639822
 10
33038.49257806
 20
-40621.20546841
 42
-0.41421356
 10
33054.94040097
 20
-40594.28507632
 10
33381.37578499
 20
-40515.45736475
 10
33394.50628483
 20
-40569.83240205
 10
33417.57263361
 20
-40564.26233343
 10
33414.99493408
 20
-40553.58775823
 10
33424.43935254
 20
-40551.30711731
 10
33427.01705207
 20
-40561.98169251
 10
33443.96957241
 20
-40557.88799297
 10
33441.39187288
 20
-40547.21341776
  0
LINE
  5
2A8
100
AcDbEntity
  8
Ech.1_5
 62
     7
100
AcDbLine
 10
33384.99454725
 20
-40530.65325469
 30
0.0
 11
33733.06608916
 21
-40446.60083741
 31
0.0
  0
LWPOLYLINE
  5
2A9
100
AcDbEntity
  8
Ech.1_5
 62
   190
  6
CONTINUOUS
370
    -3
100
AcDbPolyline
 90
       23
 70
     0
 43
0.0
 10
33779.99962681
 20
-40423.97027424
 10
33789.44404528
 20
-40421.68963332
 10
33802.04830394
 20
-40473.88544027
 10
33778.31563964
 20
-40480.25117711
 10
33772.20672488
 20
-40457.47599383
 10
33438.36222013
 20
-40547.02204042
 10
33440.54545265
 20
-40556.06307854
 10
33430.08625482
 20
-40558.86851581
 10
33427.5908377
 20
-40548.53468231
 10
33411.80618063
 20
-40552.70550039
 10
33414.3394333
 20
-40563.19601562
 10
33394.03687996
 20
-40568.09868211
 10
33384.99454725
 20
-40530.65325469
 10
33377.100332
 20
-40497.96232489
 42
-0.41421356
 10
33393.5481549
 20
-40471.0419328
 10
33719.98353893
 20
-40392.21422122
 10
33733.11403876
 20
-40446.58925853
 10
33756.18038755
 20
-40441.01918991
 10
33753.60268802
 20
-40430.3446147
 10
33763.04710648
 20
-40428.06397378
 10
33765.62480601
 20
-40438.73854899
 10
33782.57732634
 20
-40434.64484944
 10
33779.99962681
 20
-40423.97027424
  0
LINE
  5
2AA
100
AcDbEntity
  8
Ech.1_5
 62
   190
  6
CONTINUOUS
370
    -3
100
AcDbLine
 10
33384.98737212
 20
-40530.65498735
 30
0.0
 11
33733.05891403
 21
-40446.60257006
 31
0.0
  0
LWPOLYLINE
  5
2AB
100
AcDbEntity
  8
Ech.1_5
 62
     7
100
AcDbPolyline
 90
        5
 70
     0
 43
0.0
 10
33053.67509523
 20
-40719.3090529
 10
33091.26280006
 20
-40705.62824717
 10
33100.49734393
 20
-40730.99994793
 10
33062.90963909
 20
-40744.68075366
 10
33053.67509523
 20
-40719.3090529
  0
LWPOLYLINE
  5
2AC
100
AcDbEntity
  8
Ech.1_5
 62
   190
  6
CONTINUOUS
370
    -3
100
AcDbPolyline
 90
        6
 70
     1
 43
0.0
 10
33768.4866492
 20
-40459.02924974
 10
33777.70769851
 20
-40484.36387451
 10
33740.12137024
 20
-40498.04846232
 10
33734.39486351
 20
-40482.31501436
 10
33730.89894437
 20
-40472.71005547
 10
33734.39486351
 20
-40471.43764497
  0
LWPOLYLINE
  5
2AD
100
AcDbEntity
  8
Ech.1_5
 62
   190
  6
CONTINUOUS
370
    -3
100
AcDbPolyline
 90
        4
 70
     1
 43
0.0
 10
33429.8860704
 20
-40582.27066061
 10
33392.29836556
 20
-40595.95146635
 10
33401.53290943
 20
-40621.32316711
 10
33439.1192377
 20
-40607.6385793
  0
LWPOLYLINE
  5
2AE
100
AcDbEntity
  8
Ech.1_5
 62
   190
  6
CONTINUOUS
370
    -3
100
AcDbPolyline
 90
        4
 70
     1
 43
0.0
 10
33091.26280006
 20
-40705.62824717
 10
33053.72557784
 20
-40719.29067873
 10
33062.93755621
 20
-40744.60038131
 10
33100.47340372
 20
-40730.93417276
  0
LWPOLYLINE
  5
2AF
100
AcDbEntity
  8
Ech.1_5
 62
   190
  6
CONTINUOUS
370
    -3
100
AcDbPolyline
 90
        4
 70
     1
 43
0.0
 10
32752.65504612
 20
-40828.87139069
 10
32715.06734129
 20
-40842.55219642
 10
32724.29172223
 20
-40867.89597477
 10
32761.8780505
 20
-40854.21138696
  0
LWPOLYLINE
  5
2B0
100
AcDbEntity
  8
Ech.1_5
 62
   190
  6
CONTINUOUS
370
    -3
100
AcDbPolyline
 90
        4
 70
     1
 43
0.0
 10
32469.06485158
 20
-40907.60525254
 10
32432.98831491
 20
-40917.28194689
 10
32433.00543931
 20
-40973.94704273
 10
32485.73640712
 20
-40954.74853113
  0
LWPOLYLINE
  5
2B1
100
AcDbEntity
  8
Ech.1_5
 62
   190
  6
CONTINUOUS
370
    -3
100
AcDbPolyline
 90
        4
 70
     0
 43
0.0
 10
32469.06485158
 20
-40907.60525254
 10
32433.00543934
 20
-40973.94713281
 10
32485.73389777
 20
-40954.75554344
 10
32432.98831491
 20
-40917.28194689
  0
LWPOLYLINE
  5
2B2
100
AcDbEntity
  8
Ech.1_5
 62
   190
  6
CONTINUOUS
370
    -3
100
AcDbPolyline
 90
        4
 70
     0
 43
0.0
 10
32752.65504612
 20
-40828.87139069
 10
32724.30188516
 20
-40867.92389718
 10
32761.88958999
 20
-40854.24309145
 10
32715.06734129
 20
-40842.55219642
  0
LWPOLYLINE
  5
2B3
100
AcDbEntity
  8
Ech.1_5
 62
   190
  6
CONTINUOUS
370
    -3
100
AcDbPolyline
 90
        4
 70
     0
 43
0.0
 10
33091.26280006
 20
-40705.62824717
 10
33062.90963909
 20
-40744.68075366
 10
33100.49734393
 20
-40730.99994793
 10
33053.67509523
 20
-40719.3090529
  0
LWPOLYLINE
  5
2B4
100
AcDbEntity
  8
Ech.1_5
 62
   190
  6
CONTINUOUS
370
    -3
100
AcDbPolyline
 90
        4
 70
     0
 43
0.0
 10
33429.84799035
 20
-40582.32311054
 10
33401.49482939
 20
-40621.37561704
 10
33439.08253422
 20
-40607.6948113
 10
33392.26028552
 20
-40596.00391628
  0
LWPOLYLINE
  5
2B5
100
AcDbEntity
  8
Ech.1_5
 62
   190
  6
CONTINUOUS
370
    -3
100
AcDbPolyline
 90
        4
 70
     0
 43
0.0
 10
33768.44856915
 20
-40459.08169967
 10
33740.09540819
 20
-40498.13420617
 10
33777.68311302
 20
-40484.45340043
 10
33730.86086432
 20
-40472.76250541
  0
LWPOLYLINE
  5
2B6
100
AcDbEntity
  8
Ech.1_5
 62
   190
  6
CONTINUOUS
370
    -3
100
AcDbPolyline
 90
       23
 70
     1
 43
0.0
 10
32756.40602672
 20
-40827.2674175
 10
32762.51494148
 20
-40850.04260078
 10
32786.24760577
 20
-40843.67686394
 10
32773.64334711
 20
-40791.48105699
 10
32764.19892865
 20
-40793.76169791
 10
32766.77662818
 20
-40804.43627311
 10
32749.82410785
 20
-40808.52997266
 10
32747.24640832
 20
-40797.85539745
 10
32737.80198986
 20
-40800.13603837
 10
32740.37968938
 20
-40810.81061358
 10
32717.265391
 20
-40816.39226108
 10
32707.80160302
 20
-40777.20153484
 10
32704.13489116
 20
-40762.01722378
 10
32377.74745674
 20
-40840.83335647
 42
0.41421356
 10
32361.29963384
 20
-40867.75374856
 10
32369.19384908
 20
-40900.44467836
 10
32378.2361818
 20
-40937.89010578
 10
32398.53873514
 20
-40932.98743929
 10
32396.00548247
 20
-40922.49692406
 10
32411.79013954
 20
-40918.32610598
 10
32414.28555666
 20
-40928.65993948
 10
32424.74475448
 20
-40925.85450221
 10
32422.56152197
 20
-40916.81346409
  0
LWPOLYLINE
  5
2B7
100
AcDbEntity
  8
Ech.1_5
 62
   190
  6
CONTINUOUS
370
    -3
100
AcDbPolyline
 90
       96
 70
     0
 43
0.0
 10
33945.84564582
 20
-40763.92586681
 42
1.14028181
 10
33912.70003749
 20
-40768.2895791
 10
33928.41109921
 20
-40827.00236109
 42
-1.30322619
 10
33895.83998585
 20
-40827.00236109
 10
33911.55104757
 20
-40768.2895791
 42
1.30322619
 10
33878.9799342
 20
-40768.2895791
 10
33894.69099592
 20
-40827.00236109
 42
-1.30322619
 10
33862.11988256
 20
-40827.00236109
 10
33877.83094428
 20
-40768.2895791
 42
1.30322619
 10
33845.25983091
 20
-40768.2895791
 10
33860.97089264
 20
-40827.00236109
 42
-1.30322619
 10
33828.39977927
 20
-40827.00236109
 10
33844.11084099
 20
-40768.2895791
 42
1.30322619
 10
33811.53972762
 20
-40768.2895791
 10
33827.25078935
 20
-40827.00236109
 42
-1.30322619
 10
33794.67967598
 20
-40827.00236109
 10
33810.3907377
 20
-40768.2895791
 42
1.30322619
 10
33777.81962434
 20
-40768.2895791
 10
33793.53068606
 20
-40827.00236109
 42
-1.30322619
 10
33760.95957269
 20
-40827.00236109
 10
33776.67063441
 20
-40768.2895791
 42
1.30322619
 10
33744.09952105
 20
-40768.2895791
 10
33759.81058277
 20
-40827.00236109
 42
-1.30322619
 10
33727.2394694
 20
-40827.00236109
 10
33742.95053112
 20
-40768.2895791
 42
1.30322619
 10
33710.37941776
 20
-40768.2895791
 10
33726.09047948
 20
-40827.00236109
 42
-1.30322619
 10
33693.51936611
 20
-40827.00236109
 10
33709.23042784
 20
-40768.2895791
 42
1.30322619
 10
33676.65931447
 20
-40768.2895791
 10
33692.37037619
 20
-40827.00236109
 42
-1.30322619
 10
33659.79926282
 20
-40827.00236109
 10
33675.51032455
 20
-40768.2895791
 42
1.30322619
 10
33642.93921118
 20
-40768.2895791
 10
33658.6502729
 20
-40827.00236109
 42
-1.30322619
 10
33626.07915954
 20
-40827.00236109
 10
33641.79022126
 20
-40768.2895791
 42
1.30322619
 10
33609.21910789
 20
-40768.2895791
 10
33624.93016961
 20
-40827.00236109
 42
-1.30322619
 10
33592.35905625
 20
-40827.00236109
 10
33608.07011797
 20
-40768.2895791
 42
1.30322619
 10
33575.4990046
 20
-40768.2895791
 10
33591.21006632
 20
-40827.00236109
 42
-1.30322619
 10
33558.63895296
 20
-40827.00236109
 10
33574.35001468
 20
-40768.2895791
 42
1.30322619
 10
33541.77890131
 20
-40768.2895791
 10
33557.48996304
 20
-40827.00236109
 42
-1.30322619
 10
33524.91884967
 20
-40827.00236109
 10
33540.62991139
 20
-40768.2895791
 42
1.30322619
 10
33508.05879802
 20
-40768.2895791
 10
33523.76985975
 20
-40827.00236109
 42
-1.30322619
 10
33491.19874638
 20
-40827.00236109
 10
33506.9098081
 20
-40768.2895791
 42
1.30322619
 10
33474.33869474
 20
-40768.2895791
 10
33490.04975646
 20
-40827.00236109
 42
-1.30322619
 10
33457.47864309
 20
-40827.00236109
 10
33473.18970481
 20
-40768.2895791
 42
1.30322619
 10
33440.61859145
 20
-40768.2895791
 10
33456.32965317
 20
-40827.00236109
 42
-1.30322619
 10
33423.7585398
 20
-40827.00236109
 10
33439.46960152
 20
-40768.2895791
 42
1.30322619
 10
33406.89848816
 20
-40768.2895791
 10
33422.60954988
 20
-40827.00236109
 42
-1.30322619
 10
33390.03843651
 20
-40827.00236109
 10
33405.74949824
 20
-40768.2895791
 42
1.30322619
 10
33373.17838487
 20
-40768.2895791
 10
33388.88944659
 20
-40827.00236109
 42
-1.30322619
 10
33356.31833322
 20
-40827.00236109
 10
33372.02939495
 20
-40768.2895791
 42
1.30322619
 10
33339.45828158
 20
-40768.2895791
 10
33355.1693433
 20
-40827.00236109
 42
-1.30322619
 10
33322.59822994
 20
-40827.00236109
 10
33338.30929166
 20
-40768.2895791
 42
1.30322619
 10
33305.73817829
 20
-40768.2895791
 10
33321.44924001
 20
-40827.00236109
 42
-1.30322619
 10
33288.87812665
 20
-40827.00236109
 10
33304.58918837
 20
-40768.2895791
 42
1.30322619
 10
33272.018075
 20
-40768.2895791
 10
33287.72913672
 20
-40827.00236109
 42
-1.30322619
 10
33255.15802336
 20
-40827.00236109
 10
33270.86908508
 20
-40768.2895791
 42
1.30322619
 10
33238.29797171
 20
-40768.2895791
 10
33254.00903343
 20
-40827.00236109
 42
-1.30322619
 10
33221.43792007
 20
-40827.00236109
 10
33237.14898179
 20
-40768.2895791
 42
1.30322619
 10
33204.57786842
 20
-40768.2895791
 10
33220.28893015
 20
-40827.00236109
 42
-1.30322619
 10
33187.71781678
 20
-40827.00236109
 10
33203.4288785
 20
-40768.2895791
 42
1.30322619
 10
33170.85776514
 20
-40768.2895791
 10
33186.56882686
 20
-40827.00236109
 42
-1.30322619
 10
33153.99771349
 20
-40827.00236109
 10
33169.70877521
 20
-40768.2895791
 42
1.30322619
 10
33137.13766185
 20
-40768.2895791
 10
33152.84872357
 20
-40827.00236109
 42
-0.51668321
 10
33135.29945527
 20
-40848.17869883
  0
ARC
  5
2B8
100
AcDbEntity
  8
Ech.1_5
 62
   190
  6
CONTINUOUS
370
    -3
100
AcDbCircle
 10
33063.72914842
 20
-40835.3736599
 30
0.0
 40
11.98593931
100
AcDbArc
 50
257.28894609
 51
282.71105391
  0
LWPOLYLINE
  5
2B9
100
AcDbEntity
  8
Ech.1_5
 62
   190
  6
CONTINUOUS
370
    -3
100
AcDbPolyline
 90
       16
 70
     0
 43
0.0
 10
33137.43620746
 20
-40757.52580358
 42
1.14028181
 10
33116.3548062
 20
-40768.50009454
 10
33141.12604328
 20
-40803.90220555
 42
-1.30322619
 10
33119.36741092
 20
-40811.82170006
 10
33115.58724112
 20
-40768.77946538
 42
1.30322619
 10
33093.82860876
 20
-40776.6989599
 10
33118.59984584
 20
-40812.1010709
 42
-1.30322619
 10
33096.84121348
 20
-40820.02056542
 10
33093.06104368
 20
-40776.97833074
 42
1.30322619
 10
33071.30241132
 20
-40784.89782526
 10
33096.0736484
 20
-40820.29993626
 42
-1.30322619
 10
33074.31501604
 20
-40828.21943078
 10
33070.53484624
 20
-40785.1771961
 42
1.30322619
 10
33048.77621388
 20
-40793.09669062
 10
33073.54745096
 20
-40828.49880162
 42
-0.53332791
 10
33066.36646747
 20
-40847.06584914
  0
LWPOLYLINE
  5
2BA
100
AcDbEntity
  8
Ech.1_5
 62
   190
  6
CONTINUOUS
370
    -3
100
AcDbPolyline
 90
        6
 70
     0
 43
0.0
 10
33061.09182937
 20
-40847.06584914
 42
-0.3263143
 10
33051.7888186
 20
-40836.41829614
 10
33048.0086488
 20
-40793.37606146
 42
1.30322619
 10
33026.25001644
 20
-40801.29555598
 10
33051.02125352
 20
-40836.69766698
 42
-0.23061511
 10
33052.66852682
 20
-40847.06584914
  0
LINE
  5
2BB
100
AcDbEntity
  8
Ech.1_5
 62
   190
  6
CONTINUOUS
370
    -3
100
AcDbLine
 10
32369.19384908
 20
-40900.44467836
 30
0.0
 11
32717.265391
 21
-40816.39226108
 31
0.0
  0
LWPOLYLINE
  5
2BC
100
AcDbEntity
  8
Ech.1_5
 62
     5
  6
CONTINUOUS
370
    -3
100
AcDbPolyline
 90
        7
 70
     0
 43
0.0
 10
32907.51670928
 20
-40947.06581516
 10
32952.51670928
 20
-40947.06581516
 10
32952.51670928
 20
-40857.06581516
 10
32928.93535027
 20
-40857.06581516
 10
32907.51670928
 20
-40857.06581516
 10
32907.51670928
 20
-40947.06581516
 10
32928.53953281
 20
-40947.06581516
  0
LWPOLYLINE
  5
2BD
100
AcDbEntity
  8
Ech.1_5
 62
     5
  6
CONTINUOUS
370
    -3
100
AcDbPolyline
 90
        5
 70
     0
 43
0.0
 10
33568.429891
 20
-41007.06581516
 10
33568.429891
 20
-40947.06581516
 10
33526.429891
 20
-40947.06581516
 10
33526.429891
 20
-41007.06581516
 10
33568.429891
 20
-41007.06581516
  0
LWPOLYLINE
  5
2BE
100
AcDbEntity
  8
Ech.1_5
 62
     5
  6
CONTINUOUS
370
    -3
100
AcDbPolyline
 90
        5
 70
     0
 43
0.0
 10
32715.06734129
 20
-40842.55219642
 10
32752.65504612
 20
-40828.87139069
 10
32761.88958999
 20
-40854.24309145
 10
32724.30188516
 20
-40867.92389718
 10
32715.06734129
 20
-40842.55219642
  0
LWPOLYLINE
  5
2BF
100
AcDbEntity
  8
Ech.1_5
 62
     5
  6
CONTINUOUS
370
    -3
100
AcDbPolyline
 90
        5
 70
     0
 43
0.0
 10
32432.98831491
 20
-40917.28194689
 10
32469.06485158
 20
-40907.60525254
 10
32485.73831799
 20
-40954.75393461
 10
32433.00543934
 20
-40973.94713281
 10
32432.98831491
 20
-40917.28194689
  0
LWPOLYLINE
  5
2C0
100
AcDbEntity
  8
Ech.1_5
 62
     5
  6
CONTINUOUS
370
    -3
100
AcDbPolyline
 90
        5
 70
     0
 43
0.0
 10
33053.71317527
 20
-40719.25660297
 10
33091.3008801
 20
-40705.57579724
 10
33100.53542397
 20
-40730.947498
 10
33062.94771914
 20
-40744.62830373
 10
33053.71317527
 20
-40719.25660297
  0
LWPOLYLINE
  5
2C1
100
AcDbEntity
  8
Ech.1_5
 62
     5
  6
CONTINUOUS
370
    -3
100
AcDbPolyline
 90
        5
 70
     0
 43
0.0
 10
33392.29836556
 20
-40595.95146635
 10
33429.8860704
 20
-40582.27066061
 10
33439.12061427
 20
-40607.64236137
 10
33401.53290943
 20
-40621.32316711
 10
33392.29836556
 20
-40595.95146635
  0
LWPOLYLINE
  5
2C2
100
AcDbEntity
  8
Ech.1_5
 62
     5
  6
CONTINUOUS
370
    -3
100
AcDbPolyline
 90
        5
 70
     0
 43
0.0
 10
33730.89894437
 20
-40472.71005547
 10
33768.4866492
 20
-40459.02924974
 10
33777.72119307
 20
-40484.4009505
 10
33740.13348824
 20
-40498.08175624
 10
33730.89894437
 20
-40472.71005547
  0
LINE
  5
2C3
100
AcDbEntity
  8
Ech.1_5
370
    35
100
AcDbLine
 10
33571.67442779
 20
-41085.13449186
 30
0.0
 11
33571.67442779
 21
-40954.57416403
 31
0.0
  0
LINE
  5
2C4
100
AcDbEntity
  8
Ech.1_5
  6
DASHEDX2
 48
0.2
370
    35
100
AcDbLine
 10
33571.67442779
 20
-41085.13449186
 30
0.0
 11
33571.67442779
 21
-41109.0659579
 31
0.0
  0
LWPOLYLINE
  5
2C5
100
AcDbEntity
  8
Ech.1_5
 62
     9
  6
CADWORK_22
370
    35
100
AcDbPolyline
 90
        4
 70
     0
 43
0.0
 38
2500.0
 10
32440.44797621
 20
-40995.74425901
 10
32491.49343596
 20
-40976.88929338
 10
32498.4217438
 20
-40977.27407835
 10
33945.3326156
 20
-40450.64158938
  0
LWPOLYLINE
  5
2C6
100
AcDbEntity
  8
Ech.1_5
 62
     1
  6
CADWORK_22
 48
-5.0
370
    35
100
AcDbPolyline
 90
        3
 70
     0
 43
0.0
 10
33061.0761313
 20
-40987.09312305
 10
33061.0761313
 20
-40948.56581516
 10
33945.84564582
 20
-40948.56581516
  0
LINE
  5
2C7
100
AcDbEntity
  8
Ech.1_5
370
    35
100
AcDbLine
 10
33106.20910608
 20
-41085.13449186
 30
0.0
 11
33106.20910608
 21
-40954.57416403
 31
0.0
  0
LINE
  5
2C8
100
AcDbEntity
  8
Ech.1_5
  6
DASHEDX2
 48
0.2
370
    35
100
AcDbLine
 10
33106.20910608
 20
-41085.13449186
 30
0.0
 11
33106.20910608
 21
-41109.0659579
 31
0.0
  0
LWPOLYLINE
  5
2C9
100
AcDbEntity
  8
Ech.1_5
 62
   190
100
AcDbPolyline
 90
        5
 70
     0
 43
0.0
 10
32317.98735368
 20
-41330.97303799
 10
32452.41613266
 20
-41330.97303799
 10
32452.41613266
 20
-41387.6959968
 10
32317.98735368
 20
-41387.6959968
 10
32317.98735368
 20
-41330.97303799
  0
LWPOLYLINE
  5
2CA
100
AcDbEntity
  8
Ech.1_5
 62
   190
100
AcDbPolyline
 90
        5
 70
     0
 43
0.0
 10
32336.26739946
 20
-41364.62984912
 10
32386.26739946
 20
-41364.62984912
 10
32386.26739946
 20
-41357.21471159
 10
32336.26739946
 20
-41357.21471159
 10
32336.26739946
 20
-41364.62984912
  0
HATCH
  5
2CB
100
AcDbEntity
  8
Ech.1_5
 62
   190
100
AcDbHatch
 10
0.0
 20
0.0
 30
0.0
210
0.0
220
0.0
230
1.0
  2
SOLID
 70
     1
 71
     0
 91
        1
 92
        7
 72
     0
 73
     1
 93
        4
 10
32336.26739946
 20
-41364.62984912
 10
32386.26739946
 20
-41364.62984912
 10
32386.26739946
 20
-41357.21471159
 10
32336.26739946
 20
-41357.21471159
 97
        0
 75
     0
 76
     2
 47
0.775229
 98
        1
 10
0.0
 20
0.0
  0
LWPOLYLINE
  5
2CC
100
AcDbEntity
  8
Ech.1_5
 62
   190
100
AcDbPolyline
 90
        5
 70
     0
 43
0.0
 10
32386.26739946
 20
-41364.62984912
 10
32436.26739946
 20
-41364.62984912
 10
32436.26739946
 20
-41357.21471159
 10
32386.26739946
 20
-41357.21471159
 10
32386.26739946
 20
-41364.62984912
  0
LWPOLYLINE
  5
2CD
100
AcDbEntity
  8
Ech.1_5
100
AcDbPolyline
 90
        5
 70
     0
 43
0.0
 10
32423.82071636
 20
-41151.81232065
 10
32870.25241555
 20
-40989.32888575
 10
32866.83069918
 20
-40979.93251127
 10
32420.33748036
 20
-41142.43833489
 10
32423.82071636
 20
-41151.81232065
  0
LWPOLYLINE
  5
2CE
100
AcDbEntity
  8
Ech.1_5
 62
   190
  6
CONTINUOUS
370
    -3
100
AcDbPolyline
 90
      104
 70
     0
 43
0.0
 10
33065.20687308
 20
-41092.39933451
 42
1.14028181
 10
33097.97237326
 20
-41088.08565837
 10
33082.44147221
 20
-41030.04618595
 42
-1.30322619
 10
33114.63906642
 20
-41030.04618
 10
33099.10818679
 20
-41088.08565816
 42
1.30322619
 10
33131.305781
 20
-41088.08565222
 10
33115.77487995
 20
-41030.04617979
 42
-1.30322619
 10
33147.97247416
 20
-41030.04617385
 10
33132.44159453
 20
-41088.08565201
 42
1.30322619
 10
33164.63918873
 20
-41088.08564607
 10
33149.10828769
 20
-41030.04617364
 42
-1.30322619
 10
33181.30588189
 20
-41030.0461677
 10
33165.77500227
 20
-41088.08564586
 42
1.30322619
 10
33197.97259647
 20
-41088.08563992
 10
33182.44169543
 20
-41030.04616749
 42
-1.30322619
 10
33214.63928963
 20
-41030.04616155
 10
33199.10841
 20
-41088.08563971
 42
1.30322619
 10
33231.30600421
 20
-41088.08563377
 10
33215.77510316
 20
-41030.04616134
 42
-1.30322619
 10
33247.97269737
 20
-41030.0461554
 10
33232.44181774
 20
-41088.08563356
 42
1.30322619
 10
33264.63941195
 20
-41088.08562762
 10
33249.1085109
 20
-41030.04615519
 42
-1.30322619
 10
33281.30610511
 20
-41030.04614925
 10
33265.77522548
 20
-41088.08562741
 42
1.30322619
 10
33297.97281969
 20
-41088.08562146
 10
33282.44191864
 20
-41030.04614904
 42
-1.30322619
 10
33314.63951285
 20
-41030.0461431
 10
33299.10863322
 20
-41088.08562126
 42
1.30322619
 10
33331.30622743
 20
-41088.08561531
 10
33315.77532638
 20
-41030.04614289
 42
-1.30322619
 10
33347.97292059
 20
-41030.04613695
 10
33332.44204096
 20
-41088.0856151
 42
1.30322619
 10
33364.63963517
 20
-41088.08560916
 10
33349.10873412
 20
-41030.04613674
 42
-1.30322619
 10
33381.30632833
 20
-41030.0461308
 10
33365.7754487
 20
-41088.08560895
 42
1.30322619
 10
33397.9730429
 20
-41088.08560301
 10
33382.44214186
 20
-41030.04613059
 42
-1.30322619
 10
33414.63973606
 20
-41030.04612465
 10
33399.10885644
 20
-41088.0856028
 42
1.30322619
 10
33431.30645064
 20
-41088.08559686
 10
33415.7755496
 20
-41030.04612444
 42
-1.30322619
 10
33447.9731438
 20
-41030.0461185
 10
33432.44226417
 20
-41088.08559665
 42
1.30322619
 10
33464.63985838
 20
-41088.08559071
 10
33449.10895733
 20
-41030.04611829
 42
-1.30322619
 10
33481.30655154
 20
-41030.04611234
 10
33465.77567191
 20
-41088.0855905
 42
1.30322619
 10
33497.97326612
 20
-41088.08558456
 10
33482.44236507
 20
-41030.04611213
 42
-1.30322619
 10
33514.63995928
 20
-41030.04610619
 10
33499.10907965
 20
-41088.08558435
 42
1.30322619
 10
33531.30667386
 20
-41088.08557841
 10
33515.77577281
 20
-41030.04610598
 42
-1.30322619
 10
33547.97336702
 20
-41030.04610004
 10
33532.44248739
 20
-41088.0855782
 42
1.30322619
 10
33564.6400816
 20
-41088.08557226
 10
33549.10918055
 20
-41030.04609983
 42
-1.30322619
 10
33581.30677476
 20
-41030.04609389
 10
33565.77589513
 20
-41088.08557205
 42
1.30322619
 10
33597.97348934
 20
-41088.08556611
 10
33582.44258829
 20
-41030.04609368
 42
-1.30322619
 10
33614.6401825
 20
-41030.04608774
 10
33599.10930287
 20
-41088.0855659
 42
1.30322619
 10
33631.30689707
 20
-41088.08555996
 10
33615.77599603
 20
-41030.04608753
 42
-1.30322619
 10
33647.97359023
 20
-41030.04608159
 10
33632.44271061
 20
-41088.08555975
 42
1.30322619
 10
33664.64030481
 20
-41088.0855538
 10
33649.10940377
 20
-41030.04608138
 42
-1.30322619
 10
33681.30699797
 20
-41030.04607544
 10
33665.77611834
 20
-41088.0855536
 42
1.30322619
 10
33697.97371255
 20
-41088.08554765
 10
33682.4428115
 20
-41030.04607523
 42
-1.30322619
 10
33714.64040571
 20
-41030.04606929
 10
33699.10952608
 20
-41088.08554744
 42
1.30322619
 10
33731.30712029
 20
-41088.0855415
 10
33715.77621924
 20
-41030.04606908
 42
-1.30322619
 10
33747.97381345
 20
-41030.04606314
 10
33732.44293382
 20
-41088.08554129
 42
1.30322619
 10
33764.64052803
 20
-41088.08553535
 10
33749.10962698
 20
-41030.04606293
 42
-1.30322619
 10
33781.30722119
 20
-41030.04605699
 10
33765.77634156
 20
-41088.08553514
 42
1.30322619
 10
33797.97393577
 20
-41088.0855292
 10
33782.44303472
 20
-41030.04605678
 42
-1.30322619
 10
33814.64062893
 20
-41030.04605084
 10
33799.1097493
 20
-41088.08552899
 42
1.30322619
 10
33831.30734351
 20
-41088.08552305
 10
33815.77644246
 20
-41030.04605063
 42
-1.30322619
 10
33847.97403667
 20
-41030.04604468
 10
33832.44315704
 20
-41088.08552284
 42
1.30322619
 10
33864.64075124
 20
-41088.0855169
 10
33849.1098502
 20
-41030.04604447
 42
-1.30322619
 10
33881.3074444
 20
-41030.04603853
 10
33865.77656478
 20
-41088.08551669
 42
1.30322619
 10
33897.97415898
 20
-41088.08551075
 10
33882.44325794
 20
-41030.04603832
 42
-1.30322619
 10
33914.64085214
 20
-41030.04603238
 10
33899.10997251
 20
-41088.08551054
 42
1.30322619
 10
33931.30756672
 20
-41088.0855046
 10
33915.77666567
 20
-41030.04603217
 42
-0.85371423
 10
33945.84562876
 20
-41016.64316454
  0
LWPOLYLINE
  5
2CF
102
{ACAD_REACTORS
330
2D0
102
}
100
AcDbEntity
  8
Ech.1_5
 62
     9
  6
CONTINUOUS
370
    -3
100
AcDbPolyline
 90
        8
 70
     1
 43
0.0
 38
2500.0
 39
-2500.0
 10
33056.68029856
 20
-40947.06581516
 10
32878.1844114
 20
-40947.06581516
 10
32878.18452951
 20
-41277.49829203
 10
32983.38790382
 20
-41277.49829203
 10
32999.87340697
 20
-41259.52094363
 10
32985.76346696
 20
-41295.47664364
 10
33002.24982104
 20
-41277.49829203
 10
33056.68029856
 20
-41277.49829203
  0
HATCH
  5
2D0
100
AcDbEntity
  8
Ech.1_5
 62
     9
  6
CONTINUOUS
100
AcDbHatch
 10
0.0
 20
0.0
 30
0.0
210
0.0
220
0.0
230
1.0
  2
ANSI31
 70
     0
 71
     1
 91
        1
 92
        7
 72
     0
 73
     1
 93
        8
 10
33056.68029856
 20
-40947.06581516
 10
32878.1844114
 20
-40947.06581516
 10
32878.18452951
 20
-41277.49829203
 10
32983.38790382
 20
-41277.49829203
 10
32999.87340697
 20
-41259.52094363
 10
32985.76346696
 20
-41295.47664364
 10
33002.24982104
 20
-41277.49829203
 10
33056.68029856
 20
-41277.49829203
 97
        1
330
2CF
 75
     0
 76
     2
 52
0.0
 41
4.72443907
 77
     0
 78
     1
 53
45.0
 43
0.0
 44
0.0
 45
10.60660172
 46
-10.60660172
 79
     0
 47
0.775229
 98
        1
 10
0.0
 20
0.0
  0
LWPOLYLINE
  5
2D1
100
AcDbEntity
  8
Ech.1_5
 62
   190
  6
CONTINUOUS
370
    -3
100
AcDbPolyline
 90
        4
 70
     1
 43
0.0
 10
33066.68029856
 20
-41277.49829203
 10
33116.68029856
 20
-41277.49829203
 10
33116.68029856
 20
-41122.06603838
 10
33066.68029856
 20
-41122.06603838
  0
LWPOLYLINE
  5
2D2
100
AcDbEntity
  8
Ech.1_5
 62
   190
  6
CONTINUOUS
370
    -3
100
AcDbPolyline
 90
        4
 70
     1
 43
0.0
 10
33129.68025059
 20
-41122.06603838
 10
33116.68025059
 20
-41122.06603838
 10
33116.68026897
 20
-41277.49829203
 10
33129.68026897
 20
-41277.49829203
  0
LWPOLYLINE
  5
2D3
102
{ACAD_REACTORS
330
2D4
102
}
100
AcDbEntity
  8
Ech.1_5
 62
     7
  6
CONTINUOUS
370
    -3
100
AcDbPolyline
 90
        4
 70
     1
 43
0.0
 10
33116.68025059
 20
-41122.06619516
 10
33116.68026897
 20
-41277.49829203
 10
33129.68026897
 20
-41277.49829203
 10
33129.68025059
 20
-41122.06603838
  0
HATCH
  5
2D4
100
AcDbEntity
  8
Ech.1_5
 62
   190
  6
CONTINUOUS
100
AcDbHatch
 10
0.0
 20
0.0
 30
0.0
210
0.0
220
0.0
230
1.0
  2
DOTS2
 70
     0
 71
     1
 91
        1
 92
        7
 72
     0
 73
     1
 93
        4
 10
33116.68025059
 20
-41122.06619516
 10
33116.68026897
 20
-41277.49829203
 10
33129.68026897
 20
-41277.49829203
 10
33129.68025059
 20
-41122.06603838
 97
        1
330
2D3
 75
     0
 76
     2
 52
0.0
 41
4.72440952
 77
     0
 78
     1
 53
0.0
 43
0.0
 44
0.0
 45
3.75
 46
3.535
 79
     2
 49
0.0
 49
-3.535
 47
0.775229
 98
        1
 10
0.0
 20
0.0
  0
LWPOLYLINE
  5
2D5
100
AcDbEntity
  8
Ech.1_5
 62
   190
  6
CONTINUOUS
370
    -3
100
AcDbPolyline
 90
        6
 70
     0
 43
0.0
 10
32803.38790382
 20
-41277.49885395
 10
32983.38790382
 20
-41277.49829203
 10
32999.87340697
 20
-41259.52094363
 10
32985.76346696
 20
-41295.47664364
 10
33002.24982104
 20
-41277.49829203
 10
33182.50881568
 20
-41277.49829203
  0
LWPOLYLINE
  5
2D6
100
AcDbEntity
  8
Ech.1_5
 62
   190
  6
CONTINUOUS
370
    -3
100
AcDbPolyline
 90
       36
 70
     0
 43
0.0
 10
33075.0136239
 20
-41122.06603838
 42
1.14028181
 10
33077.17045206
 20
-41138.44873658
 10
33106.19009709
 20
-41130.6833162
 42
-1.30322619
 10
33106.19009709
 20
-41146.78206192
 10
33077.17045206
 20
-41139.01664154
 42
1.30322619
 10
33077.17045206
 20
-41155.11538726
 10
33106.19009709
 20
-41147.34996687
 42
-1.30322619
 10
33106.19009709
 20
-41163.4487126
 10
33077.17045206
 20
-41155.68329221
 42
1.30322619
 10
33077.17045206
 20
-41171.78203794
 10
33106.19009709
 20
-41164.01661755
 42
-1.30322619
 10
33106.19009709
 20
-41180.11536328
 10
33077.17045206
 20
-41172.34994289
 42
1.30322619
 10
33077.17045206
 20
-41188.44868862
 10
33106.19009709
 20
-41180.68326823
 42
-1.30322619
 10
33106.19009709
 20
-41196.78201396
 10
33077.17045206
 20
-41189.01659357
 42
1.30322619
 10
33077.17045206
 20
-41205.1153393
 10
33106.19009709
 20
-41197.34991891
 42
-1.30322619
 10
33106.19009709
 20
-41213.44866464
 10
33077.17045206
 20
-41205.68324425
 42
1.30322619
 10
33077.17045206
 20
-41221.78198998
 10
33106.19009709
 20
-41214.01656959
 42
-1.30322619
 10
33106.19009709
 20
-41230.11531532
 10
33077.17045206
 20
-41222.34989493
 42
1.30322619
 10
33077.17045206
 20
-41238.44864066
 10
33106.19009709
 20
-41230.68322027
 42
-1.30322619
 10
33106.19009709
 20
-41246.781966
 10
33077.17045206
 20
-41239.01654561
 42
1.30322619
 10
33077.17045206
 20
-41255.11529134
 10
33106.19009709
 20
-41247.34987095
 42
-1.30322619
 10
33106.19009709
 20
-41263.44861668
 10
33077.17045206
 20
-41255.68319629
 42
1.30322619
 10
33077.17045206
 20
-41271.78194202
 10
33106.19009709
 20
-41264.01652163
 42
-0.73783056
 10
33114.66621067
 20
-41277.49829203
  0
LWPOLYLINE
  5
2D7
100
AcDbEntity
  8
Ech.1_5
 62
     5
  6
CONTINUOUS
370
    -3
100
AcDbPolyline
 90
        5
 70
     0
 43
0.0
 10
32757.36216232
 20
-40991.11817971
 10
32794.94986715
 20
-40977.43737397
 10
32804.18441102
 20
-41002.80907473
 10
32766.59670619
 20
-41016.48988047
 10
32757.36216232
 20
-40991.11817971
  0
LWPOLYLINE
  5
2D8
100
AcDbEntity
  8
Ech.1_5
 62
     5
  6
CONTINUOUS
370
    -3
100
AcDbPolyline
 90
        5
 70
     0
 43
0.0
 10
32427.1844114
 20
-41111.21639082
 10
32464.77211623
 20
-41097.53558508
 10
32474.0066601
 20
-41122.90728585
 10
32436.41895527
 20
-41136.58809158
 10
32427.1844114
 20
-41111.21639082
  0
TEXT
  5
2D9
100
AcDbEntity
  8
Ech.1_5
 62
   190
100
AcDbText
 10
32347.56169209
 20
-41347.6287085
 30
0.0
 40
8.00000012
  1
Echelle en mm
  7
ARIAL
 50
0.0
 41
1.0
 51
0.0
100
AcDbText
  0
TEXT
  5
2DA
100
AcDbEntity
  8
Ech.1_5
 62
   190
100
AcDbText
 10
32333.58110734
 20
-41375.83854403
 30
0.0
 40
8.00000012
  1
0
  7
ARIAL
 50
0.0
 41
1.0
 51
0.0
100
AcDbText
  0
TEXT
  5
2DB
100
AcDbEntity
  8
Ech.1_5
 62
   190
100
AcDbText
 10
32420.17816523
 20
-41375.83854403
 30
0.0
 40
8.00000012
  1
100
  7
ARIAL
 50
0.0
 41
1.0
 51
0.0
100
AcDbText
  0
TEXT
  5
2DC
100
AcDbEntity
  8
Ech.1_5
 62
   190
100
AcDbText
 10
32381.43773367
 20
-41375.83854403
 30
0.0
 40
8.00000012
  1
50
  7
ARIAL
 50
0.0
 41
1.0
 51
0.0
100
AcDbText
  0
INSERT
  5
2DD
100
AcDbEntity
  8
Ech.1_5
 62
     0
370
    -3
100
AcDbBlockReference
  2
*D1
 10
0.0
 20
0.0
 30
0.0
  0
INSERT
  5
2DE
100
AcDbEntity
  8
Ech.1_5
 62
     0
370
    -3
100
AcDbBlockReference
  2
*D2
 10
0.0
 20
0.0
 30
0.0
  0
ENDSEC
  0
SECTION
  2
OBJECTS
  0
DICTIONARY
  5
1
100
AcDbDictionary
  3
ACAD_GROUP
350
2
  3
ACAD_MLINESTYLE
350
3
  0
DICTIONARY
  5
2
102
{CDWK_REACTORS
330
1
102
}
100
AcDbDictionary
  0
DICTIONARY
  5
3
102
{CDWK_REACTORS
330
1
102
}
100
AcDbDictionary
  3
STANDARD
350
4
  0
MLINESTYLE
  5
4
102
{CDWK_REACTORS
330
3
102
}
100
AcDbMlineStyle
  2
STANDARD
 70
     0
  3

 62
     0
 51
90.0
 52
90.0
 71
     2
 49
0.5
 62
   256
  6
BYLAYER
 49
-0.5
 62
   256
  6
BYLAYER
  0
ENDSEC
  0
EOF
