  0
SECTION
  2
HEADER
  9
$ACADVER
  1
AC1014
  9
$DWGCODEPAGE
  3
ANSI_1252
  9
$INSBASE
 10
0.0
 20
0.0
 30
0.0
  9
$EXTMIN
 10
16.95292807
 20
-41548.6081161
  9
$EXTMAX
 10
31719.81840608
 20
784.39574146
  9
$LIMMIN
 10
16.95292807
 20
-41548.6081161
  9
$LIMMAX
 10
31719.81840608
 20
784.39574146
  9
$ORTHOMODE
 70
     0
  9
$REGENMODE
 70
     1
  9
$FILLMODE
 70
     1
  9
$QTEXTMODE
 70
     0
  9
$MIRRTEXT
 70
     1
  9
$DRAGMODE
 70
     2
  9
$LTSCALE
 40
5.0
  9
$OSMODE
 70
     0
  9
$ATTMODE
 70
     1
  9
$TEXTSIZE
 40
3.5
  9
$TRACEWID
 40
1.0
  9
$TEXTSTYLE
  7
STANDARD
  9
$CLAYER
  8
0
  9
$CELTYPE
  6
BYLAYER
  9
$CECOLOR
 62
   256
  9
$DIMSCALE
 40
1.0
  9
$DIMASZ
 40
2.0
  9
$DIMEXO
 40
5.0
  9
$DIMDLI
 40
10.0
  9
$DIMRND
 40
0.0
  9
$DIMDLE
 40
2.0
  9
$DIMEXE
 40
2.0
  9
$DIMTP
 40
0.0
  9
$DIMTM
 40
0.0
  9
$DIMTXT
 40
2.5
  9
$DIMCEN
 40
1.5
  9
$DIMTSZ
 40
0.0
  9
$DIMTOL
 70
     0
  9
$DIMLIM
 70
     0
  9
$DIMTIH
 70
     1
  9
$DIMTOH
 70
     0
  9
$DIMSE1
 70
     0
  9
$DIMSE2
 70
     0
  9
$DIMTAD
 70
     1
  9
$DIMZIN
 70
     8
  9
$DIMBLK
  1

  9
$DIMASO
 70
     1
  9
$DIMSHO
 70
     1
  9
$DIMPOST
  1

  9
$DIMAPOST
  1

  9
$DIMALT
 70
     0
  9
$DIMALTD
 70
     2
  9
$DIMALTF
 40
25.4
  9
$DIMLFAC
 40
1.0
  9
$DIMTOFL
 70
     0
  9
$DIMTVP
 40
0.0
  9
$DIMTIX
 70
     0
  9
$DIMSOXD
 70
     0
  9
$DIMSAH
 70
     0
  9
$DIMBLK1
  1

  9
$DIMBLK2
  1

  9
$DIMSTYLE
  2
*UNNAMED
  9
$DIMCLRD
 70
   190
  9
$DIMCLRE
 70
   190
  9
$DIMCLRT
 70
   190
  9
$DIMTFAC
 40
1.0
  9
$DIMGAP
 40
0.09
  9
$DIMUNIT
 70
     2
  9
$LUNITS
 70
     2
  9
$LUPREC
 70
     6
  9
$AXISMODE
 70
     0
  9
$AXISUNIT
 10
0.0
 20
0.0
  9
$SKETCHINC
 40
0.1
  9
$FILLETRAD
 40
0.0
  9
$AUNITS
 70
     0
  9
$AUPREC
 70
     0
  9
$MENU
  1
ACAD
  9
$ELEVATION
 40
0.0
  9
$PELEVATION
 40
0.0
  9
$THICKNESS
 40
0.0
  9
$LIMCHECK
 70
     0
  9
$BLIPMODE
 70
     1
  9
$CHAMFERA
 40
0.0
  9
$CHAMFERB
 40
0.0
  9
$SKPOLY
 70
     1
  9
$TDCREATE
 40
2457811.0000000000
  9
$TDUPDATE
 40
2457811.0000000000
  9
$TDINDWG
 40
0.0
  9
$TDUSRTIMER
 40
0.0
  9
$USRTIMER
 70
     1
  9
$ANGBASE
 50
0.0
  9
$ANGDIR
 70
     0
  9
$PDMODE
 70
     0
  9
$PDSIZE
 40
0.0
  9
$PLINEWID
 40
0.0
  9
$COORDS
 70
     2
  9
$SPLFRAME
 70
     0
  9
$SPLINETYPE
 70
     6
  9
$SPLINESEGS
 70
     8
  9
$ATTDIA
 70
     1
  9
$ATTREQ
 70
     1
  9
$HANDLING
 70
     1
  9
$HANDSEED
  5
     2CC
  9
$SURFTAB1
 70
     6
  9
$SURFTAB2
 70
     6
  9
$SURFTYPE
 70
     6
  9
$SURFU
 70
     6
  9
$SURFV
 70
     6
  9
$UCSNAME
  2

  9
$UCSORG
 10
0.0
 20
0.0
 30
0.0
  9
$UCSXDIR
 10
1.0
 20
0.0
 30
0.0
  9
$UCSYDIR
 10
0.0
 20
1.0
 30
0.0
  9
$PUCSNAME
  2

  9
$PUCSORG
 10
0.0
 20
0.0
 30
0.0
  9
$PUCSXDIR
 10
1.0
 20
0.0
 30
0.0
  9
$PUCSYDIR
 10
0.0
 20
1.0
 30
0.0
  9
$USERI1
 70
     0
  9
$USERI2
 70
     0
  9
$USERI3
 70
     0
  9
$USERI4
 70
     0
  9
$USERI5
 70
     0
  9
$USERR1
 40
0.0
  9
$USERR2
 40
0.0
  9
$USERR3
 40
0.0
  9
$USERR4
 40
0.0
  9
$USERR5
 40
0.0
  9
$WORLDVIEW
 70
     1
  9
$SHADEDGE
 70
     3
  9
$SHADEDIF
 70
    70
  9
$TILEMODE
 70
     1
  9
$MAXACTVP
 70
    16
  9
$PINSBASE
 10
0.0
 20
0.0
 30
0.0
  9
$PLIMCHECK
 70
     0
  9
$PEXTMIN
 10
1.0000000000000E+20
 20
1.0000000000000E+20
 30
1.0000000000000E+20
  9
$PEXTMAX
 10
-1.0000000000000E+20
 20
-1.0000000000000E+20
 30
-1.0000000000000E+20
  9
$PLIMMIN
 10
0.0
 20
0.0
  9
$UNITMODE
 70
     0
  9
$VISRETAIN
 70
     0
  9
$MEASUREMENT
 70
     1
  0
ENDSEC
  0
SECTION
  2
TABLES
  0
TABLE
  2
VPORT
  5
E9
100
AcDbSymbolTable
 70
     1
  0
ENDTAB
  0
TABLE
  2
STYLE
  5
EA
100
AcDbSymbolTable
 70
     3
  0
STYLE
  5
EB
100
AcDbSymbolTableRecord
100
AcDbTextStyleTableRecord
  2
STANDARD
 70
     0
 40
0.0
 41
1.0
 50
0.0
 71
     0
 42
3.5
  3
MONOTXT
  4

  0
STYLE
  5
EC
100
AcDbSymbolTableRecord
100
AcDbTextStyleTableRecord
  2
SYMAP
 70
     0
 40
0.0
 41
1.0
 50
0.0
 71
     0
 42
3.5
  3
SYMAP
  4

  0
STYLE
  5
ED
100
AcDbSymbolTableRecord
100
AcDbTextStyleTableRecord
  2
CADWORK1
 70
     0
 40
0.0
 41
1.0
 50
0.0
 71
     0
 42
3.5
  3
MONOTXT
  4

  0
STYLE
  5
EE
100
AcDbSymbolTableRecord
100
AcDbTextStyleTableRecord
  2
MONOTXT
 70
     0
 40
0.0
 41
1.0
 50
0.0
 71
     0
 42
3.5
  3
MONOTXT
  4

  0
STYLE
  5
EF
100
AcDbSymbolTableRecord
100
AcDbTextStyleTableRecord
  2
ARIAL
 70
     0
 40
0.0
 41
1.0
 50
0.0
 71
     0
 42
3.5
  3

  4

1001
ACAD
1000
Arial
1071
        0
  0
ENDTAB
  0
TABLE
  2
LTYPE
  5
F0
100
AcDbSymbolTable
 70
    13
  0
LTYPE
  5
F1
100
AcDbSymbolTableRecord
100
AcDbLinetypeTableRecord
  2
BYBLOCK
 70
    64
  3

 72
    65
 73
     0
 40
0.0
  0
LTYPE
  5
F2
100
AcDbSymbolTableRecord
100
AcDbLinetypeTableRecord
  2
BYLAYER
 70
    64
  3

 72
    65
 73
     0
 40
0.0
  0
LTYPE
  5
F3
100
AcDbSymbolTableRecord
100
AcDbLinetypeTableRecord
  2
CONTINUOUS
 70
    64
  3
Solid line
 72
    65
 73
     0
 40
0.0
  0
LTYPE
  5
F4
100
AcDbSymbolTableRecord
100
AcDbLinetypeTableRecord
  2
DOT2
 70
    64
  3
...............................................
 72
    65
 73
     2
 40
1.25
 49
0.0
 74
     0
 49
-1.25
 74
     0
  0
LTYPE
  5
F5
100
AcDbSymbolTableRecord
100
AcDbLinetypeTableRecord
  2
DASHDOT
 70
    64
  3
 __ . __ . __ . __ . __ . __ . __ . __ . __ . __
 72
    65
 73
     4
 40
10.0
 49
5.0
 74
     0
 49
-2.5
 74
     0
 49
0.0
 74
     0
 49
-2.5
 74
     0
  0
LTYPE
  5
F6
100
AcDbSymbolTableRecord
100
AcDbLinetypeTableRecord
  2
DASHEDX2
 70
    64
  3
____  ____  ____  ____  ____  ____  ____  ____
 72
    65
 73
     2
 40
3.75
 49
2.5
 74
     0
 49
-1.25
 74
     0
  0
LTYPE
  5
F7
100
AcDbSymbolTableRecord
100
AcDbLinetypeTableRecord
  2
CADWORK_22
 70
    64
  3
22 =======================================
 72
    65
 73
     0
 40
0.0
  0
LTYPE
  5
F8
100
AcDbSymbolTableRecord
100
AcDbLinetypeTableRecord
  2
DAL
 70
    64
  3
Solid line (for MAPS)
 72
    65
 73
     0
 40
0.0
  0
LTYPE
  5
F9
100
AcDbSymbolTableRecord
100
AcDbLinetypeTableRecord
  2
MUR
 70
    64
  3
Solid line (for MAPS)
 72
    65
 73
     0
 40
0.0
  0
LTYPE
  5
FA
100
AcDbSymbolTableRecord
100
AcDbLinetypeTableRecord
  2
SOM
 70
    64
  3
Solid line (for MAPS)
 72
    65
 73
     0
 40
0.0
  0
LTYPE
  5
FB
100
AcDbSymbolTableRecord
100
AcDbLinetypeTableRecord
  2
COL
 70
    64
  3
Solid line (for MAPS)
 72
    65
 73
     0
 40
0.0
  0
LTYPE
  5
FC
100
AcDbSymbolTableRecord
100
AcDbLinetypeTableRecord
  2
LGN
 70
    64
  3
Solid line (for MAPS)
 72
    65
 73
     0
 40
0.0
  0
LTYPE
  5
FD
100
AcDbSymbolTableRecord
100
AcDbLinetypeTableRecord
  2
PNT
 70
    64
  3
Solid line (for MAPS)
 72
    65
 73
     0
 40
0.0
  0
ENDTAB
  0
TABLE
  2
LAYER
  5
FE
100
AcDbSymbolTable
 70
    32
  0
LAYER
  5
FF
100
AcDbSymbolTableRecord
100
AcDbLayerTableRecord
  2
Standard
 70
     0
 62
     7
  6
CONTINUOUS
370
    -3
  0
LAYER
  5
100
100
AcDbSymbolTableRecord
100
AcDbLayerTableRecord
  2
Ech.1_1
 70
     0
 62
     7
  6
CONTINUOUS
370
    -3
  0
LAYER
  5
101
100
AcDbSymbolTableRecord
100
AcDbLayerTableRecord
  2
Ech.1_2
 70
     0
 62
     7
  6
CONTINUOUS
370
    -3
  0
LAYER
  5
102
100
AcDbSymbolTableRecord
100
AcDbLayerTableRecord
  2
Ech.1_5
 70
     0
 62
     7
  6
CONTINUOUS
370
    -3
  0
LAYER
  5
103
100
AcDbSymbolTableRecord
100
AcDbLayerTableRecord
  2
Ech.1_10
 70
     0
 62
     7
  6
CONTINUOUS
370
    -3
  0
LAYER
  5
104
100
AcDbSymbolTableRecord
100
AcDbLayerTableRecord
  2
Ech.1_20
 70
     0
 62
     7
  6
CONTINUOUS
370
    -3
  0
LAYER
  5
105
100
AcDbSymbolTableRecord
100
AcDbLayerTableRecord
  2
Ech.1_25
 70
     0
 62
     7
  6
CONTINUOUS
370
    -3
  0
LAYER
  5
106
100
AcDbSymbolTableRecord
100
AcDbLayerTableRecord
  2
Ech.1_33
 70
     0
 62
     7
  6
CONTINUOUS
370
    -3
  0
LAYER
  5
107
100
AcDbSymbolTableRecord
100
AcDbLayerTableRecord
  2
Ech.1_50
 70
     0
 62
     7
  6
CONTINUOUS
370
    -3
  0
LAYER
  5
108
100
AcDbSymbolTableRecord
100
AcDbLayerTableRecord
  2
Ech.1_75
 70
     0
 62
     7
  6
CONTINUOUS
370
    -3
  0
LAYER
  5
109
100
AcDbSymbolTableRecord
100
AcDbLayerTableRecord
  2
Ech.1_100
 70
     0
 62
     7
  6
CONTINUOUS
370
    -3
  0
LAYER
  5
10A
100
AcDbSymbolTableRecord
100
AcDbLayerTableRecord
  2
Ech.1_200
 70
     0
 62
     7
  6
CONTINUOUS
370
    -3
  0
LAYER
  5
10B
100
AcDbSymbolTableRecord
100
AcDbLayerTableRecord
  2
Ech.1_500
 70
     0
 62
     7
  6
CONTINUOUS
370
    -3
  0
LAYER
  5
10C
100
AcDbSymbolTableRecord
100
AcDbLayerTableRecord
  2
Ech.1_1000
 70
     0
 62
     7
  6
CONTINUOUS
370
    -3
  0
LAYER
  5
10D
100
AcDbSymbolTableRecord
100
AcDbLayerTableRecord
  2
Cadres traceur
 70
     0
 62
     7
  6
CONTINUOUS
370
    18
  0
LAYER
  5
10E
100
AcDbSymbolTableRecord
100
AcDbLayerTableRecord
  2
Cadres laser
 70
     0
 62
     7
  6
CONTINUOUS
370
    18
  0
LAYER
  5
10F
100
AcDbSymbolTableRecord
100
AcDbLayerTableRecord
  2
Légende d_aide
 70
     0
 62
     7
  6
CONTINUOUS
370
    18
  0
LAYER
  5
110
100
AcDbSymbolTableRecord
100
AcDbLayerTableRecord
  2
hachures ok
 70
     0
 62
     7
  6
CONTINUOUS
370
    18
  0
LAYER
  5
111
100
AcDbSymbolTableRecord
100
AcDbLayerTableRecord
  2
ossature bois
 70
     0
 62
     7
  6
CONTINUOUS
370
    18
  0
LAYER
  5
112
100
AcDbSymbolTableRecord
100
AcDbLayerTableRecord
  2
VR
 70
     0
 62
     7
  6
CONTINUOUS
370
    25
  0
LAYER
  5
113
100
AcDbSymbolTableRecord
100
AcDbLayerTableRecord
  2
Calque1
 70
     0
 62
     7
  6
CONTINUOUS
370
     9
  0
LAYER
  5
114
100
AcDbSymbolTableRecord
100
AcDbLayerTableRecord
  2
0
 70
     0
 62
     7
  6
CONTINUOUS
370
    -3
  0
LAYER
  5
115
100
AcDbSymbolTableRecord
100
AcDbLayerTableRecord
  2
menuiserie
 70
     0
 62
     7
  6
CONTINUOUS
370
    -3
  0
LAYER
  5
116
100
AcDbSymbolTableRecord
100
AcDbLayerTableRecord
  2
cotation
 70
     0
 62
   250
  6
CONTINUOUS
370
     9
  0
LAYER
  5
117
100
AcDbSymbolTableRecord
100
AcDbLayerTableRecord
  2
Defpoints
 70
     0
 62
    10
  6
CONTINUOUS
370
    -3
  0
LAYER
  5
118
100
AcDbSymbolTableRecord
100
AcDbLayerTableRecord
  2
HACHURE
 70
     0
 62
   254
  6
CONTINUOUS
370
    25
  0
LAYER
  5
119
100
AcDbSymbolTableRecord
100
AcDbLayerTableRecord
  2
mat1
 70
     0
 62
     7
  6
CONTINUOUS
370
    30
  0
LAYER
  5
11A
100
AcDbSymbolTableRecord
100
AcDbLayerTableRecord
  2
mat2
 70
     0
 62
     7
  6
CONTINUOUS
370
     5
  0
LAYER
  5
11B
100
AcDbSymbolTableRecord
100
AcDbLayerTableRecord
  2
hach
 70
     0
 62
     8
  6
CONTINUOUS
370
     5
  0
LAYER
  5
11C
100
AcDbSymbolTableRecord
100
AcDbLayerTableRecord
  2
menuiseries
 70
     0
 62
     7
  6
CONTINUOUS
370
     9
  0
LAYER
  5
11D
100
AcDbSymbolTableRecord
100
AcDbLayerTableRecord
  2
BétonMétal
 70
     0
 62
     7
  6
CONTINUOUS
370
    80
  0
LAYER
  5
11E
100
AcDbSymbolTableRecord
100
AcDbLayerTableRecord
  2
bois
 70
     0
 62
     7
  6
CONTINUOUS
370
    60
  0
ENDTAB
  0
TABLE
  2
VIEW
  5
11F
100
AcDbSymbolTable
 70
     0
  0
ENDTAB
  0
TABLE
  2
UCS
  5
120
100
AcDbSymbolTable
 70
     0
  0
ENDTAB
  0
TABLE
  2
APPID
  5
121
100
AcDbSymbolTable
 70
     1
  0
APPID
  5
122
100
AcDbSymbolTableRecord
100
AcDbRegAppTableRecord
  2
ACAD
 70
     0
  0
ENDTAB
  0
TABLE
  2
DIMSTYLE
  5
123
100
AcDbSymbolTable
 70
     0
  0
ENDTAB
  0
TABLE
  2
BLOCK_RECORD
  5
124
100
AcDbSymbolTable
 70
     0
  0
BLOCK_RECORD
  5
125
100
AcDbSymbolTableRecord
100
AcDbBlockTableRecord
  2
*MODEL_SPACE
  0
BLOCK_RECORD
  5
126
100
AcDbSymbolTableRecord
100
AcDbBlockTableRecord
  2
*PAPER_SPACE
  0
BLOCK_RECORD
  5
127
100
AcDbSymbolTableRecord
100
AcDbBlockTableRecord
  2
CDWK_EXTR_0
  0
BLOCK_RECORD
  5
128
100
AcDbSymbolTableRecord
100
AcDbBlockTableRecord
  2
CDWK_EXTR_1D
  0
BLOCK_RECORD
  5
129
100
AcDbSymbolTableRecord
100
AcDbBlockTableRecord
  2
CDWK_EXTR_1G
  0
BLOCK_RECORD
  5
12A
100
AcDbSymbolTableRecord
100
AcDbBlockTableRecord
  2
CDWK_EXTR_2
  0
BLOCK_RECORD
  5
12B
100
AcDbSymbolTableRecord
100
AcDbBlockTableRecord
  2
CDWK_EXTR_3
  0
BLOCK_RECORD
  5
12C
100
AcDbSymbolTableRecord
100
AcDbBlockTableRecord
  2
CDWK_EXTR_4
  0
BLOCK_RECORD
  5
12D
100
AcDbSymbolTableRecord
100
AcDbBlockTableRecord
  2
CDWK_PTTYP0
  0
BLOCK_RECORD
  5
12E
100
AcDbSymbolTableRecord
100
AcDbBlockTableRecord
  2
CDWK_PTTYP1
  0
BLOCK_RECORD
  5
12F
100
AcDbSymbolTableRecord
100
AcDbBlockTableRecord
  2
CDWK_PTTYP2
  0
BLOCK_RECORD
  5
130
100
AcDbSymbolTableRecord
100
AcDbBlockTableRecord
  2
CDWK_PTTYP3
  0
BLOCK_RECORD
  5
131
100
AcDbSymbolTableRecord
100
AcDbBlockTableRecord
  2
CDWK_PTTYP4
  0
BLOCK_RECORD
  5
132
100
AcDbSymbolTableRecord
100
AcDbBlockTableRecord
  2
CDWK_PTTYP5
  0
BLOCK_RECORD
  5
133
100
AcDbSymbolTableRecord
100
AcDbBlockTableRecord
  2
CDWK_PTTYP6
  0
BLOCK_RECORD
  5
134
100
AcDbSymbolTableRecord
100
AcDbBlockTableRecord
  2
CDWK_PTTYP7
  0
BLOCK_RECORD
  5
135
100
AcDbSymbolTableRecord
100
AcDbBlockTableRecord
  2
CDWK_PTTYP8
  0
BLOCK_RECORD
  5
136
100
AcDbSymbolTableRecord
100
AcDbBlockTableRecord
  2
CDWK_PTTYP9
  0
BLOCK_RECORD
  5
137
100
AcDbSymbolTableRecord
100
AcDbBlockTableRecord
  2
CDWK_PTTYP10
  0
BLOCK_RECORD
  5
138
100
AcDbSymbolTableRecord
100
AcDbBlockTableRecord
  2
CDWK_PTTYP11
  0
BLOCK_RECORD
  5
139
100
AcDbSymbolTableRecord
100
AcDbBlockTableRecord
  2
CDWK_PTTYP12
  0
BLOCK_RECORD
  5
13A
100
AcDbSymbolTableRecord
100
AcDbBlockTableRecord
  2
CDWK_PTTYP13
  0
BLOCK_RECORD
  5
13B
100
AcDbSymbolTableRecord
100
AcDbBlockTableRecord
  2
CDWK_PTTYP14
  0
BLOCK_RECORD
  5
13C
100
AcDbSymbolTableRecord
100
AcDbBlockTableRecord
  2
CDWK_PTTYP15
  0
BLOCK_RECORD
  5
13D
100
AcDbSymbolTableRecord
100
AcDbBlockTableRecord
  2
CDWK_PTTYP16
  0
BLOCK_RECORD
  5
13E
100
AcDbSymbolTableRecord
100
AcDbBlockTableRecord
  2
CDWK_PTTYP17
  0
BLOCK_RECORD
  5
13F
100
AcDbSymbolTableRecord
100
AcDbBlockTableRecord
  2
CDWK_PTTYP18
  0
BLOCK_RECORD
  5
140
100
AcDbSymbolTableRecord
100
AcDbBlockTableRecord
  2
CDWK_PTTYP19
  0
BLOCK_RECORD
  5
141
100
AcDbSymbolTableRecord
100
AcDbBlockTableRecord
  2
CDWK_PTTYP20
  0
BLOCK_RECORD
  5
142
100
AcDbSymbolTableRecord
100
AcDbBlockTableRecord
  2
CDWK_PTTYP21
  0
BLOCK_RECORD
  5
143
100
AcDbSymbolTableRecord
100
AcDbBlockTableRecord
  2
CDWK_PTTYP22
  0
BLOCK_RECORD
  5
144
100
AcDbSymbolTableRecord
100
AcDbBlockTableRecord
  2
CDWK_PTTYP23
  0
BLOCK_RECORD
  5
145
100
AcDbSymbolTableRecord
100
AcDbBlockTableRecord
  2
CDWK_PTTYP24
  0
BLOCK_RECORD
  5
146
100
AcDbSymbolTableRecord
100
AcDbBlockTableRecord
  2
CDWK_PTTYP25
  0
BLOCK_RECORD
  5
147
100
AcDbSymbolTableRecord
100
AcDbBlockTableRecord
  2
CDWK_PTTYP26
  0
BLOCK_RECORD
  5
148
100
AcDbSymbolTableRecord
100
AcDbBlockTableRecord
  2
CDWK_PTTYP27
  0
BLOCK_RECORD
  5
149
100
AcDbSymbolTableRecord
100
AcDbBlockTableRecord
  2
CDWK_PTTYP28
  0
BLOCK_RECORD
  5
14A
100
AcDbSymbolTableRecord
100
AcDbBlockTableRecord
  2
CDWK_PTTYP29
  0
BLOCK_RECORD
  5
14B
100
AcDbSymbolTableRecord
100
AcDbBlockTableRecord
  2
CDWK_PTTYP30
  0
BLOCK_RECORD
  5
14C
100
AcDbSymbolTableRecord
100
AcDbBlockTableRecord
  2
CDWK_PTTYP31
  0
BLOCK_RECORD
  5
14D
100
AcDbSymbolTableRecord
100
AcDbBlockTableRecord
  2
CDWK_PTTYP32
  0
BLOCK_RECORD
  5
14E
100
AcDbSymbolTableRecord
100
AcDbBlockTableRecord
  2
CDWK_PTTYP33
  0
BLOCK_RECORD
  5
14F
100
AcDbSymbolTableRecord
100
AcDbBlockTableRecord
  2
CDWK_PTTYP34
  0
BLOCK_RECORD
  5
150
100
AcDbSymbolTableRecord
100
AcDbBlockTableRecord
  2
CDWK_PTTYP35
  0
BLOCK_RECORD
  5
151
100
AcDbSymbolTableRecord
100
AcDbBlockTableRecord
  2
CDWK_PTTYP36
  0
BLOCK_RECORD
  5
152
100
AcDbSymbolTableRecord
100
AcDbBlockTableRecord
  2
CDWK_PTTYP37
  0
BLOCK_RECORD
  5
153
100
AcDbSymbolTableRecord
100
AcDbBlockTableRecord
  2
CDWK_PTTYP38
  0
BLOCK_RECORD
  5
154
100
AcDbSymbolTableRecord
100
AcDbBlockTableRecord
  2
*X1
  0
BLOCK_RECORD
  5
155
100
AcDbSymbolTableRecord
100
AcDbBlockTableRecord
  2
*X2
  0
BLOCK_RECORD
  5
156
100
AcDbSymbolTableRecord
100
AcDbBlockTableRecord
  2
*X3
  0
BLOCK_RECORD
  5
157
100
AcDbSymbolTableRecord
100
AcDbBlockTableRecord
  2
*X4
  0
BLOCK_RECORD
  5
158
100
AcDbSymbolTableRecord
100
AcDbBlockTableRecord
  2
*X5
  0
BLOCK_RECORD
  5
159
100
AcDbSymbolTableRecord
100
AcDbBlockTableRecord
  2
*X6
  0
ENDTAB
  0
ENDSEC
  0
SECTION
  2
BLOCKS
  0
BLOCK
  5
15A
100
AcDbEntity
  8
0
100
AcDbBlockBegin
  2
*MODEL_SPACE
 70
     0
 10
0.0
 20
0.0
 30
0.0
  3
*MODEL_SPACE
  1

  0
ENDBLK
  5
15B
100
AcDbEntity
100
AcDbBlockEnd
  0
BLOCK
  5
15C
100
AcDbEntity
  8
0
100
AcDbBlockBegin
  2
*PAPER_SPACE
 70
     0
 10
0.0
 20
0.0
 30
0.0
  3
*PAPER_SPACE
  1

  0
ENDBLK
  5
15D
100
AcDbEntity
100
AcDbBlockEnd
  0
BLOCK
  5
15E
100
AcDbEntity
  8
0
100
AcDbBlockBegin
  2
CDWK_EXTR_0
 70
     0
 10
0.0
 20
0.0
 30
0.0
  3
CDWK_EXTR_0
  1

  4
Cadwork line-extremity
  0
LINE
  5
15F
100
AcDbEntity
  8
0
 62
     0
370
    -2
100
AcDbLine
 10
0.0
 20
0.0
 30
0.0
 11
2.0
 21
0.5
 31
0.0
  0
LINE
  5
160
100
AcDbEntity
  8
0
 62
     0
370
    -2
100
AcDbLine
 10
0.0
 20
0.0
 30
0.0
 11
2.0
 21
-0.5
 31
0.0
  0
LINE
  5
161
100
AcDbEntity
  8
0
 62
     0
370
    -2
100
AcDbLine
 10
2.0
 20
0.5
 30
0.0
 11
2.0
 21
-0.5
 31
0.0
  0
ENDBLK
  5
162
100
AcDbEntity
100
AcDbBlockEnd
  0
BLOCK
  5
163
100
AcDbEntity
  8
0
100
AcDbBlockBegin
  2
CDWK_EXTR_1D
 70
     0
 10
0.0
 20
0.0
 30
0.0
  3
CDWK_EXTR_1D
  1

  4
Cadwork line-extremity
  0
LINE
  5
164
100
AcDbEntity
  8
0
 62
     0
370
    -2
100
AcDbLine
 10
0.0
 20
0.0
 30
0.0
 11
0.0
 21
1.0
 31
0.0
  0
LINE
  5
165
100
AcDbEntity
  8
0
 62
     0
370
    -2
100
AcDbLine
 10
0.0
 20
1.0
 30
0.0
 11
0.5
 21
1.5
 31
0.0
  0
LINE
  5
166
100
AcDbEntity
  8
0
 62
     0
370
    -2
100
AcDbLine
 10
0.5
 20
1.5
 30
0.0
 11
1.5
 21
1.5
 31
0.0
  0
ENDBLK
  5
167
100
AcDbEntity
100
AcDbBlockEnd
  0
BLOCK
  5
168
100
AcDbEntity
  8
0
100
AcDbBlockBegin
  2
CDWK_EXTR_1G
 70
     0
 10
0.0
 20
0.0
 30
0.0
  3
CDWK_EXTR_1G
  1

  4
Cadwork line-extremity
  0
LINE
  5
169
100
AcDbEntity
  8
0
 62
     0
370
    -2
100
AcDbLine
 10
0.0
 20
0.0
 30
0.0
 11
0.0
 21
-1.0
 31
0.0
  0
LINE
  5
16A
100
AcDbEntity
  8
0
 62
     0
370
    -2
100
AcDbLine
 10
0.0
 20
-1.0
 30
0.0
 11
0.5
 21
-1.5
 31
0.0
  0
LINE
  5
16B
100
AcDbEntity
  8
0
 62
     0
370
    -2
100
AcDbLine
 10
0.5
 20
-1.5
 30
0.0
 11
1.5
 21
-1.5
 31
0.0
  0
ENDBLK
  5
16C
100
AcDbEntity
100
AcDbBlockEnd
  0
BLOCK
  5
16D
100
AcDbEntity
  8
0
100
AcDbBlockBegin
  2
CDWK_EXTR_2
 70
     0
 10
0.0
 20
0.0
 30
0.0
  3
CDWK_EXTR_2
  1

  4
Cadwork line-extremity
  0
SOLID
  5
16E
100
AcDbEntity
  8
0
 62
     0
100
AcDbTrace
 10
0.0
 20
0.0
 11
2.0
 21
0.5
 12
2.0
 22
-0.5
 13
2.0
 23
-0.5
  0
ENDBLK
  5
16F
100
AcDbEntity
100
AcDbBlockEnd
  0
BLOCK
  5
170
100
AcDbEntity
  8
0
100
AcDbBlockBegin
  2
CDWK_EXTR_3
 70
     0
 10
0.0
 20
0.0
 30
0.0
  3
CDWK_EXTR_3
  1

  4
Cadwork line-extremity
  0
SOLID
  5
171
100
AcDbEntity
  8
0
 62
     0
100
AcDbTrace
 10
0.0
 20
0.0
 11
2.0
 21
0.5
 12
2.0
 22
-0.5
 13
2.0
 23
-0.5
  0
LINE
  5
172
100
AcDbEntity
  8
0
 62
     0
370
    -2
100
AcDbLine
 10
0.0
 20
1.0
 30
0.0
 11
0.0
 21
-1.0
 31
0.0
  0
ENDBLK
  5
173
100
AcDbEntity
100
AcDbBlockEnd
  0
BLOCK
  5
174
100
AcDbEntity
  8
0
100
AcDbBlockBegin
  2
CDWK_EXTR_4
 70
     0
 10
0.0
 20
0.0
 30
0.0
  3
CDWK_EXTR_4
  1

  4
Cadwork line-extremity
  0
HATCH
  5
175
100
AcDbEntity
  8
0
 62
     0
370
    -2
100
AcDbHatch
 10
0.0
 20
0.0
 30
0.0
210
0.0
220
0.0
230
1.0
  2
SOLID
 70
     1
 71
     0
 91
        1
 92
        1
 93
        1
 72
     2
 10
0.0
 20
0.0
 40
0.5
 50
0.0
 51
360.0
 73
     1
 97
        0
 75
     0
 76
     1
 98
        1
 10
0.0
 20
0.0
  0
ENDBLK
  5
176
100
AcDbEntity
100
AcDbBlockEnd
  0
BLOCK
  5
177
100
AcDbEntity
  8
0
100
AcDbBlockBegin
  2
CDWK_PTTYP0
 70
     0
 10
0.0
 20
0.0
 30
0.0
  3
CDWK_PTTYP0
  1

  4
Cadwork point
  0
POINT
  5
178
100
AcDbEntity
  8
0
 62
     0
100
AcDbPoint
 10
0.0
 20
0.0
 30
0.0
  0
ENDBLK
  5
179
100
AcDbEntity
100
AcDbBlockEnd
  0
BLOCK
  5
17A
100
AcDbEntity
  8
0
100
AcDbBlockBegin
  2
CDWK_PTTYP1
 70
     0
 10
0.0
 20
0.0
 30
0.0
  3
CDWK_PTTYP1
  1

  4
Cadwork node
  0
LINE
  5
17B
100
AcDbEntity
  8
0
 62
     0
370
    -2
100
AcDbLine
 10
-0.5
 20
0.5
 30
0.0
 11
0.5
 21
0.5
 31
0.0
  0
LINE
  5
17C
100
AcDbEntity
  8
0
 62
     0
370
    -2
100
AcDbLine
 10
0.5
 20
0.5
 30
0.0
 11
0.5
 21
-0.5
 31
0.0
  0
LINE
  5
17D
100
AcDbEntity
  8
0
 62
     0
370
    -2
100
AcDbLine
 10
0.5
 20
-0.5
 30
0.0
 11
-0.5
 21
-0.5
 31
0.0
  0
LINE
  5
17E
100
AcDbEntity
  8
0
 62
     0
370
    -2
100
AcDbLine
 10
-0.5
 20
-0.5
 30
0.0
 11
-0.5
 21
0.5
 31
0.0
  0
ENDBLK
  5
17F
100
AcDbEntity
100
AcDbBlockEnd
  0
BLOCK
  5
180
100
AcDbEntity
  8
0
100
AcDbBlockBegin
  2
CDWK_PTTYP2
 70
     0
 10
0.0
 20
0.0
 30
0.0
  3
CDWK_PTTYP2
  1

  4
Cadwork node
  0
LINE
  5
181
100
AcDbEntity
  8
0
 62
     0
370
    -2
100
AcDbLine
 10
0.0
 20
0.5
 30
0.0
 11
0.0
 21
-0.5
 31
0.0
  0
LINE
  5
182
100
AcDbEntity
  8
0
 62
     0
370
    -2
100
AcDbLine
 10
-0.5
 20
0.0
 30
0.0
 11
0.5
 21
0.0
 31
0.0
  0
ENDBLK
  5
183
100
AcDbEntity
100
AcDbBlockEnd
  0
BLOCK
  5
184
100
AcDbEntity
  8
0
100
AcDbBlockBegin
  2
CDWK_PTTYP3
 70
     0
 10
0.0
 20
0.0
 30
0.0
  3
CDWK_PTTYP3
  1

  4
Cadwork node
  0
CIRCLE
  5
185
100
AcDbEntity
  8
0
 62
     0
370
    -2
100
AcDbCircle
 10
0.0
 20
0.0
 30
0.0
 40
0.5
  0
ENDBLK
  5
186
100
AcDbEntity
100
AcDbBlockEnd
  0
BLOCK
  5
187
100
AcDbEntity
  8
0
100
AcDbBlockBegin
  2
CDWK_PTTYP4
 70
     0
 10
0.0
 20
0.0
 30
0.0
  3
CDWK_PTTYP4
  1

  4
Cadwork node
  0
HATCH
  5
188
100
AcDbEntity
  8
0
 62
     0
370
    -2
100
AcDbHatch
 10
0.0
 20
0.0
 30
0.0
210
0.0
220
0.0
230
1.0
  2
SOLID
 70
     1
 71
     0
 91
        1
 92
        1
 93
        1
 72
     2
 10
0.0
 20
0.0
 40
0.5
 50
0.0
 51
360.0
 73
     1
 97
        0
 75
     0
 76
     1
 98
        1
 10
0.0
 20
0.0
  0
ENDBLK
  5
189
100
AcDbEntity
100
AcDbBlockEnd
  0
BLOCK
  5
18A
100
AcDbEntity
  8
0
100
AcDbBlockBegin
  2
CDWK_PTTYP5
 70
     0
 10
0.0
 20
0.0
 30
0.0
  3
CDWK_PTTYP5
  1

  4
Cadwork node
  0
LINE
  5
18B
100
AcDbEntity
  8
0
 62
     0
370
    -2
100
AcDbLine
 10
-0.5
 20
0.5
 30
0.0
 11
0.5
 21
0.5
 31
0.0
  0
LINE
  5
18C
100
AcDbEntity
  8
0
 62
     0
370
    -2
100
AcDbLine
 10
0.5
 20
0.5
 30
0.0
 11
0.5
 21
-0.5
 31
0.0
  0
LINE
  5
18D
100
AcDbEntity
  8
0
 62
     0
370
    -2
100
AcDbLine
 10
0.5
 20
-0.5
 30
0.0
 11
-0.5
 21
-0.5
 31
0.0
  0
LINE
  5
18E
100
AcDbEntity
  8
0
 62
     0
370
    -2
100
AcDbLine
 10
-0.5
 20
-0.5
 30
0.0
 11
-0.5
 21
0.5
 31
0.0
  0
SOLID
  5
18F
100
AcDbEntity
  8
0
 62
     0
100
AcDbTrace
 10
-0.5
 20
-0.5
 11
-0.5
 21
0.0
 12
0.0
 22
-0.5
 13
0.0
 23
0.0
  0
SOLID
  5
190
100
AcDbEntity
  8
0
 62
     0
100
AcDbTrace
 10
0.0
 20
0.0
 11
0.0
 21
0.5
 12
0.5
 22
0.0
 13
0.5
 23
0.5
  0
ENDBLK
  5
191
100
AcDbEntity
100
AcDbBlockEnd
  0
BLOCK
  5
192
100
AcDbEntity
  8
0
100
AcDbBlockBegin
  2
CDWK_PTTYP6
 70
     0
 10
0.0
 20
0.0
 30
0.0
  3
CDWK_PTTYP6
  1

  4
Cadwork node
  0
LINE
  5
193
100
AcDbEntity
  8
0
 62
     0
370
    -2
100
AcDbLine
 10
-0.5
 20
0.5
 30
0.0
 11
0.5
 21
0.5
 31
0.0
  0
LINE
  5
194
100
AcDbEntity
  8
0
 62
     0
370
    -2
100
AcDbLine
 10
0.5
 20
0.5
 30
0.0
 11
0.5
 21
-0.5
 31
0.0
  0
LINE
  5
195
100
AcDbEntity
  8
0
 62
     0
370
    -2
100
AcDbLine
 10
0.5
 20
-0.5
 30
0.0
 11
-0.5
 21
-0.5
 31
0.0
  0
LINE
  5
196
100
AcDbEntity
  8
0
 62
     0
370
    -2
100
AcDbLine
 10
-0.5
 20
-0.5
 30
0.0
 11
-0.5
 21
0.5
 31
0.0
  0
SOLID
  5
197
100
AcDbEntity
  8
0
 62
     0
100
AcDbTrace
 10
-0.5
 20
-0.5
 11
-0.5
 21
0.5
 12
0.5
 22
0.5
 13
0.5
 23
0.5
  0
ENDBLK
  5
198
100
AcDbEntity
100
AcDbBlockEnd
  0
BLOCK
  5
199
100
AcDbEntity
  8
0
100
AcDbBlockBegin
  2
CDWK_PTTYP7
 70
     0
 10
0.0
 20
0.0
 30
0.0
  3
CDWK_PTTYP7
  1

  4
Cadwork node
  0
LINE
  5
19A
100
AcDbEntity
  8
0
 62
     0
370
    -2
100
AcDbLine
 10
-0.5
 20
0.5
 30
0.0
 11
0.5
 21
0.5
 31
0.0
  0
LINE
  5
19B
100
AcDbEntity
  8
0
 62
     0
370
    -2
100
AcDbLine
 10
0.5
 20
0.5
 30
0.0
 11
0.5
 21
-0.5
 31
0.0
  0
LINE
  5
19C
100
AcDbEntity
  8
0
 62
     0
370
    -2
100
AcDbLine
 10
0.5
 20
-0.5
 30
0.0
 11
-0.5
 21
-0.5
 31
0.0
  0
LINE
  5
19D
100
AcDbEntity
  8
0
 62
     0
370
    -2
100
AcDbLine
 10
-0.5
 20
-0.5
 30
0.0
 11
-0.5
 21
0.5
 31
0.0
  0
LINE
  5
19E
100
AcDbEntity
  8
0
 62
     0
370
    -2
100
AcDbLine
 10
0.0
 20
0.5
 30
0.0
 11
0.0
 21
-0.5
 31
0.0
  0
LINE
  5
19F
100
AcDbEntity
  8
0
 62
     0
370
    -2
100
AcDbLine
 10
-0.5
 20
0.0
 30
0.0
 11
0.5
 21
0.0
 31
0.0
  0
ENDBLK
  5
1A0
100
AcDbEntity
100
AcDbBlockEnd
  0
BLOCK
  5
1A1
100
AcDbEntity
  8
0
100
AcDbBlockBegin
  2
CDWK_PTTYP8
 70
     0
 10
0.0
 20
0.0
 30
0.0
  3
CDWK_PTTYP8
  1

  4
Cadwork node
  0
SOLID
  5
1A2
100
AcDbEntity
  8
0
 62
     0
100
AcDbTrace
 10
-0.5
 20
0.5
 11
0.5
 21
0.5
 12
-0.5
 22
-0.5
 13
0.5
 23
-0.5
  0
ENDBLK
  5
1A3
100
AcDbEntity
100
AcDbBlockEnd
  0
BLOCK
  5
1A4
100
AcDbEntity
  8
0
100
AcDbBlockBegin
  2
CDWK_PTTYP9
 70
     0
 10
0.0
 20
0.0
 30
0.0
  3
CDWK_PTTYP9
  1

  4
Cadwork node
  0
CIRCLE
  5
1A5
100
AcDbEntity
  8
0
 62
     0
370
    -2
100
AcDbCircle
 10
0.0
 20
0.0
 30
0.0
 40
0.5
  0
CIRCLE
  5
1A6
100
AcDbEntity
  8
0
 62
     0
370
    -2
100
AcDbCircle
 10
0.0
 20
0.0
 30
0.0
 40
0.16666667
  0
ENDBLK
  5
1A7
100
AcDbEntity
100
AcDbBlockEnd
  0
BLOCK
  5
1A8
100
AcDbEntity
  8
0
100
AcDbBlockBegin
  2
CDWK_PTTYP10
 70
     0
 10
0.0
 20
0.0
 30
0.0
  3
CDWK_PTTYP10
  1

  4
Cadwork node
  0
CIRCLE
  5
1A9
100
AcDbEntity
  8
0
 62
     0
370
    -2
100
AcDbCircle
 10
0.0
 20
0.0
 30
0.0
 40
0.5
  0
ENDBLK
  5
1AA
100
AcDbEntity
100
AcDbBlockEnd
  0
BLOCK
  5
1AB
100
AcDbEntity
  8
0
100
AcDbBlockBegin
  2
CDWK_PTTYP11
 70
     0
 10
0.0
 20
0.0
 30
0.0
  3
CDWK_PTTYP11
  1

  4
Cadwork node
  0
CIRCLE
  5
1AC
100
AcDbEntity
  8
0
 62
     0
370
    -2
100
AcDbCircle
 10
0.0
 20
0.0
 30
0.0
 40
0.5
  0
CIRCLE
  5
1AD
100
AcDbEntity
  8
0
 62
     0
370
    -2
100
AcDbCircle
 10
0.0
 20
0.0
 30
0.0
 40
0.25
  0
ENDBLK
  5
1AE
100
AcDbEntity
100
AcDbBlockEnd
  0
BLOCK
  5
1AF
100
AcDbEntity
  8
0
100
AcDbBlockBegin
  2
CDWK_PTTYP12
 70
     0
 10
0.0
 20
0.0
 30
0.0
  3
CDWK_PTTYP12
  1

  4
Cadwork node
  0
CIRCLE
  5
1B0
100
AcDbEntity
  8
0
 62
     0
370
    -2
100
AcDbCircle
 10
0.0
 20
0.0
 30
0.0
 40
0.5
  0
CIRCLE
  5
1B1
100
AcDbEntity
  8
0
 62
     0
370
    -2
100
AcDbCircle
 10
0.25
 20
0.0
 30
0.0
 40
0.25
  0
ENDBLK
  5
1B2
100
AcDbEntity
100
AcDbBlockEnd
  0
BLOCK
  5
1B3
100
AcDbEntity
  8
0
100
AcDbBlockBegin
  2
CDWK_PTTYP13
 70
     0
 10
0.0
 20
0.0
 30
0.0
  3
CDWK_PTTYP13
  1

  4
Cadwork node
  0
CIRCLE
  5
1B4
100
AcDbEntity
  8
0
 62
     0
370
    -2
100
AcDbCircle
 10
0.0
 20
0.0
 30
0.0
 40
0.5
  0
CIRCLE
  5
1B5
100
AcDbEntity
  8
0
 62
     0
370
    -2
100
AcDbCircle
 10
0.25
 20
0.0
 30
0.0
 40
0.25
  0
CIRCLE
  5
1B6
100
AcDbEntity
  8
0
 62
     0
370
    -2
100
AcDbCircle
 10
-0.25
 20
0.0
 30
0.0
 40
0.25
  0
ENDBLK
  5
1B7
100
AcDbEntity
100
AcDbBlockEnd
  0
BLOCK
  5
1B8
100
AcDbEntity
  8
0
100
AcDbBlockBegin
  2
CDWK_PTTYP14
 70
     0
 10
0.0
 20
0.0
 30
0.0
  3
CDWK_PTTYP14
  1

  4
Cadwork node
  0
POINT
  5
1B9
100
AcDbEntity
  8
0
 62
     0
100
AcDbPoint
 10
0.0
 20
0.0
 30
0.0
  0
ENDBLK
  5
1BA
100
AcDbEntity
100
AcDbBlockEnd
  0
BLOCK
  5
1BB
100
AcDbEntity
  8
0
100
AcDbBlockBegin
  2
CDWK_PTTYP15
 70
     0
 10
0.0
 20
0.0
 30
0.0
  3
CDWK_PTTYP15
  1

  4
Cadwork node
  0
POINT
  5
1BC
100
AcDbEntity
  8
0
 62
     0
100
AcDbPoint
 10
0.0
 20
0.0
 30
0.0
  0
ENDBLK
  5
1BD
100
AcDbEntity
100
AcDbBlockEnd
  0
BLOCK
  5
1BE
100
AcDbEntity
  8
0
100
AcDbBlockBegin
  2
CDWK_PTTYP16
 70
     0
 10
0.0
 20
0.0
 30
0.0
  3
CDWK_PTTYP16
  1

  4
Cadwork node
  0
LINE
  5
1BF
100
AcDbEntity
  8
0
 62
     0
370
    -2
100
AcDbLine
 10
-0.5
 20
-0.28867513
 30
0.0
 11
0.5
 21
-0.28867513
 31
0.0
  0
LINE
  5
1C0
100
AcDbEntity
  8
0
 62
     0
370
    -2
100
AcDbLine
 10
0.5
 20
-0.28867513
 30
0.0
 11
0.0
 21
0.57735027
 31
0.0
  0
LINE
  5
1C1
100
AcDbEntity
  8
0
 62
     0
370
    -2
100
AcDbLine
 10
0.0
 20
0.57735027
 30
0.0
 11
-0.5
 21
-0.28867513
 31
0.0
  0
CIRCLE
  5
1C2
100
AcDbEntity
  8
0
 62
     0
370
    -2
100
AcDbCircle
 10
0.0
 20
0.0
 30
0.0
 40
0.28867513
  0
ENDBLK
  5
1C3
100
AcDbEntity
100
AcDbBlockEnd
  0
BLOCK
  5
1C4
100
AcDbEntity
  8
0
100
AcDbBlockBegin
  2
CDWK_PTTYP17
 70
     0
 10
0.0
 20
0.0
 30
0.0
  3
CDWK_PTTYP17
  1

  4
Cadwork node
  0
CIRCLE
  5
1C5
100
AcDbEntity
  8
0
 62
     0
370
    -2
100
AcDbCircle
 10
0.0
 20
0.0
 30
0.0
 40
0.5
  0
HATCH
  5
1C6
100
AcDbEntity
  8
0
 62
     0
370
    -2
100
AcDbHatch
 10
0.0
 20
0.0
 30
0.0
210
0.0
220
0.0
230
1.0
  2
SOLID
 70
     1
 71
     0
 91
        1
 92
        1
 93
        1
 72
     2
 10
0.0
 20
0.0
 40
0.25
 50
0.0
 51
360.0
 73
     1
 97
        0
 75
     0
 76
     1
 98
        1
 10
0.0
 20
0.0
  0
ENDBLK
  5
1C7
100
AcDbEntity
100
AcDbBlockEnd
  0
BLOCK
  5
1C8
100
AcDbEntity
  8
0
100
AcDbBlockBegin
  2
CDWK_PTTYP18
 70
     0
 10
0.0
 20
0.0
 30
0.0
  3
CDWK_PTTYP18
  1

  4
Cadwork node
  0
CIRCLE
  5
1C9
100
AcDbEntity
  8
0
 62
     0
370
    -2
100
AcDbCircle
 10
0.0
 20
0.0
 30
0.0
 40
0.5
  0
CIRCLE
  5
1CA
100
AcDbEntity
  8
0
 62
     0
370
    -2
100
AcDbCircle
 10
0.0
 20
0.0
 30
0.0
 40
0.2
  0
ENDBLK
  5
1CB
100
AcDbEntity
100
AcDbBlockEnd
  0
BLOCK
  5
1CC
100
AcDbEntity
  8
0
100
AcDbBlockBegin
  2
CDWK_PTTYP19
 70
     0
 10
0.0
 20
0.0
 30
0.0
  3
CDWK_PTTYP19
  1

  4
Cadwork node
  0
CIRCLE
  5
1CD
100
AcDbEntity
  8
0
 62
     0
370
    -2
100
AcDbCircle
 10
0.0
 20
0.0
 30
0.0
 40
0.4
  0
CIRCLE
  5
1CE
100
AcDbEntity
  8
0
 62
     0
370
    -2
100
AcDbCircle
 10
0.0
 20
0.0
 30
0.0
 40
0.25
  0
LINE
  5
1CF
100
AcDbEntity
  8
0
 62
     0
370
    -2
100
AcDbLine
 10
-0.25
 20
0.0
 30
0.0
 11
0.25
 21
0.0
 31
0.0
  0
ENDBLK
  5
1D0
100
AcDbEntity
100
AcDbBlockEnd
  0
BLOCK
  5
1D1
100
AcDbEntity
  8
0
100
AcDbBlockBegin
  2
CDWK_PTTYP20
 70
     0
 10
0.0
 20
0.0
 30
0.0
  3
CDWK_PTTYP20
  1

  4
Cadwork node
  0
CIRCLE
  5
1D2
100
AcDbEntity
  8
0
 62
     0
370
    -2
100
AcDbCircle
 10
0.0
 20
0.0
 30
0.0
 40
0.5
  0
CIRCLE
  5
1D3
100
AcDbEntity
  8
0
 62
     0
370
    -2
100
AcDbCircle
 10
0.0
 20
0.0
 30
0.0
 40
0.3
  0
ENDBLK
  5
1D4
100
AcDbEntity
100
AcDbBlockEnd
  0
BLOCK
  5
1D5
100
AcDbEntity
  8
0
100
AcDbBlockBegin
  2
CDWK_PTTYP21
 70
     0
 10
0.0
 20
0.0
 30
0.0
  3
CDWK_PTTYP21
  1

  4
Cadwork node
  0
CIRCLE
  5
1D6
100
AcDbEntity
  8
0
 62
     0
370
    -2
100
AcDbCircle
 10
0.0
 20
0.0
 30
0.0
 40
0.5
  0
LINE
  5
1D7
100
AcDbEntity
  8
0
 62
     0
370
    -2
100
AcDbLine
 10
-0.5
 20
0.0
 30
0.0
 11
0.5
 21
0.0
 31
0.0
  0
ENDBLK
  5
1D8
100
AcDbEntity
100
AcDbBlockEnd
  0
BLOCK
  5
1D9
100
AcDbEntity
  8
0
100
AcDbBlockBegin
  2
CDWK_PTTYP22
 70
     0
 10
0.0
 20
0.0
 30
0.0
  3
CDWK_PTTYP22
  1

  4
Cadwork node
  0
POINT
  5
1DA
100
AcDbEntity
  8
0
 62
     0
100
AcDbPoint
 10
0.0
 20
0.0
 30
0.0
  0
ENDBLK
  5
1DB
100
AcDbEntity
100
AcDbBlockEnd
  0
BLOCK
  5
1DC
100
AcDbEntity
  8
0
100
AcDbBlockBegin
  2
CDWK_PTTYP23
 70
     0
 10
0.0
 20
0.0
 30
0.0
  3
CDWK_PTTYP23
  1

  4
Cadwork node
  0
POINT
  5
1DD
100
AcDbEntity
  8
0
 62
     0
100
AcDbPoint
 10
0.0
 20
0.0
 30
0.0
  0
ENDBLK
  5
1DE
100
AcDbEntity
100
AcDbBlockEnd
  0
BLOCK
  5
1DF
100
AcDbEntity
  8
0
100
AcDbBlockBegin
  2
CDWK_PTTYP24
 70
     0
 10
0.0
 20
0.0
 30
0.0
  3
CDWK_PTTYP24
  1

  4
Cadwork node
  0
POINT
  5
1E0
100
AcDbEntity
  8
0
 62
     0
100
AcDbPoint
 10
0.0
 20
0.0
 30
0.0
  0
ENDBLK
  5
1E1
100
AcDbEntity
100
AcDbBlockEnd
  0
BLOCK
  5
1E2
100
AcDbEntity
  8
0
100
AcDbBlockBegin
  2
CDWK_PTTYP25
 70
     0
 10
0.0
 20
0.0
 30
0.0
  3
CDWK_PTTYP25
  1

  4
Cadwork node
  0
LINE
  5
1E3
100
AcDbEntity
  8
0
 62
     0
370
    -2
100
AcDbLine
 10
-0.43290044
 20
-0.25
 30
0.0
 11
0.43290044
 21
-0.25
 31
0.0
  0
LINE
  5
1E4
100
AcDbEntity
  8
0
 62
     0
370
    -2
100
AcDbLine
 10
-0.43290044
 20
-0.25
 30
0.0
 11
0.0
 21
0.5
 31
0.0
  0
LINE
  5
1E5
100
AcDbEntity
  8
0
 62
     0
370
    -2
100
AcDbLine
 10
0.43290044
 20
-0.25
 30
0.0
 11
0.0
 21
0.5
 31
0.0
  0
CIRCLE
  5
1E6
100
AcDbEntity
  8
0
 62
     0
370
    -2
100
AcDbCircle
 10
0.0
 20
0.0
 30
0.0
 40
0.5
  0
ENDBLK
  5
1E7
100
AcDbEntity
100
AcDbBlockEnd
  0
BLOCK
  5
1E8
100
AcDbEntity
  8
0
100
AcDbBlockBegin
  2
CDWK_PTTYP26
 70
     0
 10
0.0
 20
0.0
 30
0.0
  3
CDWK_PTTYP26
  1

  4
Cadwork node
  0
LINE
  5
1E9
100
AcDbEntity
  8
0
 62
     0
370
    -2
100
AcDbLine
 10
-0.5
 20
-0.28850001
 30
0.0
 11
0.5
 21
-0.28850001
 31
0.0
  0
LINE
  5
1EA
100
AcDbEntity
  8
0
 62
     0
370
    -2
100
AcDbLine
 10
-0.5
 20
-0.28850001
 30
0.0
 11
0.0
 21
0.57736721
 31
0.0
  0
LINE
  5
1EB
100
AcDbEntity
  8
0
 62
     0
370
    -2
100
AcDbLine
 10
0.5
 20
-0.28850001
 30
0.0
 11
0.0
 21
0.57736721
 31
0.0
  0
CIRCLE
  5
1EC
100
AcDbEntity
  8
0
 62
     0
370
    -2
100
AcDbCircle
 10
0.0
 20
0.0
 30
0.0
 40
0.1312336
  0
ENDBLK
  5
1ED
100
AcDbEntity
100
AcDbBlockEnd
  0
BLOCK
  5
1EE
100
AcDbEntity
  8
0
100
AcDbBlockBegin
  2
CDWK_PTTYP27
 70
     0
 10
0.0
 20
0.0
 30
0.0
  3
CDWK_PTTYP27
  1

  4
Cadwork node
  0
LINE
  5
1EF
100
AcDbEntity
  8
0
 62
     0
370
    -2
100
AcDbLine
 10
-0.43290044
 20
-0.25
 30
0.0
 11
0.43290044
 21
-0.25
 31
0.0
  0
LINE
  5
1F0
100
AcDbEntity
  8
0
 62
     0
370
    -2
100
AcDbLine
 10
-0.43290044
 20
-0.25
 30
0.0
 11
0.0
 21
0.5
 31
0.0
  0
LINE
  5
1F1
100
AcDbEntity
  8
0
 62
     0
370
    -2
100
AcDbLine
 10
0.43290044
 20
-0.25
 30
0.0
 11
0.0
 21
0.5
 31
0.0
  0
CIRCLE
  5
1F2
100
AcDbEntity
  8
0
 62
     0
370
    -2
100
AcDbCircle
 10
0.0
 20
0.0
 30
0.0
 40
0.5
  0
CIRCLE
  5
1F3
100
AcDbEntity
  8
0
 62
     0
370
    -2
100
AcDbCircle
 10
0.0
 20
0.0
 30
0.0
 40
0.1312336
  0
ENDBLK
  5
1F4
100
AcDbEntity
100
AcDbBlockEnd
  0
BLOCK
  5
1F5
100
AcDbEntity
  8
0
100
AcDbBlockBegin
  2
CDWK_PTTYP28
 70
     0
 10
0.0
 20
0.0
 30
0.0
  3
CDWK_PTTYP28
  1

  4
Cadwork node
  0
POINT
  5
1F6
100
AcDbEntity
  8
0
 62
     0
100
AcDbPoint
 10
0.0
 20
0.0
 30
0.0
  0
ENDBLK
  5
1F7
100
AcDbEntity
100
AcDbBlockEnd
  0
BLOCK
  5
1F8
100
AcDbEntity
  8
0
100
AcDbBlockBegin
  2
CDWK_PTTYP29
 70
     0
 10
0.0
 20
0.0
 30
0.0
  3
CDWK_PTTYP29
  1

  4
Cadwork node
  0
CIRCLE
  5
1F9
100
AcDbEntity
  8
0
 62
     0
370
    -2
100
AcDbCircle
 10
0.0
 20
0.0
 30
0.0
 40
0.5
  0
CIRCLE
  5
1FA
100
AcDbEntity
  8
0
 62
     0
370
    -2
100
AcDbCircle
 10
0.0
 20
0.0
 30
0.0
 40
0.375
  0
CIRCLE
  5
1FB
100
AcDbEntity
  8
0
 62
     0
370
    -2
100
AcDbCircle
 10
0.0
 20
0.0
 30
0.0
 40
0.21875
  0
ENDBLK
  5
1FC
100
AcDbEntity
100
AcDbBlockEnd
  0
BLOCK
  5
1FD
100
AcDbEntity
  8
0
100
AcDbBlockBegin
  2
CDWK_PTTYP30
 70
     0
 10
0.0
 20
0.0
 30
0.0
  3
CDWK_PTTYP30
  1

  4
Cadwork node
  0
LINE
  5
1FE
100
AcDbEntity
  8
0
 62
     0
370
    -2
100
AcDbLine
 10
0.17680339
 20
0.17680339
 30
0.0
 11
0.5
 21
0.5
 31
0.0
  0
LINE
  5
1FF
100
AcDbEntity
  8
0
 62
     0
370
    -2
100
AcDbLine
 10
-0.17680339
 20
0.17680339
 30
0.0
 11
-0.5
 21
0.5
 31
0.0
  0
LINE
  5
200
100
AcDbEntity
  8
0
 62
     0
370
    -2
100
AcDbLine
 10
0.17680339
 20
-0.17680339
 30
0.0
 11
0.5
 21
-0.5
 31
0.0
  0
LINE
  5
201
100
AcDbEntity
  8
0
 62
     0
370
    -2
100
AcDbLine
 10
-0.17680339
 20
-0.17680339
 30
0.0
 11
-0.5
 21
-0.5
 31
0.0
  0
ENDBLK
  5
202
100
AcDbEntity
100
AcDbBlockEnd
  0
BLOCK
  5
203
100
AcDbEntity
  8
0
100
AcDbBlockBegin
  2
CDWK_PTTYP31
 70
     0
 10
0.0
 20
0.0
 30
0.0
  3
CDWK_PTTYP31
  1

  4
Cadwork node
  0
CIRCLE
  5
204
100
AcDbEntity
  8
0
 62
     0
370
    -2
100
AcDbCircle
 10
0.0
 20
0.0
 30
0.0
 40
0.075
  0
LINE
  5
205
100
AcDbEntity
  8
0
 62
     0
370
    -2
100
AcDbLine
 10
0.075
 20
0.0
 30
0.0
 11
0.5
 21
0.0
 31
0.0
  0
LINE
  5
206
100
AcDbEntity
  8
0
 62
     0
370
    -2
100
AcDbLine
 10
-0.075
 20
0.0
 30
0.0
 11
-0.5
 21
0.0
 31
0.0
  0
LINE
  5
207
100
AcDbEntity
  8
0
 62
     0
370
    -2
100
AcDbLine
 10
0.0
 20
0.075
 30
0.0
 11
0.0
 21
0.5
 31
0.0
  0
LINE
  5
208
100
AcDbEntity
  8
0
 62
     0
370
    -2
100
AcDbLine
 10
0.0
 20
-0.075
 30
0.0
 11
0.0
 21
-0.5
 31
0.0
  0
ENDBLK
  5
209
100
AcDbEntity
100
AcDbBlockEnd
  0
BLOCK
  5
20A
100
AcDbEntity
  8
0
100
AcDbBlockBegin
  2
CDWK_PTTYP32
 70
     0
 10
0.0
 20
0.0
 30
0.0
  3
CDWK_PTTYP32
  1

  4
Cadwork node
  0
CIRCLE
  5
20B
100
AcDbEntity
  8
0
 62
     0
370
    -2
100
AcDbCircle
 10
0.0
 20
0.0
 30
0.0
 40
0.5
  0
CIRCLE
  5
20C
100
AcDbEntity
  8
0
 62
     0
370
    -2
100
AcDbCircle
 10
0.0
 20
0.0
 30
0.0
 40
0.16666667
  0
LINE
  5
20D
100
AcDbEntity
  8
0
 62
     0
370
    -2
100
AcDbLine
 10
0.11786893
 20
0.11786893
 30
0.0
 11
0.35360678
 21
0.35360678
 31
0.0
  0
LINE
  5
20E
100
AcDbEntity
  8
0
 62
     0
370
    -2
100
AcDbLine
 10
-0.11786893
 20
0.11786893
 30
0.0
 11
-0.35360678
 21
0.35360678
 31
0.0
  0
LINE
  5
20F
100
AcDbEntity
  8
0
 62
     0
370
    -2
100
AcDbLine
 10
0.11786893
 20
-0.11786893
 30
0.0
 11
0.35360678
 21
-0.35360678
 31
0.0
  0
LINE
  5
210
100
AcDbEntity
  8
0
 62
     0
370
    -2
100
AcDbLine
 10
-0.11786893
 20
-0.11786893
 30
0.0
 11
-0.35360678
 21
-0.35360678
 31
0.0
  0
ENDBLK
  5
211
100
AcDbEntity
100
AcDbBlockEnd
  0
BLOCK
  5
212
100
AcDbEntity
  8
0
100
AcDbBlockBegin
  2
CDWK_PTTYP33
 70
     0
 10
0.0
 20
0.0
 30
0.0
  3
CDWK_PTTYP33
  1

  4
Cadwork node
  0
CIRCLE
  5
213
100
AcDbEntity
  8
0
 62
     0
370
    -2
100
AcDbCircle
 10
0.0
 20
0.0
 30
0.0
 40
0.5
  0
LINE
  5
214
100
AcDbEntity
  8
0
 62
     0
370
    -2
100
AcDbLine
 10
0.0
 20
0.5
 30
0.0
 11
0.0
 21
-0.5
 31
0.0
  0
LINE
  5
215
100
AcDbEntity
  8
0
 62
     0
370
    -2
100
AcDbLine
 10
-0.5
 20
0.0
 30
0.0
 11
0.5
 21
0.0
 31
0.0
  0
ENDBLK
  5
216
100
AcDbEntity
100
AcDbBlockEnd
  0
BLOCK
  5
217
100
AcDbEntity
  8
0
100
AcDbBlockBegin
  2
CDWK_PTTYP34
 70
     0
 10
0.0
 20
0.0
 30
0.0
  3
CDWK_PTTYP34
  1

  4
Cadwork node
  0
CIRCLE
  5
218
100
AcDbEntity
  8
0
 62
     0
370
    -2
100
AcDbCircle
 10
0.0
 20
0.0
 30
0.0
 40
0.5
  0
LINE
  5
219
100
AcDbEntity
  8
0
 62
     0
370
    -2
100
AcDbLine
 10
-0.30360678
 20
-0.40360678
 30
0.0
 11
0.40360678
 21
0.30360678
 31
0.0
  0
LINE
  5
21A
100
AcDbEntity
  8
0
 62
     0
370
    -2
100
AcDbLine
 10
-0.40360678
 20
-0.30360678
 30
0.0
 11
0.30360678
 21
0.40360678
 31
0.0
  0
ENDBLK
  5
21B
100
AcDbEntity
100
AcDbBlockEnd
  0
BLOCK
  5
21C
100
AcDbEntity
  8
0
100
AcDbBlockBegin
  2
CDWK_PTTYP35
 70
     0
 10
0.0
 20
0.0
 30
0.0
  3
CDWK_PTTYP35
  1

  4
Cadwork node
  0
CIRCLE
  5
21D
100
AcDbEntity
  8
0
 62
     0
370
    -2
100
AcDbCircle
 10
0.0
 20
0.0
 30
0.0
 40
0.21431634
  0
LINE
  5
21E
100
AcDbEntity
  8
0
 62
     0
370
    -2
100
AcDbLine
 10
0.0
 20
0.21431634
 30
0.0
 11
0.0
 21
0.5
 31
0.0
  0
LINE
  5
21F
100
AcDbEntity
  8
0
 62
     0
370
    -2
100
AcDbLine
 10
0.0
 20
-0.21431634
 30
0.0
 11
0.0
 21
-0.5
 31
0.0
  0
ENDBLK
  5
220
100
AcDbEntity
100
AcDbBlockEnd
  0
BLOCK
  5
221
100
AcDbEntity
  8
0
100
AcDbBlockBegin
  2
CDWK_PTTYP36
 70
     0
 10
0.0
 20
0.0
 30
0.0
  3
CDWK_PTTYP36
  1

  4
Cadwork node
  0
LINE
  5
222
100
AcDbEntity
  8
0
 62
     0
370
    -2
100
AcDbLine
 10
-0.5
 20
-0.16666667
 30
0.0
 11
0.5
 21
-0.16666667
 31
0.0
  0
LINE
  5
223
100
AcDbEntity
  8
0
 62
     0
370
    -2
100
AcDbLine
 10
0.5
 20
-0.16666667
 30
0.0
 11
0.5
 21
0.16666667
 31
0.0
  0
LINE
  5
224
100
AcDbEntity
  8
0
 62
     0
370
    -2
100
AcDbLine
 10
0.5
 20
0.16666667
 30
0.0
 11
-0.5
 21
0.16666667
 31
0.0
  0
LINE
  5
225
100
AcDbEntity
  8
0
 62
     0
370
    -2
100
AcDbLine
 10
-0.5
 20
0.16666667
 30
0.0
 11
-0.5
 21
-0.16666667
 31
0.0
  0
SOLID
  5
226
100
AcDbEntity
  8
0
 62
     0
100
AcDbTrace
 10
-0.5
 20
-0.16666667
 11
0.5
 21
0.16666667
 12
0.5
 22
-0.16666667
 13
0.5
 23
-0.16666667
  0
ENDBLK
  5
227
100
AcDbEntity
100
AcDbBlockEnd
  0
BLOCK
  5
228
100
AcDbEntity
  8
0
100
AcDbBlockBegin
  2
CDWK_PTTYP37
 70
     0
 10
0.0
 20
0.0
 30
0.0
  3
CDWK_PTTYP37
  1

  4
Cadwork node
  0
CIRCLE
  5
229
100
AcDbEntity
  8
0
 62
     0
370
    -2
100
AcDbCircle
 10
0.0
 20
0.0
 30
0.0
 40
0.5
  0
SOLID
  5
22A
100
AcDbEntity
  8
0
 62
     0
100
AcDbTrace
 10
0.0
 20
0.0
 11
0.35350001
 21
0.35350001
 12
0.5
 22
0.0
 13
0.46200001
 23
0.19149999
  0
SOLID
  5
22B
100
AcDbEntity
  8
0
 62
     0
100
AcDbTrace
 10
0.0
 20
0.0
 11
0.35350001
 21
-0.35350001
 12
0.5
 22
0.0
 13
0.46200001
 23
-0.19149999
  0
SOLID
  5
22C
100
AcDbEntity
  8
0
 62
     0
100
AcDbTrace
 10
0.0
 20
0.0
 11
0.0
 21
-0.5
 12
0.35350001
 22
-0.35350001
 13
0.19149999
 23
-0.46200001
  0
SOLID
  5
22D
100
AcDbEntity
  8
0
 62
     0
100
AcDbTrace
 10
0.0
 20
0.0
 11
0.0
 21
-0.5
 12
-0.35350001
 22
-0.35350001
 13
-0.19149999
 23
-0.46200001
  0
ENDBLK
  5
22E
100
AcDbEntity
100
AcDbBlockEnd
  0
BLOCK
  5
22F
100
AcDbEntity
  8
0
100
AcDbBlockBegin
  2
CDWK_PTTYP38
 70
     0
 10
0.0
 20
0.0
 30
0.0
  3
CDWK_PTTYP38
  1

  4
Cadwork node
  0
CIRCLE
  5
230
100
AcDbEntity
  8
0
 62
     0
370
    -2
100
AcDbCircle
 10
0.0
 20
0.0
 30
0.0
 40
0.5
  0
SOLID
  5
231
100
AcDbEntity
  8
0
 62
     0
100
AcDbTrace
 10
0.0
 20
0.0
 11
0.35350001
 21
0.35350001
 12
0.0
 22
0.5
 13
0.19149999
 23
0.46200001
  0
SOLID
  5
232
100
AcDbEntity
  8
0
 62
     0
100
AcDbTrace
 10
0.0
 20
0.0
 11
0.5
 21
0.0
 12
0.35350001
 22
0.35350001
 13
0.46200001
 23
0.19149999
  0
SOLID
  5
233
100
AcDbEntity
  8
0
 62
     0
100
AcDbTrace
 10
0.0
 20
0.0
 11
0.0
 21
-0.5
 12
-0.35350001
 22
-0.35350001
 13
-0.19149999
 23
-0.46200001
  0
SOLID
  5
234
100
AcDbEntity
  8
0
 62
     0
100
AcDbTrace
 10
0.0
 20
0.0
 11
-0.5
 21
0.0
 12
-0.35350001
 22
-0.35350001
 13
-0.46200001
 23
-0.19149999
  0
ENDBLK
  5
235
100
AcDbEntity
100
AcDbBlockEnd
  0
BLOCK
  5
236
100
AcDbEntity
  8
Ech.1_5
100
AcDbBlockBegin
  2
*X1
 70
     1
 10
0.0
 20
0.0
 30
0.0
  3
*X1
  1

  4
Cadwork hatch
  0
ENDBLK
  5
237
100
AcDbEntity
100
AcDbBlockEnd
  0
BLOCK
  5
238
100
AcDbEntity
  8
Ech.1_5
100
AcDbBlockBegin
  2
*X2
 70
     1
 10
0.0
 20
0.0
 30
0.0
  3
*X2
  1

  4
Cadwork hatch
  0
ENDBLK
  5
239
100
AcDbEntity
100
AcDbBlockEnd
  0
BLOCK
  5
23A
100
AcDbEntity
  8
Ech.1_5
100
AcDbBlockBegin
  2
*X3
 70
     1
 10
0.0
 20
0.0
 30
0.0
  3
*X3
  1

  4
Cadwork hatch
  0
ENDBLK
  5
23B
100
AcDbEntity
100
AcDbBlockEnd
  0
BLOCK
  5
23C
100
AcDbEntity
  8
Ech.1_5
100
AcDbBlockBegin
  2
*X4
 70
     1
 10
0.0
 20
0.0
 30
0.0
  3
*X4
  1

  4
Cadwork hatch
  0
ENDBLK
  5
23D
100
AcDbEntity
100
AcDbBlockEnd
  0
BLOCK
  5
23E
100
AcDbEntity
  8
Ech.1_5
100
AcDbBlockBegin
  2
*X5
 70
     1
 10
0.0
 20
0.0
 30
0.0
  3
*X5
  1

  4
Cadwork hatch
  0
ENDBLK
  5
23F
100
AcDbEntity
100
AcDbBlockEnd
  0
BLOCK
  5
240
100
AcDbEntity
  8
Ech.1_5
100
AcDbBlockBegin
  2
*X6
 70
     1
 10
0.0
 20
0.0
 30
0.0
  3
*X6
  1

  4
Cadwork hatch
  0
ENDBLK
  5
241
100
AcDbEntity
100
AcDbBlockEnd
  0
ENDSEC
  0
SECTION
  2
ENTITIES
  0
INSERT
  5
242
100
AcDbEntity
  8
Ech.1_5
 62
     0
370
    -3
100
AcDbBlockReference
  2
*X1
 10
0.0
 20
0.0
 30
0.0
  0
INSERT
  5
243
100
AcDbEntity
  8
Ech.1_5
 62
     0
370
    -3
100
AcDbBlockReference
  2
*X2
 10
0.0
 20
0.0
 30
0.0
  0
INSERT
  5
244
100
AcDbEntity
  8
Ech.1_5
 62
     0
370
    -3
100
AcDbBlockReference
  2
*X3
 10
0.0
 20
0.0
 30
0.0
  0
INSERT
  5
245
100
AcDbEntity
  8
Ech.1_5
 62
     0
370
    -3
100
AcDbBlockReference
  2
*X4
 10
0.0
 20
0.0
 30
0.0
  0
INSERT
  5
246
100
AcDbEntity
  8
Ech.1_5
 62
     0
370
    -3
100
AcDbBlockReference
  2
*X5
 10
0.0
 20
0.0
 30
0.0
  0
INSERT
  5
247
100
AcDbEntity
  8
Ech.1_5
 62
     0
370
    -3
100
AcDbBlockReference
  2
*X6
 10
0.0
 20
0.0
 30
0.0
  0
LWPOLYLINE
  5
248
100
AcDbEntity
  8
Ech.1_5
 62
     7
  6
CONTINUOUS
370
    -3
100
AcDbPolyline
 90
        4
 70
     1
 43
0.0
 10
30876.75388522
 20
-41023.65159273
 10
30876.75388522
 20
-40963.65159273
 10
30834.75388522
 20
-40963.65159273
 10
30834.75388522
 20
-41023.65159273
  0
LWPOLYLINE
  5
249
100
AcDbEntity
  8
Ech.1_5
 62
   190
  6
CONTINUOUS
370
    -3
100
AcDbPolyline
 90
        4
 70
     0
 43
0.0
 10
30834.75388522
 20
-41023.65159273
 10
30876.75388522
 20
-40963.65159273
 10
30876.75388522
 20
-41023.65159273
 10
30834.75388522
 20
-40963.65159273
  0
LWPOLYLINE
  5
24A
100
AcDbEntity
  8
Ech.1_5
 62
     5
  6
CONTINUOUS
370
    -3
100
AcDbPolyline
 90
        5
 70
     0
 43
0.0
 10
30876.75388522
 20
-41023.65159273
 10
30876.75388522
 20
-40963.65159273
 10
30834.75388522
 20
-40963.65159273
 10
30834.75388522
 20
-41023.65159273
 10
30876.75388522
 20
-41023.65159273
  0
LWPOLYLINE
  5
24B
100
AcDbEntity
  8
Ech.1_5
 62
   190
  6
CONTINUOUS
370
    -3
100
AcDbPolyline
 90
       23
 70
     1
 43
0.0
 10
30530.77007825
 20
-40843.56543377
 10
30536.87899301
 20
-40866.34061706
 10
30560.61165731
 20
-40859.97488022
 10
30548.00739865
 20
-40807.77907326
 10
30538.56298018
 20
-40810.05971418
 10
30541.14067971
 20
-40820.73428939
 10
30524.18815938
 20
-40824.82798894
 10
30521.61045985
 20
-40814.15341373
 10
30512.16604139
 20
-40816.43405465
 10
30514.74374092
 20
-40827.10862986
 10
30491.62944253
 20
-40832.69027736
 10
30482.16565455
 20
-40793.49955112
 10
30478.4989427
 20
-40778.31524005
 10
30152.11150827
 20
-40857.13137275
 42
0.41421356
 10
30135.66368537
 20
-40884.05176483
 10
30143.55790062
 20
-40916.74269464
 10
30152.60023333
 20
-40954.18812206
 10
30172.90278667
 20
-40949.28545557
 10
30170.369534
 20
-40938.79494034
 10
30186.15419107
 20
-40934.62412226
 10
30188.64960819
 20
-40944.95795575
 10
30199.10880602
 20
-40942.15251848
 10
30196.9255735
 20
-40933.11148037
  0
LWPOLYLINE
  5
24C
100
AcDbEntity
  8
Ech.1_5
 62
   190
  6
CONTINUOUS
370
    -3
100
AcDbPolyline
 90
       25
 70
     1
 43
0.0
 10
30869.37783218
 20
-40720.32229025
 10
30875.48674695
 20
-40743.09747353
 10
30899.21941124
 20
-40736.73173669
 10
30886.61515258
 20
-40684.53592974
 10
30877.17073412
 20
-40686.81657066
 10
30879.74843365
 20
-40697.49114587
 10
30862.79591331
 20
-40701.58484541
 10
30860.21821378
 20
-40690.91027021
 10
30850.77379532
 20
-40693.19091113
 10
30853.35149485
 20
-40703.86548633
 10
30830.28514607
 20
-40709.43555495
 10
30829.84830229
 20
-40707.62653038
 10
30829.79317756
 20
-40707.63984191
 10
30820.75084484
 20
-40670.1944145
 10
30817.0995215
 20
-40655.07382918
 10
30490.71926221
 20
-40733.88822922
 42
0.41421356
 10
30474.2714393
 20
-40760.80862131
 10
30478.4989427
 20
-40778.31524005
 10
30491.20798727
 20
-40830.94497853
 10
30511.51054061
 20
-40826.04231204
 10
30508.97728793
 20
-40815.55179681
 10
30524.76194501
 20
-40811.38097874
 10
30527.25736213
 20
-40821.71481223
 10
30537.71655995
 20
-40818.90937496
 10
30535.53332743
 20
-40809.86833685
  0
LWPOLYLINE
  5
24D
100
AcDbEntity
  8
Ech.1_5
 62
   190
  6
CONTINUOUS
370
    -3
100
AcDbPolyline
 90
       26
 70
     1
 43
0.0
 10
31207.96302247
 20
-40597.01715363
 10
31214.07193724
 20
-40619.79233691
 10
31237.80460153
 20
-40613.42660007
 10
31225.20034287
 20
-40561.23079312
 10
31215.75592441
 20
-40563.51143404
 10
31218.33362394
 20
-40574.18600924
 10
31201.38110361
 20
-40578.27970879
 10
31198.80340408
 20
-40567.60513358
 10
31189.35898561
 20
-40569.8857745
 10
31191.93668514
 20
-40580.56034971
 10
31168.87033636
 20
-40586.13041833
 10
31168.44888109
 20
-40584.3851195
 10
31168.40093149
 20
-40584.39669839
 10
31159.35859878
 20
-40546.95127097
 10
31155.69188692
 20
-40531.76695991
 10
30829.3044525
 20
-40610.5830926
 42
0.41421356
 10
30812.8566296
 20
-40637.50348469
 10
30817.0995215
 20
-40655.07382918
 10
30817.15464623
 20
-40655.06051765
 10
30829.84830229
 20
-40707.62653038
 10
30850.0957309
 20
-40702.73717542
 10
30847.56247823
 20
-40692.24666019
 10
30863.3471353
 20
-40688.07584212
 10
30865.84255242
 20
-40698.40967561
 10
30876.30175024
 20
-40695.60423834
 10
30874.11851773
 20
-40686.56320023
  0
LWPOLYLINE
  5
24E
100
AcDbEntity
  8
Ech.1_5
 62
   190
  6
CONTINUOUS
370
    -3
100
AcDbPolyline
 90
       23
 70
     1
 43
0.0
 10
31546.57077641
 20
-40473.7740101
 10
31552.67969117
 20
-40496.54919339
 10
31576.41235547
 20
-40490.18345655
 10
31563.80809681
 20
-40437.98764959
 10
31554.36367835
 20
-40440.26829051
 10
31556.94137788
 20
-40450.94286572
 10
31539.98885754
 20
-40455.03656527
 10
31537.41115801
 20
-40444.36199006
 10
31527.96673955
 20
-40446.64263098
 10
31530.54443908
 20
-40457.31720619
 10
31507.4780903
 20
-40462.88727481
 10
31494.34759046
 20
-40408.5122375
 10
31167.91220644
 20
-40487.33994908
 42
0.41421356
 10
31151.46438353
 20
-40514.26034116
 10
31155.69188692
 20
-40531.76695991
 10
31155.73983652
 20
-40531.75538103
 10
31168.44888109
 20
-40584.3851195
 10
31188.70348483
 20
-40579.4940319
 10
31186.17023216
 20
-40569.00351667
 10
31201.95488923
 20
-40564.83269859
 10
31204.45030635
 20
-40575.16653208
 10
31214.90950418
 20
-40572.36109481
 10
31212.72627166
 20
-40563.3200567
  0
LWPOLYLINE
  5
24F
100
AcDbEntity
  8
Ech.1_5
 62
   190
  6
CONTINUOUS
370
    -3
100
AcDbPolyline
 90
        4
 70
     1
 43
0.0
 10
30215.8134171
 20
-41015.90461114
 10
31719.81840608
 20
-40468.49156296
 10
31719.81840608
 20
-40439.75876311
 10
30206.57887323
 20
-40990.53291038
  0
LWPOLYLINE
  5
250
100
AcDbEntity
  8
Ech.1_5
 62
   190
  6
CONTINUOUS
370
    -3
100
AcDbPolyline
 90
        6
 70
     1
 43
0.0
 10
30200.7578453
 20
-41021.38439113
 10
30200.7578453
 20
-41127.80216838
 10
31000.86046434
 20
-40836.58863069
 10
31719.81840608
 20
-40574.90934021
 10
31719.81840608
 20
-40468.49156296
 10
31000.86046434
 20
-40730.17085344
  0
LWPOLYLINE
  5
251
100
AcDbEntity
  8
Ech.1_5
 62
   190
  6
CONTINUOUS
370
    -3
100
AcDbPolyline
 90
        4
 70
     1
 43
0.0
 10
30197.39415026
 20
-41168.39809821
 10
30643.82584945
 20
-41005.91466331
 10
30640.40413308
 20
-40996.51828884
 10
30193.91091426
 20
-41159.02411245
  0
LWPOLYLINE
  5
252
100
AcDbEntity
  8
Ech.1_5
 62
     7
100
AcDbPolyline
 90
       57
 70
     0
 43
0.0
 10
30112.45033761
 20
-41111.36547822
 10
30113.84542477
 20
-41111.162752
 10
30115.24161933
 20
-41110.95811191
 10
30116.64002871
 20
-41110.74964409
 10
30118.0417603
 20
-41110.53543465
 10
30119.44792151
 20
-41110.31356975
 10
30120.85961974
 20
-41110.08213549
 10
30122.2779624
 20
-41109.83921803
 10
30123.7040569
 20
-41109.58290348
 10
30125.13901064
 20
-41109.31127798
 10
30126.58393101
 20
-41109.02242767
 10
30128.03992544
 20
-41108.71443866
 10
30129.50810132
 20
-41108.3853971
 10
30130.98956606
 20
-41108.03338911
 10
30132.48542706
 20
-41107.65650083
 10
30133.9967723
 20
-41107.25286304
 10
30135.52283601
 20
-41106.82486708
 10
30137.05949281
 20
-41106.38262594
 10
30138.60226288
 20
-41105.93706715
 10
30140.14666642
 20
-41105.49911827
 10
30141.68822363
 20
-41105.07970684
 10
30143.22245469
 20
-41104.68976042
 10
30144.74487979
 20
-41104.34020655
 10
30146.25101914
 20
-41104.04197279
 10
30147.73639292
 20
-41103.80598668
 10
30149.19652133
 20
-41103.64317576
 10
30150.62692455
 20
-41103.5644676
 10
30152.02312279
 20
-41103.58078974
 10
30153.38063623
 20
-41103.70306972
 10
30154.69498506
 20
-41103.94223509
 10
30155.96168949
 20
-41104.30921341
 10
30157.17627057
 20
-41104.81492849
 10
30158.33544473
 20
-41105.46518025
 10
30159.43949316
 20
-41106.25048821
 10
30160.48935864
 20
-41107.15853608
 10
30161.48598393
 20
-41108.17700756
 10
30162.43031182
 20
-41109.29358636
 10
30163.32328506
 20
-41110.49595618
 10
30164.16584644
 20
-41111.77180071
 10
30164.95893872
 20
-41113.10880368
 10
30165.70350467
 20
-41114.49464877
 10
30166.40048707
 20
-41115.9170197
 10
30167.05082868
 20
-41117.36360017
 10
30167.65547227
 20
-41118.82207388
 10
30168.21536063
 20
-41120.28012454
 10
30168.73147276
 20
-41121.72570265
 10
30169.2058018
 20
-41123.15422367
 10
30169.64146673
 20
-41124.56939023
 10
30170.04164516
 20
-41125.97533677
 10
30170.40951474
 20
-41127.37619774
 10
30170.74825309
 20
-41128.7761076
 10
30171.06103784
 20
-41130.1792008
 10
30171.35104662
 20
-41131.58961178
 10
30171.62147571
 20
-41133.01139919
 10
30171.87633961
 20
-41134.44529674
 10
30172.12077279
 20
-41135.88748686
 10
30172.3599906
 20
-41137.33382326
  0
ARC
  5
253
100
AcDbEntity
  8
Ech.1_5
 62
     7
100
AcDbCircle
 10
30103.74950278
 20
-41044.13628447
 30
0.0
 40
67.78988877
100
AcDbArc
 50
176.81519387
 51
17.9333216
  0
LINE
  5
254
100
AcDbEntity
  8
Ech.1_5
 62
     7
100
AcDbLine
 10
30200.7578453
 20
-41021.38439113
 30
0.0
 11
31000.86046434
 21
-40730.17085344
 31
0.0
  0
LINE
  5
255
100
AcDbEntity
  8
Ech.1_5
 62
     7
100
AcDbLine
 10
30166.95134442
 20
-41023.26310075
 30
0.0
 11
30178.7578453
 21
-41023.26310075
 31
0.0
  0
LINE
  5
256
100
AcDbEntity
  8
Ech.1_5
 62
     7
100
AcDbLine
 10
30200.7578453
 20
-41127.80216838
 30
0.0
 11
30200.7578453
 21
-41127.80216838
 31
0.0
  0
ARC
  5
257
100
AcDbEntity
  8
Ech.1_5
 62
     7
100
AcDbCircle
 10
30175.73831626
 20
-41136.71944581
 30
0.0
 40
3.43373615
100
AcDbArc
 50
190.3070861
 51
331.56661712
  0
LINE
  5
258
100
AcDbEntity
  8
Ech.1_5
 62
     7
100
AcDbLine
 10
30834.75388522
 20
-40983.65159273
 30
0.0
 11
30834.75388522
 21
-41009.71130151
 31
0.0
  0
LINE
  5
259
100
AcDbEntity
  8
Ech.1_5
 62
     7
100
AcDbLine
 10
30726.09014318
 20
-40963.65159273
 30
0.0
 11
30771.7578453
 21
-40963.65159273
 31
0.0
  0
LINE
  5
25A
100
AcDbEntity
  8
Ech.1_5
 62
     7
100
AcDbLine
 10
30913.2540486
 20
-40963.65159273
 30
0.0
 11
31000.86046434
 21
-40963.65159273
 31
0.0
  0
LINE
  5
25B
100
AcDbEntity
  8
Ech.1_5
 62
     7
100
AcDbLine
 10
30773.7578453
 20
-40963.65159273
 30
0.0
 11
30886.2540486
 21
-40963.65159273
 31
0.0
  0
LWPOLYLINE
  5
25C
100
AcDbEntity
  8
Ech.1_5
 62
   190
  6
CONTINUOUS
370
    -3
100
AcDbPolyline
 90
        4
 70
     0
 43
0.0
 10
31719.81840608
 20
-40439.75876311
 10
30206.57887323
 20
-40990.53291038
 10
30215.8134171
 20
-41015.90461114
 10
31719.81840608
 20
-40468.49156296
  0
LWPOLYLINE
  5
25D
102
{ACAD_REACTORS
330
25E
102
}
100
AcDbEntity
  8
Ech.1_5
 62
     7
  6
CONTINUOUS
100
AcDbPolyline
 90
        3
 70
     1
 43
0.0
 10
30276.40267048
 20
-40968.34779003
 10
30298.178146
 20
-40963.52356882
 10
30279.1443355
 20
-40975.1493377
  0
HATCH
  5
25E
100
AcDbEntity
  8
Ech.1_5
 62
     7
  6
CONTINUOUS
100
AcDbHatch
 10
0.0
 20
0.0
 30
0.0
210
0.0
220
0.0
230
1.0
  2
SOLID
 70
     1
 71
     1
 91
        1
 92
        7
 72
     0
 73
     1
 93
        3
 10
30276.40267048
 20
-40968.34779003
 10
30298.178146
 20
-40963.52356882
 10
30279.1443355
 20
-40975.1493377
 97
        1
330
25D
 75
     0
 76
     2
 47
0.775229
 98
        1
 10
0.0
 20
0.0
  0
ARC
  5
25F
100
AcDbEntity
  8
Ech.1_5
 62
     7
100
AcDbCircle
 10
30646.15123187
 20
-41794.77730655
 30
0.0
 40
901.708635
100
AcDbArc
 50
114.11271308
 51
118.22750414
  0
ARC
  5
260
100
AcDbEntity
  8
Ech.1_5
 62
     7
100
AcDbCircle
 10
30171.55473716
 20
-40906.68291256
 30
0.0
 40
105.25912681
100
AcDbArc
 50
263.48671375
 51
297.1989192
  0
LWPOLYLINE
  5
261
100
AcDbEntity
  8
Ech.1_5
 62
   190
  6
CONTINUOUS
370
    -3
100
AcDbPolyline
 90
        2
 70
     1
 43
0.0
 10
30767.18754262
 20
-40918.45403115
 42
1.0
 10
30767.18754262
 20
-40916.8382317
 42
1.0
  0
LWPOLYLINE
  5
262
100
AcDbEntity
  8
Ech.1_5
 62
   190
  6
CONTINUOUS
370
    -3
100
AcDbPolyline
 90
        2
 70
     1
 43
0.0
 10
30767.18754262
 20
-40933.78087068
 42
1.0
 10
30767.18754262
 20
-40932.16507122
 42
1.0
  0
LWPOLYLINE
  5
263
100
AcDbEntity
  8
Ech.1_5
 62
   190
  6
CONTINUOUS
370
    -3
100
AcDbPolyline
 90
        2
 70
     1
 43
0.0
 10
30744.96467992
 20
-40933.78087068
 42
1.0
 10
30744.96467992
 20
-40932.16507122
 42
1.0
  0
LWPOLYLINE
  5
264
100
AcDbEntity
  8
Ech.1_5
 62
   190
  6
CONTINUOUS
370
    -3
100
AcDbPolyline
 90
        2
 70
     1
 43
0.0
 10
30744.96467992
 20
-40918.45403115
 42
1.0
 10
30744.96467992
 20
-40916.8382317
 42
1.0
  0
LWPOLYLINE
  5
265
100
AcDbEntity
  8
Ech.1_5
 62
   190
  6
CONTINUOUS
370
    -3
100
AcDbPolyline
 90
        2
 70
     1
 43
0.0
 10
30756.57589979
 20
-40941.9126164
 42
1.0
 10
30756.57589979
 20
-40940.29681694
 42
1.0
  0
LWPOLYLINE
  5
266
100
AcDbEntity
  8
Ech.1_5
 62
   190
  6
CONTINUOUS
370
    -3
100
AcDbPolyline
 90
        2
 70
     1
 43
0.0
 10
30756.57589979
 20
-40926.58577687
 42
1.0
 10
30756.57589979
 20
-40924.96997741
 42
1.0
  0
LWPOLYLINE
  5
267
100
AcDbEntity
  8
Ech.1_5
 62
   190
  6
CONTINUOUS
370
    -3
100
AcDbPolyline
 90
        4
 70
     1
 43
0.0
 10
30838.78031005
 20
-41072.16010409
 10
30838.78031005
 20
-41085.16010409
 10
31719.81840608
 20
-41085.15994159
 10
31719.81840608
 20
-41072.15994159
  0
LWPOLYLINE
  5
268
102
{ACAD_REACTORS
330
269
102
}
100
AcDbEntity
  8
Ech.1_5
 62
     7
  6
CONTINUOUS
370
    -3
100
AcDbPolyline
 90
        4
 70
     1
 43
0.0
 10
30838.78031005
 20
-41072.15994159
 10
30838.78031005
 20
-41085.15994159
 10
31719.81840608
 20
-41085.15994159
 10
31719.81840608
 20
-41072.15994159
  0
HATCH
  5
269
100
AcDbEntity
  8
Ech.1_5
 62
   190
  6
CONTINUOUS
100
AcDbHatch
 10
0.0
 20
0.0
 30
0.0
210
0.0
220
0.0
230
1.0
  2
DOTS2
 70
     0
 71
     1
 91
        1
 92
        7
 72
     0
 73
     1
 93
        4
 10
30838.78031005
 20
-41072.15994159
 10
30838.78031005
 20
-41085.15994159
 10
31719.81840608
 20
-41085.15994159
 10
31719.81840608
 20
-41072.15994159
 97
        1
330
268
 75
     0
 76
     2
 52
0.0
 41
4.72440952
 77
     0
 78
     1
 53
0.0
 43
0.0
 44
0.0
 45
3.75
 46
3.535
 79
     2
 49
0.0
 49
-3.535
 47
0.775229
 98
        1
 10
0.0
 20
0.0
  0
LWPOLYLINE
  5
26A
100
AcDbEntity
  8
Ech.1_5
100
AcDbPolyline
 90
        5
 70
     0
 43
0.0
 10
31719.81840608
 20
-41072.15994159
 10
30838.78031005
 20
-41072.15994159
 10
30838.78031005
 20
-41085.15994159
 10
31719.81840608
 20
-41085.15994159
 10
31719.81840608
 20
-41072.15994159
  0
LWPOLYLINE
  5
26B
100
AcDbEntity
  8
Ech.1_5
100
AcDbPolyline
 90
        4
 70
     0
 43
0.0
 10
31719.81840608
 20
-41072.15994159
 10
30838.78031005
 20
-41072.15994159
 10
30838.78031005
 20
-41047.4777715
 10
31719.81840608
 20
-41047.4777715
  0
LWPOLYLINE
  5
26C
100
AcDbEntity
  8
Ech.1_5
100
AcDbPolyline
 90
        5
 70
     0
 43
0.0
 10
30197.39415026
 20
-41168.39809821
 10
30643.82584945
 20
-41005.91466331
 10
30640.40413308
 20
-40996.51828884
 10
30193.91091426
 20
-41159.02411245
 10
30197.39415026
 20
-41168.39809821
  0
LWPOLYLINE
  5
26D
100
AcDbEntity
  8
Ech.1_5
370
    50
100
AcDbPolyline
 90
        3
 70
     0
 43
0.0
 10
30839.78892973
 20
-41047.4777715
 10
30839.78892973
 20
-41070.5562884
 10
30865.65111425
 20
-41070.5562884
  0
LWPOLYLINE
  5
26E
100
AcDbEntity
  8
Ech.1_5
 62
     7
  6
CONTINUOUS
370
    -3
100
AcDbPolyline
 90
       10
 70
     0
 43
0.0
 10
30178.7578453
 20
-41179.06561941
 42
-0.41421356
 10
30191.6218704
 20
-41191.92964451
 10
30200.7578453
 20
-41191.92964451
 10
30200.7578453
 20
-41169.40075225
 10
30191.3319061
 20
-41169.40075225
 10
30191.3319061
 20
-41155.31946642
 10
30200.7578453
 20
-41155.31946642
 10
30200.7578453
 20
-41021.38439113
 10
30178.7578453
 20
-41021.38439113
 10
30178.7578453
 20
-41179.06561941
  0
LWPOLYLINE
  5
26F
100
AcDbEntity
  8
Ech.1_5
 62
   190
  6
CONTINUOUS
370
    -3
100
AcDbPolyline
 90
        9
 70
     1
 43
0.0
 10
30178.7578453
 20
-41179.06561941
 42
-0.41421356
 10
30191.6218704
 20
-41191.92964451
 10
30200.7578453
 20
-41191.92964451
 10
30200.7578453
 20
-41169.40075225
 10
30191.3319061
 20
-41169.40075225
 10
30191.3319061
 20
-41155.31946642
 10
30200.7578453
 20
-41155.31946642
 10
30200.7578453
 20
-41021.38439113
 10
30178.7578453
 20
-41021.38439113
  0
LWPOLYLINE
  5
270
100
AcDbEntity
  8
Ech.1_5
100
AcDbPolyline
 90
       10
 70
     0
 43
0.0
 10
30266.51402564
 20
-40997.45109877
 10
30265.82998535
 20
-40995.57171353
 10
30214.74111259
 20
-41014.16654252
 10
30157.47740355
 20
-41021.69557497
 10
30157.47740355
 20
-41050.30339457
 10
30162.1941296
 20
-41045.04229777
 10
30159.47740355
 20
-41045.04229777
 10
30159.47740355
 20
-41023.44982789
 10
30215.21916547
 20
-41016.12090104
 10
30266.51402564
 20
-40997.45109877
  0
LWPOLYLINE
  5
271
102
{ACAD_REACTORS
330
272
102
}
100
AcDbEntity
  8
Ech.1_5
 62
     9
  6
CONTINUOUS
370
    -3
100
AcDbPolyline
 90
        9
 70
     1
 43
0.0
 10
30266.51402564
 20
-40997.45109877
 10
30265.82998535
 20
-40995.57171353
 10
30214.74111259
 20
-41014.16654252
 10
30157.47740355
 20
-41021.69557497
 10
30157.47740355
 20
-41050.30339457
 10
30162.1941296
 20
-41045.04229777
 10
30159.47740355
 20
-41045.04229777
 10
30159.47740355
 20
-41023.44982789
 10
30215.21916547
 20
-41016.12090104
  0
HATCH
  5
272
100
AcDbEntity
  8
Ech.1_5
 62
     9
  6
CONTINUOUS
100
AcDbHatch
 10
0.0
 20
0.0
 30
0.0
210
0.0
220
0.0
230
1.0
  2
SOLID
 70
     1
 71
     1
 91
        1
 92
        7
 72
     0
 73
     1
 93
        9
 10
30266.51402564
 20
-40997.45109877
 10
30265.82998535
 20
-40995.57171353
 10
30214.74111259
 20
-41014.16654252
 10
30157.47740355
 20
-41021.69557497
 10
30157.47740355
 20
-41050.30339457
 10
30162.1941296
 20
-41045.04229777
 10
30159.47740355
 20
-41045.04229777
 10
30159.47740355
 20
-41023.44982789
 10
30215.21916547
 20
-41016.12090104
 97
        1
330
271
 75
     0
 76
     2
 47
0.775229
 98
        1
 10
0.0
 20
0.0
  0
LWPOLYLINE
  5
273
100
AcDbEntity
  8
Ech.1_5
100
AcDbPolyline
 90
        4
 70
     0
 43
0.0
 10
31719.81840608
 20
-40963.65159273
 10
30651.7578453
 20
-40963.65159273
 10
30926.50558724
 20
-40863.65159273
 10
31719.81840608
 20
-40863.65159273
  0
LWPOLYLINE
  5
274
100
AcDbEntity
  8
Ech.1_5
 62
   190
  6
CONTINUOUS
370
    -3
100
AcDbPolyline
 90
        5
 70
     0
 43
0.0
 10
30735.07609245
 20
-40863.65162867
 10
31719.41907972
 20
-40863.65159273
 10
31719.41907972
 20
-40963.65159273
 10
30735.07609245
 20
-40963.65162867
 10
30735.07609245
 20
-40863.65162867
  0
LWPOLYLINE
  5
275
100
AcDbEntity
  8
Ech.1_5
 62
   190
  6
CONTINUOUS
370
    -3
100
AcDbPolyline
 90
        4
 70
     0
 43
0.0
 10
30726.07606887
 20
-40963.65159273
 10
30726.07606887
 20
-40851.55661814
 10
30735.07606893
 20
-40851.55661814
 10
30735.07611139
 20
-40963.65159273
  0
LWPOLYLINE
  5
276
100
AcDbEntity
  8
Ech.1_5
 62
     7
  6
CONTINUOUS
370
    -3
100
AcDbPolyline
 90
        4
 70
     1
 43
0.0
 10
31342.0033249
 20
-41023.65159273
 10
31342.0033249
 20
-40963.65159273
 10
31300.0033249
 20
-40963.65159273
 10
31300.0033249
 20
-41023.65159273
  0
LWPOLYLINE
  5
277
100
AcDbEntity
  8
Ech.1_5
 62
   190
  6
CONTINUOUS
370
    -3
100
AcDbPolyline
 90
        4
 70
     0
 43
0.0
 10
31300.0033249
 20
-41023.65159273
 10
31342.0033249
 20
-40963.65159273
 10
31342.0033249
 20
-41023.65159273
 10
31300.0033249
 20
-40963.65159273
  0
LWPOLYLINE
  5
278
100
AcDbEntity
  8
Ech.1_5
 62
   190
  6
CONTINUOUS
370
    -3
100
AcDbPolyline
 90
        5
 70
     0
 43
0.0
 10
30967.34890168
 20
-40763.65162867
 10
31104.7228598
 20
-40763.65159273
 10
31104.7228598
 20
-40863.65159273
 10
30967.34890168
 20
-40863.65162867
 10
30967.34890168
 20
-40763.65162867
  0
LWPOLYLINE
  5
279
100
AcDbEntity
  8
Ech.1_5
 62
   190
  6
CONTINUOUS
370
    -3
100
AcDbPolyline
 90
        4
 70
     1
 43
0.0
 10
30200.7578453
 20
-41127.80216838
 10
30238.34555013
 20
-41114.12136265
 10
30247.580094
 20
-41139.49306341
 10
30209.99238917
 20
-41153.17386914
  0
LWPOLYLINE
  5
27A
100
AcDbEntity
  8
Ech.1_5
 62
   190
  6
CONTINUOUS
370
    -3
100
AcDbPolyline
 90
        4
 70
     0
 43
0.0
 10
30238.34555013
 20
-41114.12136265
 10
30209.99238917
 20
-41153.17386914
 10
30247.580094
 20
-41139.49306341
 10
30200.7578453
 20
-41127.80216838
  0
LWPOLYLINE
  5
27B
100
AcDbEntity
  8
Ech.1_5
 62
   190
  6
CONTINUOUS
370
    -3
100
AcDbPolyline
 90
        4
 70
     1
 43
0.0
 10
30530.93559622
 20
-41007.70395727
 10
30568.52330105
 20
-40994.02315154
 10
30577.75784492
 20
-41019.3948523
 10
30540.17014009
 20
-41033.07565803
  0
LWPOLYLINE
  5
27C
100
AcDbEntity
  8
Ech.1_5
 62
   190
  6
CONTINUOUS
370
    -3
100
AcDbPolyline
 90
        4
 70
     0
 43
0.0
 10
30568.52330105
 20
-40994.02315154
 10
30540.17014009
 20
-41033.07565803
 10
30577.75784492
 20
-41019.3948523
 10
30530.93559622
 20
-41007.70395727
  0
LWPOLYLINE
  5
27D
100
AcDbEntity
  8
Ech.1_5
 62
   190
  6
CONTINUOUS
370
    -3
100
AcDbPolyline
 90
        5
 70
     0
 43
0.0
 10
30735.07611127
 20
-40907.73681399
 10
30777.07611127
 20
-40907.73681931
 10
30777.07611127
 20
-40963.33754544
 10
30735.07611127
 20
-40963.33752605
 10
30735.07611127
 20
-40907.73681931
  0
LWPOLYLINE
  5
27E
100
AcDbEntity
  8
Ech.1_5
 62
     3
370
    70
100
AcDbPolyline
 90
        4
 70
     0
 43
0.0
 10
30833.13344879
 20
-41022.51284175
 10
30833.13344879
 20
-41009.52370833
 10
30838.81406175
 20
-41005.58897619
 10
30838.81406175
 20
-40992.11054619
  0
ARC
  5
27F
100
AcDbEntity
  8
Ech.1_5
 62
     7
100
AcDbCircle
 10
30102.94332754
 20
-41036.2769214
 30
0.0
 40
65.31757614
100
AcDbArc
 50
182.93511954
 51
11.68289665
  0
ARC
  5
280
100
AcDbEntity
  8
Ech.1_5
 62
     7
100
AcDbCircle
 10
30102.94332754
 20
-41036.2769214
 30
0.0
 40
62.81757614
100
AcDbArc
 50
180.12287567
 51
11.68289665
  0
CIRCLE
  5
281
100
AcDbEntity
  8
Ech.1_5
 62
     7
100
AcDbCircle
 10
30034.46626135
 20
-41034.66749116
 30
0.0
 40
5.9222896
  0
LINE
  5
282
100
AcDbEntity
  8
Ech.1_5
 62
     7
100
AcDbLine
 10
30164.45953086
 20
-41023.55667765
 30
0.0
 11
30166.90773911
 21
-41023.0504402
 31
0.0
  0
LINE
  5
283
100
AcDbEntity
  8
Ech.1_5
 62
   190
  6
CONTINUOUS
370
    -3
100
AcDbLine
 10
30143.55790062
 20
-40916.74269464
 30
0.0
 11
30491.62944253
 21
-40832.69027736
 31
0.0
  0
LWPOLYLINE
  5
284
100
AcDbEntity
  8
Ech.1_5
 62
   190
  6
CONTINUOUS
370
    -3
100
AcDbPolyline
 90
       23
 70
     0
 43
0.0
 10
30538.56298018
 20
-40810.05971418
 10
30548.00739865
 20
-40807.77907326
 10
30560.61165731
 20
-40859.97488022
 10
30536.87899301
 20
-40866.34061706
 10
30530.77007825
 20
-40843.56543377
 10
30196.9255735
 20
-40933.11148037
 10
30199.10880602
 20
-40942.15251848
 10
30188.64960819
 20
-40944.95795575
 10
30186.15419107
 20
-40934.62412226
 10
30170.369534
 20
-40938.79494034
 10
30172.90278667
 20
-40949.28545557
 10
30152.60023333
 20
-40954.18812206
 10
30143.55790062
 20
-40916.74269464
 10
30135.66368537
 20
-40884.05176483
 42
-0.41421356
 10
30152.11150827
 20
-40857.13137275
 10
30478.4989427
 20
-40778.31524005
 10
30491.62944253
 20
-40832.69027736
 10
30514.74374092
 20
-40827.10862986
 10
30512.16604139
 20
-40816.43405465
 10
30521.61045985
 20
-40814.15341373
 10
30524.18815938
 20
-40824.82798894
 10
30541.14067971
 20
-40820.73428939
 10
30538.56298018
 20
-40810.05971418
  0
LINE
  5
285
100
AcDbEntity
  8
Ech.1_5
 62
   190
  6
CONTINUOUS
370
    -3
100
AcDbLine
 10
30482.16565455
 20
-40793.49955112
 30
0.0
 11
30830.23719647
 21
-40709.44713384
 31
0.0
  0
LWPOLYLINE
  5
286
100
AcDbEntity
  8
Ech.1_5
 62
   190
  6
CONTINUOUS
370
    -3
100
AcDbPolyline
 90
       23
 70
     0
 43
0.0
 10
30877.17073412
 20
-40686.81657066
 10
30886.61515258
 20
-40684.53592974
 10
30899.21941124
 20
-40736.73173669
 10
30875.48674695
 20
-40743.09747353
 10
30869.37783218
 20
-40720.32229025
 10
30535.53332743
 20
-40809.86833685
 10
30537.71655995
 20
-40818.90937496
 10
30527.25736213
 20
-40821.71481223
 10
30524.76194501
 20
-40811.38097874
 10
30508.97728793
 20
-40815.55179681
 10
30511.51054061
 20
-40826.04231204
 10
30491.20798727
 20
-40830.94497853
 10
30482.16565455
 20
-40793.49955112
 10
30474.2714393
 20
-40760.80862131
 42
-0.41421356
 10
30490.71926221
 20
-40733.88822922
 10
30817.15464623
 20
-40655.06051765
 10
30830.28514607
 20
-40709.43555495
 10
30853.35149485
 20
-40703.86548633
 10
30850.77379532
 20
-40693.19091113
 10
30860.21821378
 20
-40690.91027021
 10
30862.79591331
 20
-40701.58484541
 10
30879.74843365
 20
-40697.49114587
 10
30877.17073412
 20
-40686.81657066
  0
LINE
  5
287
100
AcDbEntity
  8
Ech.1_5
 62
   190
  6
CONTINUOUS
370
    -3
100
AcDbLine
 10
30820.75084484
 20
-40670.1944145
 30
0.0
 11
31168.82238676
 21
-40586.14199721
 31
0.0
  0
LWPOLYLINE
  5
288
100
AcDbEntity
  8
Ech.1_5
 62
   190
  6
CONTINUOUS
370
    -3
100
AcDbPolyline
 90
       23
 70
     0
 43
0.0
 10
31215.75592441
 20
-40563.51143404
 10
31225.20034287
 20
-40561.23079312
 10
31237.80460153
 20
-40613.42660007
 10
31214.07193724
 20
-40619.79233691
 10
31207.96302247
 20
-40597.01715363
 10
30874.11851773
 20
-40686.56320023
 10
30876.30175024
 20
-40695.60423834
 10
30865.84255242
 20
-40698.40967561
 10
30863.3471353
 20
-40688.07584212
 10
30847.56247823
 20
-40692.24666019
 10
30850.0957309
 20
-40702.73717542
 10
30829.79317756
 20
-40707.63984191
 10
30820.75084484
 20
-40670.1944145
 10
30812.8566296
 20
-40637.50348469
 42
-0.41421356
 10
30829.3044525
 20
-40610.5830926
 10
31155.73983652
 20
-40531.75538103
 10
31168.87033636
 20
-40586.13041833
 10
31191.93668514
 20
-40580.56034971
 10
31189.35898561
 20
-40569.8857745
 10
31198.80340408
 20
-40567.60513358
 10
31201.38110361
 20
-40578.27970879
 10
31218.33362394
 20
-40574.18600924
 10
31215.75592441
 20
-40563.51143404
  0
LINE
  5
289
100
AcDbEntity
  8
Ech.1_5
 62
     7
100
AcDbLine
 10
31159.35859878
 20
-40546.95127097
 30
0.0
 11
31507.4301407
 21
-40462.89885369
 31
0.0
  0
LWPOLYLINE
  5
28A
100
AcDbEntity
  8
Ech.1_5
 62
   190
  6
CONTINUOUS
370
    -3
100
AcDbPolyline
 90
       23
 70
     0
 43
0.0
 10
31554.36367835
 20
-40440.26829051
 10
31563.80809681
 20
-40437.98764959
 10
31576.41235547
 20
-40490.18345655
 10
31552.67969117
 20
-40496.54919339
 10
31546.57077641
 20
-40473.7740101
 10
31212.72627166
 20
-40563.3200567
 10
31214.90950418
 20
-40572.36109481
 10
31204.45030635
 20
-40575.16653208
 10
31201.95488923
 20
-40564.83269859
 10
31186.17023216
 20
-40569.00351667
 10
31188.70348483
 20
-40579.4940319
 10
31168.40093149
 20
-40584.39669839
 10
31159.35859878
 20
-40546.95127097
 10
31151.46438353
 20
-40514.26034116
 42
-0.41421356
 10
31167.91220644
 20
-40487.33994908
 10
31494.34759046
 20
-40408.5122375
 10
31507.4780903
 20
-40462.88727481
 10
31530.54443908
 20
-40457.31720619
 10
31527.96673955
 20
-40446.64263098
 10
31537.41115801
 20
-40444.36199006
 10
31539.98885754
 20
-40455.03656527
 10
31556.94137788
 20
-40450.94286572
 10
31554.36367835
 20
-40440.26829051
  0
LINE
  5
28B
100
AcDbEntity
  8
Ech.1_5
 62
   190
  6
CONTINUOUS
370
    -3
100
AcDbLine
 10
31159.35142365
 20
-40546.95300362
 30
0.0
 11
31507.42296557
 21
-40462.90058634
 31
0.0
  0
LWPOLYLINE
  5
28C
100
AcDbEntity
  8
Ech.1_5
 62
   190
  6
CONTINUOUS
370
    -3
100
AcDbPolyline
 90
        5
 70
     0
 43
0.0
 10
30742.33575943
 20
-40960.83716285
 42
-1.0
 10
30747.69258587
 20
-40960.83716285
 10
30747.69258587
 20
-40942.2556797
 42
1.0
 10
30742.33575943
 20
-40942.2556797
 10
30742.33575943
 20
-40960.83716285
  0
LWPOLYLINE
  5
28D
100
AcDbEntity
  8
Ech.1_5
 62
   190
  6
CONTINUOUS
370
    -3
100
AcDbPolyline
 90
        5
 70
     0
 43
0.0
 10
30769.81646312
 20
-40960.83716285
 10
30769.81646312
 20
-40942.2556797
 42
1.0
 10
30764.45963667
 20
-40942.2556797
 10
30764.45963667
 20
-40960.83716285
 42
-1.0
 10
30769.81646312
 20
-40960.83716285
  0
LWPOLYLINE
  5
28E
100
AcDbEntity
  8
Ech.1_5
 62
     7
100
AcDbPolyline
 90
        5
 70
     0
 43
0.0
 10
30828.03914676
 20
-40735.60706918
 10
30865.62685159
 20
-40721.92626344
 10
30874.86139546
 20
-40747.29796421
 10
30837.27369063
 20
-40760.97876994
 10
30828.03914676
 20
-40735.60706918
  0
LINE
  5
28F
100
AcDbEntity
  8
Ech.1_5
 62
     7
100
AcDbLine
 10
30208.56483599
 20
-40933.25474633
 30
0.0
 11
30208.42765816
 21
-40933.27829943
 31
0.0
  0
LWPOLYLINE
  5
290
102
{ACAD_REACTORS
330
291
102
}
100
AcDbEntity
  8
Ech.1_5
 62
     7
  6
CONTINUOUS
370
    -3
100
AcDbPolyline
 90
        4
 70
     1
 43
0.0
 10
30197.39415026
 20
-41168.39809821
 10
30643.82584945
 20
-41005.91466331
 10
30640.40413308
 20
-40996.51828884
 10
30193.91091426
 20
-41159.02411245
  0
HATCH
  5
291
100
AcDbEntity
  8
Ech.1_5
 62
   190
  6
CONTINUOUS
100
AcDbHatch
 10
0.0
 20
0.0
 30
0.0
210
0.0
220
0.0
230
1.0
  2
ANSI37
 70
     0
 71
     1
 91
        1
 92
        7
 72
     0
 73
     1
 93
        4
 10
30197.39415026
 20
-41168.39809821
 10
30643.82584945
 20
-41005.91466331
 10
30640.40413308
 20
-40996.51828884
 10
30193.91091426
 20
-41159.02411245
 97
        1
330
290
 75
     0
 76
     2
 52
0.0
 41
1.88976388
 77
     0
 78
     2
 53
45.0
 43
0.0
 44
0.0
 45
4.24264086
 46
-4.24264086
 79
     0
 53
-45.0
 43
0.0
 44
0.0
 45
4.24264086
 46
4.24264086
 79
     0
 47
0.775229
 98
        1
 10
0.0
 20
0.0
  0
LWPOLYLINE
  5
292
100
AcDbEntity
  8
Ech.1_5
 62
   190
  6
CONTINUOUS
370
    -3
100
AcDbPolyline
 90
        6
 70
     1
 43
0.0
 10
31542.85070073
 20
-40475.32726602
 10
31552.07175005
 20
-40500.66189079
 10
31514.48542178
 20
-40514.3464786
 10
31508.75891504
 20
-40498.61303064
 10
31505.2629959
 20
-40489.00807175
 10
31508.75891504
 20
-40487.73566125
  0
LWPOLYLINE
  5
293
100
AcDbEntity
  8
Ech.1_5
 62
   190
  6
CONTINUOUS
370
    -3
100
AcDbPolyline
 90
        4
 70
     1
 43
0.0
 10
31204.25012193
 20
-40598.56867689
 10
31166.6624171
 20
-40612.24948263
 10
31175.89696097
 20
-40637.62118339
 10
31213.48328924
 20
-40623.93659558
  0
LWPOLYLINE
  5
294
100
AcDbEntity
  8
Ech.1_5
 62
   190
  6
CONTINUOUS
370
    -3
100
AcDbPolyline
 90
        4
 70
     1
 43
0.0
 10
30865.62685159
 20
-40721.92626344
 10
30828.08962937
 20
-40735.58869501
 10
30837.30160775
 20
-40760.89839759
 10
30874.83745525
 20
-40747.23218904
  0
LWPOLYLINE
  5
295
100
AcDbEntity
  8
Ech.1_5
 62
   190
  6
CONTINUOUS
370
    -3
100
AcDbPolyline
 90
        4
 70
     1
 43
0.0
 10
30527.01909765
 20
-40845.16940697
 10
30489.43139282
 20
-40858.8502127
 10
30498.65577377
 20
-40884.19399105
 10
30536.24210204
 20
-40870.50940324
  0
LWPOLYLINE
  5
296
100
AcDbEntity
  8
Ech.1_5
 62
   190
  6
CONTINUOUS
370
    -3
100
AcDbPolyline
 90
        4
 70
     1
 43
0.0
 10
30243.42890311
 20
-40923.90326882
 10
30207.35236644
 20
-40933.57996317
 10
30207.36949084
 20
-40990.24505901
 10
30260.10045866
 20
-40971.04654741
  0
LWPOLYLINE
  5
297
100
AcDbEntity
  8
Ech.1_5
 62
   190
  6
CONTINUOUS
370
    -3
100
AcDbPolyline
 90
        4
 70
     0
 43
0.0
 10
30243.42890311
 20
-40923.90326882
 10
30207.36949087
 20
-40990.24514909
 10
30260.09794931
 20
-40971.05355972
 10
30207.35236644
 20
-40933.57996317
  0
LWPOLYLINE
  5
298
100
AcDbEntity
  8
Ech.1_5
 62
   190
  6
CONTINUOUS
370
    -3
100
AcDbPolyline
 90
        4
 70
     0
 43
0.0
 10
30527.01909765
 20
-40845.16940697
 10
30498.66593669
 20
-40884.22191346
 10
30536.25364152
 20
-40870.54110773
 10
30489.43139282
 20
-40858.8502127
  0
LWPOLYLINE
  5
299
100
AcDbEntity
  8
Ech.1_5
 62
   190
  6
CONTINUOUS
370
    -3
100
AcDbPolyline
 90
        4
 70
     0
 43
0.0
 10
30865.62685159
 20
-40721.92626344
 10
30837.27369063
 20
-40760.97876994
 10
30874.86139546
 20
-40747.29796421
 10
30828.03914676
 20
-40735.60706918
  0
LWPOLYLINE
  5
29A
100
AcDbEntity
  8
Ech.1_5
 62
   190
  6
CONTINUOUS
370
    -3
100
AcDbPolyline
 90
        4
 70
     0
 43
0.0
 10
31204.21204188
 20
-40598.62112682
 10
31175.85888092
 20
-40637.67363332
 10
31213.44658575
 20
-40623.99282758
 10
31166.62433705
 20
-40612.30193256
  0
LWPOLYLINE
  5
29B
100
AcDbEntity
  8
Ech.1_5
 62
   190
  6
CONTINUOUS
370
    -3
100
AcDbPolyline
 90
        4
 70
     0
 43
0.0
 10
31542.81262069
 20
-40475.37971595
 10
31514.45945972
 20
-40514.43222244
 10
31552.04716456
 20
-40500.75141671
 10
31505.22491585
 20
-40489.06052168
  0
LWPOLYLINE
  5
29C
100
AcDbEntity
  8
Ech.1_5
 62
     7
  6
CONTINUOUS
370
    -3
100
AcDbPolyline
 90
        6
 70
     0
 43
0.0
 10
31719.81840608
 20
-40574.90934021
 10
31000.86046434
 20
-40836.58863069
 10
30200.7578453
 20
-41127.80216838
 10
30200.7578453
 20
-41021.38439113
 10
31000.86046434
 20
-40730.17085344
 10
31719.81840608
 20
-40468.49156296
  0
LWPOLYLINE
  5
29D
100
AcDbEntity
  8
Ech.1_5
 62
   190
  6
CONTINUOUS
370
    -3
100
AcDbPolyline
 90
        5
 70
     1
 43
0.0
 10
30681.09014318
 20
-40963.65159273
 10
30726.09014318
 20
-40963.65159273
 10
30726.09014318
 20
-40873.65159273
 10
30702.50878417
 20
-40873.65159273
 10
30681.09014318
 20
-40873.65159273
  0
LWPOLYLINE
  5
29E
100
AcDbEntity
  8
Ech.1_5
 62
   190
  6
CONTINUOUS
370
    -3
100
AcDbPolyline
 90
        4
 70
     0
 43
0.0
 10
30681.09014318
 20
-40963.65159273
 10
30726.09014318
 20
-40873.65159273
 10
30681.09014318
 20
-40873.65159273
 10
30726.09014318
 20
-40963.65159273
  0
LWPOLYLINE
  5
29F
100
AcDbEntity
  8
Ech.1_5
 62
   190
  6
CONTINUOUS
370
    -3
100
AcDbPolyline
 90
        4
 70
     1
 43
0.0
 10
30735.07591623
 20
-40833.42866806
 10
30726.07591617
 20
-40833.42866806
 10
30726.0761492
 20
-40963.65159273
 10
30735.07614926
 20
-40963.65159273
  0
LWPOLYLINE
  5
2A0
102
{ACAD_REACTORS
330
2A1
102
}
100
AcDbEntity
  8
Ech.1_5
 62
   190
  6
CONTINUOUS
370
    -3
100
AcDbPolyline
 90
        4
 70
     1
 43
0.0
 10
30726.0761492
 20
-40963.65159273
 10
30735.07614926
 20
-40963.65159273
 10
30735.07591623
 20
-40833.42866806
 10
30726.07591617
 20
-40833.42866806
  0
HATCH
  5
2A1
100
AcDbEntity
  8
Ech.1_5
 62
   190
  6
CONTINUOUS
100
AcDbHatch
 10
0.0
 20
0.0
 30
0.0
210
0.0
220
0.0
230
1.0
  2
CDWK10A
 70
     0
 71
     1
 91
        1
 92
        7
 72
     0
 73
     1
 93
        4
 10
30726.0761492
 20
-40963.65159273
 10
30735.07614926
 20
-40963.65159273
 10
30735.07591623
 20
-40833.42866806
 10
30726.07591617
 20
-40833.42866806
 97
        1
330
2A0
 75
     0
 76
     2
 52
0.0
 41
1.0
 77
     0
 78
     3
 53
45.0
 43
0.0
 44
0.0
 45
0.0
 46
42.00000167
 79
     0
 53
45.0
 43
0.0
 44
10.80000043
 45
0.0
 46
42.00000167
 79
     0
 53
45.0
 43
0.0
 44
21.60000086
 45
0.0
 46
42.00000167
 79
     0
 47
0.775229
 98
        1
 10
0.0
 20
0.0
  0
LWPOLYLINE
  5
2A2
100
AcDbEntity
  8
Ech.1_5
 62
   190
100
AcDbPolyline
 90
        5
 70
     0
 43
0.0
 10
30091.56078758
 20
-41375.74076303
 10
30225.98956656
 20
-41375.74076303
 10
30225.98956656
 20
-41432.46372184
 10
30091.56078758
 20
-41432.46372184
 10
30091.56078758
 20
-41375.74076303
  0
LWPOLYLINE
  5
2A3
100
AcDbEntity
  8
Ech.1_5
 62
   190
100
AcDbPolyline
 90
        5
 70
     0
 43
0.0
 10
30109.84083336
 20
-41409.39757416
 10
30159.84083336
 20
-41409.39757416
 10
30159.84083336
 20
-41401.98243663
 10
30109.84083336
 20
-41401.98243663
 10
30109.84083336
 20
-41409.39757416
  0
HATCH
  5
2A4
100
AcDbEntity
  8
Ech.1_5
 62
   190
100
AcDbHatch
 10
0.0
 20
0.0
 30
0.0
210
0.0
220
0.0
230
1.0
  2
SOLID
 70
     1
 71
     0
 91
        1
 92
        7
 72
     0
 73
     1
 93
        4
 10
30109.84083336
 20
-41409.39757416
 10
30159.84083336
 20
-41409.39757416
 10
30159.84083336
 20
-41401.98243663
 10
30109.84083336
 20
-41401.98243663
 97
        0
 75
     0
 76
     2
 47
0.775229
 98
        1
 10
0.0
 20
0.0
  0
LWPOLYLINE
  5
2A5
100
AcDbEntity
  8
Ech.1_5
 62
   190
100
AcDbPolyline
 90
        5
 70
     0
 43
0.0
 10
30159.84083336
 20
-41409.39757416
 10
30209.84083336
 20
-41409.39757416
 10
30209.84083336
 20
-41401.98243663
 10
30159.84083336
 20
-41401.98243663
 10
30159.84083336
 20
-41409.39757416
  0
LWPOLYLINE
  5
2A6
100
AcDbEntity
  8
Ech.1_5
 62
   190
  6
CONTINUOUS
370
    -3
100
AcDbPolyline
 90
        6
 70
     0
 43
0.0
 10
30576.96133772
 20
-41294.08463152
 10
30756.96133772
 20
-41294.0840696
 10
30773.44684087
 20
-41276.10672119
 10
30759.33690085
 20
-41312.0624212
 10
30775.82325494
 20
-41294.0840696
 10
30956.08224958
 20
-41294.0840696
  0
LWPOLYLINE
  5
2A7
100
AcDbEntity
  8
Ech.1_5
 62
     3
370
    70
100
AcDbPolyline
 90
        4
 70
     0
 43
0.0
 10
30091.484373
 20
-41510.9432998
 10
30078.49523958
 20
-41510.9432998
 10
30074.56050744
 20
-41505.26268684
 10
30061.08207744
 20
-41505.26268684
  0
LWPOLYLINE
  5
2A8
100
AcDbEntity
  8
Ech.1_5
 62
   190
  6
CONTINUOUS
370
    -3
100
AcDbPolyline
 90
        5
 70
     1
 43
0.0
 10
31073.42454063
 20
-40763.65159273
 10
30908.87280933
 20
-40763.65162179
 10
30829.97501909
 20
-40792.36806898
 10
30829.97501909
 20
-40863.65162498
 10
31073.42454063
 20
-40863.65159273
  0
LWPOLYLINE
  5
2A9
100
AcDbEntity
  8
Ech.1_5
 62
   190
  6
CONTINUOUS
370
    -3
100
AcDbPolyline
 90
        5
 70
     1
 43
0.0
 10
31719.81840608
 20
-40663.65158425
 10
31179.23494782
 20
-40663.65158425
 10
31073.42454063
 20
-40703.7596896
 10
31073.42454063
 20
-40863.91289921
 10
31719.81840608
 20
-40863.91289921
  0
LWPOLYLINE
  5
2AA
100
AcDbEntity
  8
Ech.1_5
 62
   190
  6
CONTINUOUS
370
    -3
100
AcDbPolyline
 90
        4
 70
     1
 43
0.0
 10
31719.41907972
 20
-40863.65159273
 10
30735.07609245
 20
-40863.65162867
 10
30735.07609245
 20
-40963.65162867
 10
31719.41907972
 20
-40963.65159273
  0
LWPOLYLINE
  5
2AB
100
AcDbEntity
  8
Ech.1_5
 62
   190
  6
CONTINUOUS
370
    -3
100
AcDbPolyline
 90
      118
 70
     0
 43
0.0
 10
31719.41908033
 20
-40880.31825939
 42
1.14028181
 10
31686.65365265
 20
-40884.63192106
 10
31702.18451044
 20
-40942.67126623
 42
-1.30322619
 10
31669.9869881
 20
-40942.6712674
 10
31685.51784165
 20
-40884.6319211
 42
1.30322619
 10
31653.32031931
 20
-40884.63192227
 10
31668.85117711
 20
-40942.67126744
 42
-1.30322619
 10
31636.65365477
 20
-40942.67126862
 10
31652.18450832
 20
-40884.63192231
 42
1.30322619
 10
31619.98698598
 20
-40884.63192349
 10
31635.51784377
 20
-40942.67126866
 42
-1.30322619
 10
31603.32032143
 20
-40942.67126984
 10
31618.85117499
 20
-40884.63192353
 42
1.30322619
 10
31586.65365265
 20
-40884.63192471
 10
31602.18451044
 20
-40942.67126988
 42
-1.30322619
 10
31569.9869881
 20
-40942.67127105
 10
31585.51784165
 20
-40884.63192475
 42
1.30322619
 10
31553.32031931
 20
-40884.63192592
 10
31568.85117711
 20
-40942.67127109
 42
-1.30322619
 10
31536.65365477
 20
-40942.67127227
 10
31552.18450832
 20
-40884.63192597
 42
1.30322619
 10
31519.98698598
 20
-40884.63192714
 10
31535.51784377
 20
-40942.67127231
 42
-1.30322619
 10
31503.32032143
 20
-40942.67127349
 10
31518.85117499
 20
-40884.63192718
 42
1.30322619
 10
31486.65365265
 20
-40884.63192836
 10
31502.18451044
 20
-40942.67127353
 42
-1.30322619
 10
31469.9869881
 20
-40942.6712747
 10
31485.51784165
 20
-40884.6319284
 42
1.30322619
 10
31453.32031931
 20
-40884.63192958
 10
31468.85117711
 20
-40942.67127475
 42
-1.30322619
 10
31436.65365477
 20
-40942.67127592
 10
31452.18450832
 20
-40884.63192962
 42
1.30322619
 10
31419.98698598
 20
-40884.63193079
 10
31435.51784377
 20
-40942.67127596
 42
-1.30322619
 10
31403.32032143
 20
-40942.67127714
 10
31418.85117499
 20
-40884.63193083
 42
1.30322619
 10
31386.65365265
 20
-40884.63193201
 10
31402.18451044
 20
-40942.67127718
 42
-1.30322619
 10
31369.9869881
 20
-40942.67127836
 10
31385.51784165
 20
-40884.63193205
 42
1.30322619
 10
31353.32031931
 20
-40884.63193323
 10
31368.85117711
 20
-40942.6712784
 42
-1.30322619
 10
31336.65365477
 20
-40942.67127957
 10
31352.18450832
 20
-40884.63193327
 42
1.30322619
 10
31319.98698598
 20
-40884.63193445
 10
31335.51784377
 20
-40942.67127962
 42
-1.30322619
 10
31303.32032143
 20
-40942.67128079
 10
31318.85117499
 20
-40884.63193449
 42
1.30322619
 10
31286.65365265
 20
-40884.63193566
 10
31302.18451044
 20
-40942.67128083
 42
-1.30322619
 10
31269.9869881
 20
-40942.67128201
 10
31285.51784165
 20
-40884.6319357
 42
1.30322619
 10
31253.32031931
 20
-40884.63193688
 10
31268.85117711
 20
-40942.67128205
 42
-1.30322619
 10
31236.65365477
 20
-40942.67128323
 10
31252.18450832
 20
-40884.63193692
 42
1.30322619
 10
31219.98698598
 20
-40884.6319381
 10
31235.51784377
 20
-40942.67128327
 42
-1.30322619
 10
31203.32032143
 20
-40942.67128444
 10
31218.85117499
 20
-40884.63193814
 42
1.30322619
 10
31186.65365265
 20
-40884.63193931
 10
31202.18451044
 20
-40942.67128448
 42
-1.30322619
 10
31169.9869881
 20
-40942.67128566
 10
31185.51784165
 20
-40884.63193936
 42
1.30322619
 10
31153.32031931
 20
-40884.63194053
 10
31168.85117711
 20
-40942.6712857
 42
-1.30322619
 10
31136.65365477
 20
-40942.67128688
 10
31152.18450832
 20
-40884.63194057
 42
1.30322619
 10
31119.98698598
 20
-40884.63194175
 10
31135.51784377
 20
-40942.67128692
 42
-1.30322619
 10
31103.32032143
 20
-40942.67128809
 10
31118.85117499
 20
-40884.63194179
 42
1.30322619
 10
31086.65365265
 20
-40884.63194297
 10
31102.18451044
 20
-40942.67128814
 42
-1.30322619
 10
31069.9869881
 20
-40942.67128931
 10
31085.51784165
 20
-40884.63194301
 42
1.30322619
 10
31053.32031931
 20
-40884.63194418
 10
31068.85117711
 20
-40942.67128935
 42
-1.30322619
 10
31036.65365477
 20
-40942.67129053
 10
31052.18450832
 20
-40884.63194422
 42
1.30322619
 10
31019.98698598
 20
-40884.6319454
 10
31035.51784377
 20
-40942.67129057
 42
-1.30322619
 10
31003.32032143
 20
-40942.67129175
 10
31018.85117499
 20
-40884.63194544
 42
1.30322619
 10
30986.65365265
 20
-40884.63194662
 10
31002.18451044
 20
-40942.67129179
 42
-1.30322619
 10
30969.9869881
 20
-40942.67129296
 10
30985.51784165
 20
-40884.63194666
 42
1.30322619
 10
30953.32031931
 20
-40884.63194783
 10
30968.85117711
 20
-40942.67129301
 42
-1.30322619
 10
30936.65365477
 20
-40942.67129418
 10
30952.18450832
 20
-40884.63194788
 42
1.30322619
 10
30919.98698598
 20
-40884.63194905
 10
30935.51784377
 20
-40942.67129422
 42
-1.30322619
 10
30903.32032143
 20
-40942.6712954
 10
30918.85117499
 20
-40884.63194909
 42
1.30322619
 10
30886.65365265
 20
-40884.63195027
 10
30902.18451044
 20
-40942.67129544
 42
-1.30322619
 10
30869.9869881
 20
-40942.67129662
 10
30885.51784165
 20
-40884.63195031
 42
1.30322619
 10
30853.32031931
 20
-40884.63195149
 10
30868.85117711
 20
-40942.67129666
 42
-1.30322619
 10
30836.65365477
 20
-40942.67129783
 10
30852.18450832
 20
-40884.63195153
 42
1.30322619
 10
30819.98698598
 20
-40884.6319527
 10
30835.51784377
 20
-40942.67129787
 42
-1.30322619
 10
30803.32032143
 20
-40942.67129905
 10
30818.85117499
 20
-40884.63195275
 42
1.30322619
 10
30786.65365265
 20
-40884.63195392
 10
30802.18451044
 20
-40942.67129909
 42
-1.30322619
 10
30769.9869881
 20
-40942.67130027
 10
30785.51784165
 20
-40884.63195396
 42
1.30322619
 10
30753.32031931
 20
-40884.63195514
 10
30768.85117711
 20
-40942.67130031
 42
-1.30322619
 10
30736.65365477
 20
-40942.67130148
 10
30752.18450832
 20
-40884.63195518
 42
0.51212838
 10
30735.07609245
 20
-40863.68223881
  0
LWPOLYLINE
  5
2AC
100
AcDbEntity
  8
Ech.1_5
 62
   190
  6
CONTINUOUS
370
    -3
100
AcDbPolyline
 90
       18
 70
     0
 43
0.0
 10
31073.42454357
 20
-40780.31825939
 42
1.14028181
 10
31040.6591165
 20
-40784.63192565
 10
31056.18998242
 20
-40842.67126864
 42
-1.30322619
 10
31023.99246008
 20
-40842.67127433
 10
31039.52330551
 20
-40784.63192585
 42
1.30322619
 10
31007.32578317
 20
-40784.63193153
 10
31022.85664909
 20
-40842.67127453
 42
-1.30322619
 10
30990.65912675
 20
-40842.67128021
 10
31006.18997217
 20
-40784.63193173
 42
1.30322619
 10
30973.99244983
 20
-40784.63193742
 10
30989.52331576
 20
-40842.67128041
 42
-1.30322619
 10
30957.32579342
 20
-40842.6712861
 10
30972.85663884
 20
-40784.63193762
 42
1.30322619
 10
30940.6591165
 20
-40784.63194331
 10
30956.18998242
 20
-40842.6712863
 42
-1.30322619
 10
30923.99246008
 20
-40842.67129199
 10
30939.52330551
 20
-40784.63194351
 42
0.8833369
 10
30908.87281084
 20
-40772.19271808
  0
LWPOLYLINE
  5
2AD
100
AcDbEntity
  8
Ech.1_5
 62
   190
  6
CONTINUOUS
370
    -3
100
AcDbPolyline
 90
       32
 70
     0
 43
0.0
 10
31719.81840608
 20
-40697.02847007
 42
1.14028181
 10
31654.20192944
 20
-40705.66706324
 10
31685.30422523
 20
-40821.89742021
 42
-1.30322619
 10
31620.82504361
 20
-40821.89742021
 10
31651.92733941
 20
-40705.66706324
 42
1.30322619
 10
31587.44815779
 20
-40705.66706324
 10
31618.55045358
 20
-40821.89742021
 42
-1.30322619
 10
31554.07127196
 20
-40821.89742021
 10
31585.17356775
 20
-40705.66706324
 42
1.30322619
 10
31520.69438613
 20
-40705.66706324
 10
31551.79668192
 20
-40821.89742021
 42
-1.30322619
 10
31487.3175003
 20
-40821.89742021
 10
31518.4197961
 20
-40705.66706324
 42
1.30322619
 10
31453.94061448
 20
-40705.66706324
 10
31485.04291027
 20
-40821.89742021
 42
-1.30322619
 10
31420.56372865
 20
-40821.89742021
 10
31451.66602444
 20
-40705.66706324
 42
1.30322619
 10
31387.18684282
 20
-40705.66706324
 10
31418.28913861
 20
-40821.89742021
 42
-1.30322619
 10
31353.809957
 20
-40821.89742021
 10
31384.91225279
 20
-40705.66706324
 42
1.30322619
 10
31320.43307117
 20
-40705.66706324
 10
31351.53536696
 20
-40821.89742021
 42
-1.30322619
 10
31287.05618534
 20
-40821.89742021
 10
31318.15848113
 20
-40705.66706324
 42
1.30322619
 10
31253.67929951
 20
-40705.66706324
 10
31284.78159531
 20
-40821.89742021
 42
-1.30322619
 10
31220.30241369
 20
-40821.89742021
 10
31251.40470948
 20
-40705.66706324
 42
1.30322619
 10
31186.92552786
 20
-40705.66706324
 10
31218.02782365
 20
-40821.89742021
 42
-0.55615383
 10
31179.23494782
 20
-40863.2632339
  0
LWPOLYLINE
  5
2AE
100
AcDbEntity
  8
Ech.1_5
 62
   190
  6
CONTINUOUS
370
    -3
100
AcDbPolyline
 90
       10
 70
     0
 43
0.0
 10
31194.43928559
 20
-40696.43152548
 42
1.14028181
 10
31147.15797235
 20
-40721.32398161
 10
31203.21836377
 20
-40800.65762711
 42
-1.30322619
 10
31154.38263502
 20
-40818.68927507
 10
31145.4352262
 20
-40721.96007229
 42
1.30322619
 10
31096.59949745
 20
-40739.99172025
 10
31152.65988887
 20
-40819.32536575
 42
-1.30322619
 10
31103.82416012
 20
-40837.35701371
 10
31094.8767513
 20
-40740.62781094
 42
0.33079009
 10
31073.42454063
 20
-40716.6963073
  0
LWPOLYLINE
  5
2AF
100
AcDbEntity
  8
Ech.1_5
 62
   190
  6
CONTINUOUS
370
    -3
100
AcDbPolyline
 90
       12
 70
     0
 43
0.0
 10
30909.05786547
 20
-40777.85464734
 42
1.14028181
 10
30885.83471701
 20
-40789.94386214
 10
30913.12256705
 20
-40828.94262079
 42
-1.30322619
 10
30889.15338477
 20
-40837.66668968
 10
30884.9891718
 20
-40790.25161543
 42
1.30322619
 10
30861.01998952
 20
-40798.97568432
 10
30888.30783956
 20
-40837.97444297
 42
-1.30322619
 10
30864.33865727
 20
-40846.69851186
 10
30860.17444431
 20
-40799.28343761
 42
1.30322619
 10
30836.20526202
 20
-40808.0075065
 10
30863.49311206
 20
-40847.00626515
 42
-0.29128962
 10
30864.11649074
 20
-40861.17363203
  0
LWPOLYLINE
  5
2B0
100
AcDbEntity
  8
Ech.1_5
 62
     5
  6
CONTINUOUS
370
    -3
100
AcDbPolyline
 90
        5
 70
     0
 43
0.0
 10
31342.0033249
 20
-41023.65159273
 10
31342.0033249
 20
-40963.65159273
 10
31300.0033249
 20
-40963.65159273
 10
31300.0033249
 20
-41023.65159273
 10
31342.0033249
 20
-41023.65159273
  0
LWPOLYLINE
  5
2B1
100
AcDbEntity
  8
Ech.1_5
 62
     5
  6
CONTINUOUS
370
    -3
100
AcDbPolyline
 90
        7
 70
     0
 43
0.0
 10
30681.09014318
 20
-40963.65159273
 10
30726.09014318
 20
-40963.65159273
 10
30726.09014318
 20
-40873.65159273
 10
30702.50878417
 20
-40873.65159273
 10
30681.09014318
 20
-40873.65159273
 10
30681.09014318
 20
-40963.65159273
 10
30702.1129667
 20
-40963.65159273
  0
LWPOLYLINE
  5
2B2
100
AcDbEntity
  8
Ech.1_5
 62
     5
  6
CONTINUOUS
370
    -3
100
AcDbPolyline
 90
        5
 70
     0
 43
0.0
 10
30489.43139282
 20
-40858.8502127
 10
30527.01909765
 20
-40845.16940697
 10
30536.25364152
 20
-40870.54110773
 10
30498.66593669
 20
-40884.22191346
 10
30489.43139282
 20
-40858.8502127
  0
LWPOLYLINE
  5
2B3
100
AcDbEntity
  8
Ech.1_5
 62
     5
  6
CONTINUOUS
370
    -3
100
AcDbPolyline
 90
        5
 70
     0
 43
0.0
 10
30207.35236644
 20
-40933.57996317
 10
30243.42890311
 20
-40923.90326882
 10
30260.10236952
 20
-40971.05195089
 10
30207.36949087
 20
-40990.24514909
 10
30207.35236644
 20
-40933.57996317
  0
LWPOLYLINE
  5
2B4
100
AcDbEntity
  8
Ech.1_5
 62
     5
  6
CONTINUOUS
370
    -3
100
AcDbPolyline
 90
        5
 70
     0
 43
0.0
 10
30828.07722681
 20
-40735.55461925
 10
30865.66493164
 20
-40721.87381351
 10
30874.89947551
 20
-40747.24551428
 10
30837.31177068
 20
-40760.92632001
 10
30828.07722681
 20
-40735.55461925
  0
LWPOLYLINE
  5
2B5
100
AcDbEntity
  8
Ech.1_5
 62
     5
  6
CONTINUOUS
370
    -3
100
AcDbPolyline
 90
        5
 70
     0
 43
0.0
 10
31166.6624171
 20
-40612.24948263
 10
31204.25012193
 20
-40598.56867689
 10
31213.4846658
 20
-40623.94037765
 10
31175.89696097
 20
-40637.62118339
 10
31166.6624171
 20
-40612.24948263
  0
LWPOLYLINE
  5
2B6
100
AcDbEntity
  8
Ech.1_5
 62
     5
  6
CONTINUOUS
370
    -3
100
AcDbPolyline
 90
        5
 70
     0
 43
0.0
 10
31505.2629959
 20
-40489.00807175
 10
31542.85070073
 20
-40475.32726602
 10
31552.0852446
 20
-40500.69896678
 10
31514.49753977
 20
-40514.37977251
 10
31505.2629959
 20
-40489.00807175
  0
LWPOLYLINE
  5
2B7
100
AcDbEntity
  8
Ech.1_5
 62
     5
  6
CONTINUOUS
370
    -3
100
AcDbPolyline
 90
        5
 70
     0
 43
0.0
 10
30200.7578453
 20
-41127.80216838
 10
30238.34555013
 20
-41114.12136265
 10
30247.580094
 20
-41139.49306341
 10
30209.99238917
 20
-41153.17386914
 10
30200.7578453
 20
-41127.80216838
  0
LWPOLYLINE
  5
2B8
100
AcDbEntity
  8
Ech.1_5
 62
     5
  6
CONTINUOUS
370
    -3
100
AcDbPolyline
 90
        5
 70
     0
 43
0.0
 10
30530.93559622
 20
-41007.70395727
 10
30568.52330105
 20
-40994.02315154
 10
30577.75784492
 20
-41019.3948523
 10
30540.17014009
 20
-41033.07565803
 10
30530.93559622
 20
-41007.70395727
  0
LINE
  5
2B9
100
AcDbEntity
  8
Ech.1_5
370
    35
100
AcDbLine
 10
31345.24786169
 20
-41048.22847555
 30
0.0
 11
31345.24786169
 21
-40971.15994159
 31
0.0
  0
LINE
  5
2BA
100
AcDbEntity
  8
Ech.1_5
  6
DASHEDX2
 48
0.2
370
    35
100
AcDbLine
 10
31345.24786169
 20
-41048.22847555
 30
0.0
 11
31345.24786169
 21
-41072.15994159
 31
0.0
  0
LWPOLYLINE
  5
2BB
100
AcDbEntity
  8
Ech.1_5
 62
     1
  6
CADWORK_22
 48
-5.0
370
    35
100
AcDbPolyline
 90
        3
 70
     0
 43
0.0
 10
30833.15129057
 20
-41003.67890062
 10
30833.15129057
 20
-40965.15159273
 10
31719.41907972
 20
-40965.15159273
  0
LWPOLYLINE
  5
2BC
100
AcDbEntity
  8
Ech.1_5
 62
     9
  6
CADWORK_22
370
    35
100
AcDbPolyline
 90
        4
 70
     0
 43
0.0
 38
2500.0
 10
30214.02141011
 20
-41012.33003658
 10
30265.06686986
 20
-40993.47507094
 10
30271.9951777
 20
-40993.85985591
 10
31719.81840608
 20
-40466.8952963
  0
LINE
  5
2BD
100
AcDbEntity
  8
Ech.1_5
370
    35
100
AcDbLine
 10
30880.32848091
 20
-41048.22847555
 30
0.0
 11
30880.32848091
 21
-40971.15994159
 31
0.0
  0
LINE
  5
2BE
100
AcDbEntity
  8
Ech.1_5
  6
DASHEDX2
 48
0.2
370
    35
100
AcDbLine
 10
30880.32848091
 20
-41048.22847555
 30
0.0
 11
30880.32848091
 21
-41072.15994159
 31
0.0
  0
LWPOLYLINE
  5
2BF
102
{ACAD_REACTORS
330
2C0
102
}
100
AcDbEntity
  8
Ech.1_5
 62
     9
  6
CONTINUOUS
370
    -3
100
AcDbPolyline
 90
        8
 70
     1
 43
0.0
 38
2500.0
 39
-2500.0
 10
30830.25373245
 20
-40963.65159273
 10
30651.7578453
 20
-40963.65159273
 10
30651.7579634
 20
-41294.0840696
 10
30756.96133772
 20
-41294.0840696
 10
30773.44684087
 20
-41276.10672119
 10
30759.33690085
 20
-41312.0624212
 10
30775.82325494
 20
-41294.0840696
 10
30830.25373245
 20
-41294.0840696
  0
HATCH
  5
2C0
100
AcDbEntity
  8
Ech.1_5
 62
     9
  6
CONTINUOUS
100
AcDbHatch
 10
0.0
 20
0.0
 30
0.0
210
0.0
220
0.0
230
1.0
  2
ANSI31
 70
     0
 71
     1
 91
        1
 92
        7
 72
     0
 73
     1
 93
        8
 10
30830.25373245
 20
-40963.65159273
 10
30651.7578453
 20
-40963.65159273
 10
30651.7579634
 20
-41294.0840696
 10
30756.96133772
 20
-41294.0840696
 10
30773.44684087
 20
-41276.10672119
 10
30759.33690085
 20
-41312.0624212
 10
30775.82325494
 20
-41294.0840696
 10
30830.25373245
 20
-41294.0840696
 97
        1
330
2BF
 75
     0
 76
     2
 52
0.0
 41
4.72443907
 77
     0
 78
     1
 53
45.0
 43
0.0
 44
0.0
 45
10.60660172
 46
-10.60660172
 79
     0
 47
0.775229
 98
        1
 10
0.0
 20
0.0
  0
LWPOLYLINE
  5
2C1
100
AcDbEntity
  8
Ech.1_5
 62
   190
  6
CONTINUOUS
370
    -3
100
AcDbPolyline
 90
        4
 70
     1
 43
0.0
 10
30840.25373245
 20
-41294.0840696
 10
30890.25373245
 20
-41294.0840696
 10
30890.25373245
 20
-41085.16010409
 10
30840.25373245
 20
-41085.16010409
  0
LWPOLYLINE
  5
2C2
100
AcDbEntity
  8
Ech.1_5
 62
   190
  6
CONTINUOUS
370
    -3
100
AcDbPolyline
 90
        4
 70
     1
 43
0.0
 10
30903.25368449
 20
-41085.16010409
 10
30890.25368449
 20
-41085.16010409
 10
30890.25370287
 20
-41294.0840696
 10
30903.25370287
 20
-41294.0840696
  0
LWPOLYLINE
  5
2C3
102
{ACAD_REACTORS
330
2C4
102
}
100
AcDbEntity
  8
Ech.1_5
 62
     7
  6
CONTINUOUS
370
    -3
100
AcDbPolyline
 90
        4
 70
     1
 43
0.0
 10
30890.25368449
 20
-41085.16026088
 10
30890.25370287
 20
-41294.0840696
 10
30903.25370287
 20
-41294.0840696
 10
30903.25368449
 20
-41085.16010409
  0
HATCH
  5
2C4
100
AcDbEntity
  8
Ech.1_5
 62
   190
  6
CONTINUOUS
100
AcDbHatch
 10
0.0
 20
0.0
 30
0.0
210
0.0
220
0.0
230
1.0
  2
DOTS2
 70
     0
 71
     1
 91
        1
 92
        7
 72
     0
 73
     1
 93
        4
 10
30890.25368449
 20
-41085.16026088
 10
30890.25370287
 20
-41294.0840696
 10
30903.25370287
 20
-41294.0840696
 10
30903.25368449
 20
-41085.16010409
 97
        1
330
2C3
 75
     0
 76
     2
 52
0.0
 41
4.72440952
 77
     0
 78
     1
 53
0.0
 43
0.0
 44
0.0
 45
3.75
 46
3.535
 79
     2
 49
0.0
 49
-3.535
 47
0.775229
 98
        1
 10
0.0
 20
0.0
  0
LWPOLYLINE
  5
2C5
100
AcDbEntity
  8
Ech.1_5
 62
   190
  6
CONTINUOUS
370
    -3
100
AcDbPolyline
 90
       50
 70
     0
 43
0.0
 10
30881.92039912
 20
-41294.08407151
 42
1.14028181
 10
30879.76356513
 20
-41277.70135809
 10
30850.74389404
 20
-41285.46679259
 42
-1.30322619
 10
30850.74389035
 20
-41269.36803142
 10
30879.763565
 20
-41277.13345259
 42
1.30322619
 10
30879.7635613
 20
-41261.03469142
 10
30850.74389021
 20
-41268.80012592
 42
-1.30322619
 10
30850.74388652
 20
-41252.70136475
 10
30879.76356117
 20
-41260.46678592
 42
1.30322619
 10
30879.76355747
 20
-41244.36802475
 10
30850.74388639
 20
-41252.13345925
 42
-1.30322619
 10
30850.74388269
 20
-41236.03469808
 10
30879.76355734
 20
-41243.80011926
 42
1.30322619
 10
30879.76355365
 20
-41227.70135809
 10
30850.74388256
 20
-41235.46679259
 42
-1.30322619
 10
30850.74387887
 20
-41219.36803142
 10
30879.76355352
 20
-41227.13345259
 42
1.30322619
 10
30879.76354982
 20
-41211.03469142
 10
30850.74387874
 20
-41218.80012592
 42
-1.30322619
 10
30850.74387504
 20
-41202.70136475
 10
30879.76354969
 20
-41210.46678592
 42
1.30322619
 10
30879.763546
 20
-41194.36802475
 10
30850.74387491
 20
-41202.13345925
 42
-1.30322619
 10
30850.74387122
 20
-41186.03469808
 10
30879.76354587
 20
-41193.80011926
 42
1.30322619
 10
30879.76354217
 20
-41177.70135809
 10
30850.74387108
 20
-41185.46679259
 42
-1.30322619
 10
30850.74386739
 20
-41169.36803142
 10
30879.76354204
 20
-41177.13345259
 42
1.30322619
 10
30879.76353834
 20
-41161.03469142
 10
30850.74386726
 20
-41168.80012592
 42
-1.30322619
 10
30850.74386356
 20
-41152.70136475
 10
30879.76353821
 20
-41160.46678592
 42
1.30322619
 10
30879.76353452
 20
-41144.36802475
 10
30850.74386343
 20
-41152.13345925
 42
-1.30322619
 10
30850.74385974
 20
-41136.03469808
 10
30879.76353439
 20
-41143.80011926
 42
1.30322619
 10
30879.76353069
 20
-41127.70135809
 10
30850.74385961
 20
-41135.46679259
 42
-1.30322619
 10
30850.74385591
 20
-41119.36803142
 10
30879.76353056
 20
-41127.13345259
 42
1.30322619
 10
30879.76352687
 20
-41111.03469142
 10
30850.74385578
 20
-41118.80012592
 42
-1.30322619
 10
30850.74385208
 20
-41102.70136475
 10
30879.76352674
 20
-41110.46678592
 42
1.30322619
 10
30879.76352304
 20
-41094.36802475
 10
30850.74385195
 20
-41102.13345925
 42
-1.30322619
 10
30850.74384826
 20
-41086.03469808
 10
30879.76352291
 20
-41093.80011926
 42
0.51538904
 10
30890.23272736
 20
-41085.1601041
  0
LWPOLYLINE
  5
2C6
100
AcDbEntity
  8
Ech.1_5
 62
   190
  6
CONTINUOUS
370
    -3
100
AcDbPolyline
 90
        5
 70
     0
 43
0.0
 10
31382.38691655
 20
-41548.6081161
 10
31382.38691655
 20
-40563.6081161
 10
30027.38691655
 20
-40563.6081161
 10
30027.38691655
 20
-41548.6081161
 10
31382.38691655
 20
-41548.6081161
  0
TEXT
  5
2C7
100
AcDbEntity
  8
Ech.1_5
 62
   190
100
AcDbText
 10
30121.13512599
 20
-41392.39643355
 30
0.0
 40
8.00000012
  1
Echelle en mm
  7
ARIAL
 50
0.0
 41
1.0
 51
0.0
100
AcDbText
  0
TEXT
  5
2C8
100
AcDbEntity
  8
Ech.1_5
 62
   190
100
AcDbText
 10
30107.15454124
 20
-41420.60626908
 30
0.0
 40
8.00000012
  1
0
  7
ARIAL
 50
0.0
 41
1.0
 51
0.0
100
AcDbText
  0
TEXT
  5
2C9
100
AcDbEntity
  8
Ech.1_5
 62
   190
100
AcDbText
 10
30193.75159913
 20
-41420.60626908
 30
0.0
 40
8.00000012
  1
100
  7
ARIAL
 50
0.0
 41
1.0
 51
0.0
100
AcDbText
  0
TEXT
  5
2CA
100
AcDbEntity
  8
Ech.1_5
 62
   190
100
AcDbText
 10
30155.01116756
 20
-41420.60626908
 30
0.0
 40
8.00000012
  1
50
  7
ARIAL
 50
0.0
 41
1.0
 51
0.0
100
AcDbText
  0
INSERT
  5
2CB
100
AcDbEntity
  8
Ech.1_5
 62
     7
370
    -3
100
AcDbBlockReference
  2
CDWK_PTTYP30
 10
30884.51436751
 20
-40407.31165294
 30
0.0
 41
2.5
 42
2.5
 43
1.0
  0
ENDSEC
  0
SECTION
  2
OBJECTS
  0
DICTIONARY
  5
1
100
AcDbDictionary
  3
ACAD_GROUP
350
2
  3
ACAD_MLINESTYLE
350
3
  0
DICTIONARY
  5
2
102
{CDWK_REACTORS
330
1
102
}
100
AcDbDictionary
  0
DICTIONARY
  5
3
102
{CDWK_REACTORS
330
1
102
}
100
AcDbDictionary
  3
STANDARD
350
4
  0
MLINESTYLE
  5
4
102
{CDWK_REACTORS
330
3
102
}
100
AcDbMlineStyle
  2
STANDARD
 70
     0
  3

 62
     0
 51
90.0
 52
90.0
 71
     2
 49
0.5
 62
   256
  6
BYLAYER
 49
-0.5
 62
   256
  6
BYLAYER
  0
ENDSEC
  0
EOF
