  0
SECTION
  2
HEADER
  9
$ACADVER
  1
AC1014
  9
$DWGCODEPAGE
  3
ANSI_1252
  9
$INSBASE
 10
0.0
 20
0.0
 30
0.0
  9
$EXTMIN
 10
8298.84597889
 20
-24684.08053157
  9
$EXTMAX
 10
37424.67442951
 20
-5997.09001988
  9
$LIMMIN
 10
8298.84597889
 20
-24684.08053157
  9
$LIMMAX
 10
37424.67442951
 20
-5997.09001988
  9
$ORTHOMODE
 70
     0
  9
$REGENMODE
 70
     1
  9
$FILLMODE
 70
     1
  9
$QTEXTMODE
 70
     0
  9
$MIRRTEXT
 70
     1
  9
$DRAGMODE
 70
     2
  9
$LTSCALE
 40
5.0
  9
$OSMODE
 70
     0
  9
$ATTMODE
 70
     1
  9
$TEXTSIZE
 40
3.5
  9
$TRACEWID
 40
1.0
  9
$TEXTSTYLE
  7
STANDARD
  9
$CLAYER
  8
0
  9
$CELTYPE
  6
BYLAYER
  9
$CECOLOR
 62
   256
  9
$DIMSCALE
 40
1.0
  9
$DIMASZ
 40
2.0
  9
$DIMEXO
 40
5.0
  9
$DIMDLI
 40
10.0
  9
$DIMRND
 40
0.0
  9
$DIMDLE
 40
2.0
  9
$DIMEXE
 40
2.0
  9
$DIMTP
 40
0.0
  9
$DIMTM
 40
0.0
  9
$DIMTXT
 40
2.5
  9
$DIMCEN
 40
1.5
  9
$DIMTSZ
 40
0.0
  9
$DIMTOL
 70
     0
  9
$DIMLIM
 70
     0
  9
$DIMTIH
 70
     1
  9
$DIMTOH
 70
     0
  9
$DIMSE1
 70
     0
  9
$DIMSE2
 70
     0
  9
$DIMTAD
 70
     1
  9
$DIMZIN
 70
     8
  9
$DIMBLK
  1

  9
$DIMASO
 70
     1
  9
$DIMSHO
 70
     1
  9
$DIMPOST
  1

  9
$DIMAPOST
  1

  9
$DIMALT
 70
     0
  9
$DIMALTD
 70
     2
  9
$DIMALTF
 40
25.4
  9
$DIMLFAC
 40
1.0
  9
$DIMTOFL
 70
     0
  9
$DIMTVP
 40
0.0
  9
$DIMTIX
 70
     0
  9
$DIMSOXD
 70
     0
  9
$DIMSAH
 70
     0
  9
$DIMBLK1
  1

  9
$DIMBLK2
  1

  9
$DIMSTYLE
  2
*UNNAMED
  9
$DIMCLRD
 70
   190
  9
$DIMCLRE
 70
   190
  9
$DIMCLRT
 70
   190
  9
$DIMTFAC
 40
1.0
  9
$DIMGAP
 40
0.09
  9
$DIMUNIT
 70
     2
  9
$LUNITS
 70
     2
  9
$LUPREC
 70
     6
  9
$AXISMODE
 70
     0
  9
$AXISUNIT
 10
0.0
 20
0.0
  9
$SKETCHINC
 40
0.1
  9
$FILLETRAD
 40
0.0
  9
$AUNITS
 70
     0
  9
$AUPREC
 70
     0
  9
$MENU
  1
ACAD
  9
$ELEVATION
 40
0.0
  9
$PELEVATION
 40
0.0
  9
$THICKNESS
 40
0.0
  9
$LIMCHECK
 70
     0
  9
$BLIPMODE
 70
     1
  9
$CHAMFERA
 40
0.0
  9
$CHAMFERB
 40
0.0
  9
$SKPOLY
 70
     1
  9
$TDCREATE
 40
2457811.0000000000
  9
$TDUPDATE
 40
2457811.0000000000
  9
$TDINDWG
 40
0.0
  9
$TDUSRTIMER
 40
0.0
  9
$USRTIMER
 70
     1
  9
$ANGBASE
 50
0.0
  9
$ANGDIR
 70
     0
  9
$PDMODE
 70
     0
  9
$PDSIZE
 40
0.0
  9
$PLINEWID
 40
0.0
  9
$COORDS
 70
     2
  9
$SPLFRAME
 70
     0
  9
$SPLINETYPE
 70
     6
  9
$SPLINESEGS
 70
     8
  9
$ATTDIA
 70
     1
  9
$ATTREQ
 70
     1
  9
$HANDLING
 70
     1
  9
$HANDSEED
  5
     5A4
  9
$SURFTAB1
 70
     6
  9
$SURFTAB2
 70
     6
  9
$SURFTYPE
 70
     6
  9
$SURFU
 70
     6
  9
$SURFV
 70
     6
  9
$UCSNAME
  2

  9
$UCSORG
 10
0.0
 20
0.0
 30
0.0
  9
$UCSXDIR
 10
1.0
 20
0.0
 30
0.0
  9
$UCSYDIR
 10
0.0
 20
1.0
 30
0.0
  9
$PUCSNAME
  2

  9
$PUCSORG
 10
0.0
 20
0.0
 30
0.0
  9
$PUCSXDIR
 10
1.0
 20
0.0
 30
0.0
  9
$PUCSYDIR
 10
0.0
 20
1.0
 30
0.0
  9
$USERI1
 70
     0
  9
$USERI2
 70
     0
  9
$USERI3
 70
     0
  9
$USERI4
 70
     0
  9
$USERI5
 70
     0
  9
$USERR1
 40
0.0
  9
$USERR2
 40
0.0
  9
$USERR3
 40
0.0
  9
$USERR4
 40
0.0
  9
$USERR5
 40
0.0
  9
$WORLDVIEW
 70
     1
  9
$SHADEDGE
 70
     3
  9
$SHADEDIF
 70
    70
  9
$TILEMODE
 70
     1
  9
$MAXACTVP
 70
    16
  9
$PINSBASE
 10
0.0
 20
0.0
 30
0.0
  9
$PLIMCHECK
 70
     0
  9
$PEXTMIN
 10
1.0000000000000E+20
 20
1.0000000000000E+20
 30
1.0000000000000E+20
  9
$PEXTMAX
 10
-1.0000000000000E+20
 20
-1.0000000000000E+20
 30
-1.0000000000000E+20
  9
$PLIMMIN
 10
0.0
 20
0.0
  9
$UNITMODE
 70
     0
  9
$VISRETAIN
 70
     0
  9
$MEASUREMENT
 70
     1
  0
ENDSEC
  0
SECTION
  2
TABLES
  0
TABLE
  2
VPORT
  5
36E
100
AcDbSymbolTable
 70
     1
  0
ENDTAB
  0
TABLE
  2
STYLE
  5
36F
100
AcDbSymbolTable
 70
     3
  0
STYLE
  5
370
100
AcDbSymbolTableRecord
100
AcDbTextStyleTableRecord
  2
STANDARD
 70
     0
 40
0.0
 41
1.0
 50
0.0
 71
     0
 42
3.5
  3
MONOTXT
  4

  0
STYLE
  5
371
100
AcDbSymbolTableRecord
100
AcDbTextStyleTableRecord
  2
SYMAP
 70
     0
 40
0.0
 41
1.0
 50
0.0
 71
     0
 42
3.5
  3
SYMAP
  4

  0
STYLE
  5
372
100
AcDbSymbolTableRecord
100
AcDbTextStyleTableRecord
  2
CADWORK1
 70
     0
 40
0.0
 41
1.0
 50
0.0
 71
     0
 42
3.5
  3
MONOTXT
  4

  0
STYLE
  5
373
100
AcDbSymbolTableRecord
100
AcDbTextStyleTableRecord
  2
MONOTXT
 70
     0
 40
0.0
 41
1.0
 50
0.0
 71
     0
 42
3.5
  3
MONOTXT
  4

  0
STYLE
  5
374
100
AcDbSymbolTableRecord
100
AcDbTextStyleTableRecord
  2
ARIAL
 70
     0
 40
0.0
 41
1.0
 50
0.0
 71
     0
 42
3.5
  3

  4

1001
ACAD
1000
Arial
1071
        0
  0
ENDTAB
  0
TABLE
  2
LTYPE
  5
375
100
AcDbSymbolTable
 70
    13
  0
LTYPE
  5
376
100
AcDbSymbolTableRecord
100
AcDbLinetypeTableRecord
  2
BYBLOCK
 70
    64
  3

 72
    65
 73
     0
 40
0.0
  0
LTYPE
  5
377
100
AcDbSymbolTableRecord
100
AcDbLinetypeTableRecord
  2
BYLAYER
 70
    64
  3

 72
    65
 73
     0
 40
0.0
  0
LTYPE
  5
378
100
AcDbSymbolTableRecord
100
AcDbLinetypeTableRecord
  2
CONTINUOUS
 70
    64
  3
Solid line
 72
    65
 73
     0
 40
0.0
  0
LTYPE
  5
379
100
AcDbSymbolTableRecord
100
AcDbLinetypeTableRecord
  2
DOT2
 70
    64
  3
...............................................
 72
    65
 73
     2
 40
1.25
 49
0.0
 74
     0
 49
-1.25
 74
     0
  0
LTYPE
  5
37A
100
AcDbSymbolTableRecord
100
AcDbLinetypeTableRecord
  2
DASHDOT
 70
    64
  3
 __ . __ . __ . __ . __ . __ . __ . __ . __ . __
 72
    65
 73
     4
 40
10.0
 49
5.0
 74
     0
 49
-2.5
 74
     0
 49
0.0
 74
     0
 49
-2.5
 74
     0
  0
LTYPE
  5
37B
100
AcDbSymbolTableRecord
100
AcDbLinetypeTableRecord
  2
CENTER
 70
    64
  3
 ____ _ ____ _ ____ _ ____ _ ____ _ ____ _ ____
 72
    65
 73
     4
 40
20.0
 49
12.5
 74
     0
 49
-2.5
 74
     0
 49
2.5
 74
     0
 49
-2.5
 74
     0
  0
LTYPE
  5
37C
100
AcDbSymbolTableRecord
100
AcDbLinetypeTableRecord
  2
CADWORK_22
 70
    64
  3
22 =======================================
 72
    65
 73
     0
 40
0.0
  0
LTYPE
  5
37D
100
AcDbSymbolTableRecord
100
AcDbLinetypeTableRecord
  2
DAL
 70
    64
  3
Solid line (for MAPS)
 72
    65
 73
     0
 40
0.0
  0
LTYPE
  5
37E
100
AcDbSymbolTableRecord
100
AcDbLinetypeTableRecord
  2
MUR
 70
    64
  3
Solid line (for MAPS)
 72
    65
 73
     0
 40
0.0
  0
LTYPE
  5
37F
100
AcDbSymbolTableRecord
100
AcDbLinetypeTableRecord
  2
SOM
 70
    64
  3
Solid line (for MAPS)
 72
    65
 73
     0
 40
0.0
  0
LTYPE
  5
380
100
AcDbSymbolTableRecord
100
AcDbLinetypeTableRecord
  2
COL
 70
    64
  3
Solid line (for MAPS)
 72
    65
 73
     0
 40
0.0
  0
LTYPE
  5
381
100
AcDbSymbolTableRecord
100
AcDbLinetypeTableRecord
  2
LGN
 70
    64
  3
Solid line (for MAPS)
 72
    65
 73
     0
 40
0.0
  0
LTYPE
  5
382
100
AcDbSymbolTableRecord
100
AcDbLinetypeTableRecord
  2
PNT
 70
    64
  3
Solid line (for MAPS)
 72
    65
 73
     0
 40
0.0
  0
ENDTAB
  0
TABLE
  2
LAYER
  5
383
100
AcDbSymbolTable
 70
    32
  0
LAYER
  5
384
100
AcDbSymbolTableRecord
100
AcDbLayerTableRecord
  2
Standard
 70
     0
 62
     7
  6
CONTINUOUS
370
    -3
  0
LAYER
  5
385
100
AcDbSymbolTableRecord
100
AcDbLayerTableRecord
  2
Ech.1_1
 70
     0
 62
     7
  6
CONTINUOUS
370
    -3
  0
LAYER
  5
386
100
AcDbSymbolTableRecord
100
AcDbLayerTableRecord
  2
Ech.1_2
 70
     0
 62
     7
  6
CONTINUOUS
370
    -3
  0
LAYER
  5
387
100
AcDbSymbolTableRecord
100
AcDbLayerTableRecord
  2
Ech.1_5
 70
     0
 62
     7
  6
CONTINUOUS
370
    -3
  0
LAYER
  5
388
100
AcDbSymbolTableRecord
100
AcDbLayerTableRecord
  2
Ech.1_10
 70
     0
 62
     7
  6
CONTINUOUS
370
    -3
  0
LAYER
  5
389
100
AcDbSymbolTableRecord
100
AcDbLayerTableRecord
  2
Ech.1_20
 70
     0
 62
     7
  6
CONTINUOUS
370
    -3
  0
LAYER
  5
38A
100
AcDbSymbolTableRecord
100
AcDbLayerTableRecord
  2
Ech.1_25
 70
     0
 62
     7
  6
CONTINUOUS
370
    -3
  0
LAYER
  5
38B
100
AcDbSymbolTableRecord
100
AcDbLayerTableRecord
  2
Ech.1_33
 70
     0
 62
     7
  6
CONTINUOUS
370
    -3
  0
LAYER
  5
38C
100
AcDbSymbolTableRecord
100
AcDbLayerTableRecord
  2
Ech.1_50
 70
     0
 62
     7
  6
CONTINUOUS
370
    -3
  0
LAYER
  5
38D
100
AcDbSymbolTableRecord
100
AcDbLayerTableRecord
  2
Ech.1_75
 70
     0
 62
     7
  6
CONTINUOUS
370
    -3
  0
LAYER
  5
38E
100
AcDbSymbolTableRecord
100
AcDbLayerTableRecord
  2
Ech.1_100
 70
     0
 62
     7
  6
CONTINUOUS
370
    -3
  0
LAYER
  5
38F
100
AcDbSymbolTableRecord
100
AcDbLayerTableRecord
  2
Ech.1_200
 70
     0
 62
     7
  6
CONTINUOUS
370
    -3
  0
LAYER
  5
390
100
AcDbSymbolTableRecord
100
AcDbLayerTableRecord
  2
Ech.1_500
 70
     0
 62
     7
  6
CONTINUOUS
370
    -3
  0
LAYER
  5
391
100
AcDbSymbolTableRecord
100
AcDbLayerTableRecord
  2
Ech.1_1000
 70
     0
 62
     7
  6
CONTINUOUS
370
    -3
  0
LAYER
  5
392
100
AcDbSymbolTableRecord
100
AcDbLayerTableRecord
  2
Cadres traceur
 70
     0
 62
     7
  6
CONTINUOUS
370
    18
  0
LAYER
  5
393
100
AcDbSymbolTableRecord
100
AcDbLayerTableRecord
  2
Cadres laser
 70
     0
 62
     7
  6
CONTINUOUS
370
    18
  0
LAYER
  5
394
100
AcDbSymbolTableRecord
100
AcDbLayerTableRecord
  2
Légende d_aide
 70
     0
 62
     7
  6
CONTINUOUS
370
    18
  0
LAYER
  5
395
100
AcDbSymbolTableRecord
100
AcDbLayerTableRecord
  2
hachures ok
 70
     0
 62
     7
  6
CONTINUOUS
370
    18
  0
LAYER
  5
396
100
AcDbSymbolTableRecord
100
AcDbLayerTableRecord
  2
ossature bois
 70
     0
 62
     7
  6
CONTINUOUS
370
    18
  0
LAYER
  5
397
100
AcDbSymbolTableRecord
100
AcDbLayerTableRecord
  2
VR
 70
     0
 62
     7
  6
CONTINUOUS
370
    25
  0
LAYER
  5
398
100
AcDbSymbolTableRecord
100
AcDbLayerTableRecord
  2
Calque1
 70
     0
 62
     7
  6
CONTINUOUS
370
     9
  0
LAYER
  5
399
100
AcDbSymbolTableRecord
100
AcDbLayerTableRecord
  2
0
 70
     0
 62
     7
  6
CONTINUOUS
370
    -3
  0
LAYER
  5
39A
100
AcDbSymbolTableRecord
100
AcDbLayerTableRecord
  2
menuiserie
 70
     0
 62
     7
  6
CONTINUOUS
370
    -3
  0
LAYER
  5
39B
100
AcDbSymbolTableRecord
100
AcDbLayerTableRecord
  2
cotation
 70
     0
 62
   250
  6
CONTINUOUS
370
     9
  0
LAYER
  5
39C
100
AcDbSymbolTableRecord
100
AcDbLayerTableRecord
  2
Defpoints
 70
     0
 62
    10
  6
CONTINUOUS
370
    -3
  0
LAYER
  5
39D
100
AcDbSymbolTableRecord
100
AcDbLayerTableRecord
  2
HACHURE
 70
     0
 62
   254
  6
CONTINUOUS
370
    25
  0
LAYER
  5
39E
100
AcDbSymbolTableRecord
100
AcDbLayerTableRecord
  2
mat1
 70
     0
 62
     7
  6
CONTINUOUS
370
    30
  0
LAYER
  5
39F
100
AcDbSymbolTableRecord
100
AcDbLayerTableRecord
  2
mat2
 70
     0
 62
     7
  6
CONTINUOUS
370
     5
  0
LAYER
  5
3A0
100
AcDbSymbolTableRecord
100
AcDbLayerTableRecord
  2
hach
 70
     0
 62
     8
  6
CONTINUOUS
370
     5
  0
LAYER
  5
3A1
100
AcDbSymbolTableRecord
100
AcDbLayerTableRecord
  2
menuiseries
 70
     0
 62
     7
  6
CONTINUOUS
370
     9
  0
LAYER
  5
3A2
100
AcDbSymbolTableRecord
100
AcDbLayerTableRecord
  2
BétonMétal
 70
     0
 62
     7
  6
CONTINUOUS
370
    80
  0
LAYER
  5
3A3
100
AcDbSymbolTableRecord
100
AcDbLayerTableRecord
  2
bois
 70
     0
 62
     7
  6
CONTINUOUS
370
    60
  0
ENDTAB
  0
TABLE
  2
VIEW
  5
3A4
100
AcDbSymbolTable
 70
     0
  0
ENDTAB
  0
TABLE
  2
UCS
  5
3A5
100
AcDbSymbolTable
 70
     0
  0
ENDTAB
  0
TABLE
  2
APPID
  5
3A6
100
AcDbSymbolTable
 70
     1
  0
APPID
  5
3A7
100
AcDbSymbolTableRecord
100
AcDbRegAppTableRecord
  2
ACAD
 70
     0
  0
ENDTAB
  0
TABLE
  2
DIMSTYLE
  5
3A8
100
AcDbSymbolTable
 70
     0
  0
ENDTAB
  0
TABLE
  2
BLOCK_RECORD
  5
3A9
100
AcDbSymbolTable
 70
     0
  0
BLOCK_RECORD
  5
3AA
100
AcDbSymbolTableRecord
100
AcDbBlockTableRecord
  2
*MODEL_SPACE
  0
BLOCK_RECORD
  5
3AB
100
AcDbSymbolTableRecord
100
AcDbBlockTableRecord
  2
*PAPER_SPACE
  0
BLOCK_RECORD
  5
3AC
100
AcDbSymbolTableRecord
100
AcDbBlockTableRecord
  2
CDWK_EXTR_0
  0
BLOCK_RECORD
  5
3AD
100
AcDbSymbolTableRecord
100
AcDbBlockTableRecord
  2
CDWK_EXTR_1D
  0
BLOCK_RECORD
  5
3AE
100
AcDbSymbolTableRecord
100
AcDbBlockTableRecord
  2
CDWK_EXTR_1G
  0
BLOCK_RECORD
  5
3AF
100
AcDbSymbolTableRecord
100
AcDbBlockTableRecord
  2
CDWK_EXTR_2
  0
BLOCK_RECORD
  5
3B0
100
AcDbSymbolTableRecord
100
AcDbBlockTableRecord
  2
CDWK_EXTR_3
  0
BLOCK_RECORD
  5
3B1
100
AcDbSymbolTableRecord
100
AcDbBlockTableRecord
  2
CDWK_EXTR_4
  0
BLOCK_RECORD
  5
3B2
100
AcDbSymbolTableRecord
100
AcDbBlockTableRecord
  2
CDWK_PTTYP0
  0
BLOCK_RECORD
  5
3B3
100
AcDbSymbolTableRecord
100
AcDbBlockTableRecord
  2
CDWK_PTTYP1
  0
BLOCK_RECORD
  5
3B4
100
AcDbSymbolTableRecord
100
AcDbBlockTableRecord
  2
CDWK_PTTYP2
  0
BLOCK_RECORD
  5
3B5
100
AcDbSymbolTableRecord
100
AcDbBlockTableRecord
  2
CDWK_PTTYP3
  0
BLOCK_RECORD
  5
3B6
100
AcDbSymbolTableRecord
100
AcDbBlockTableRecord
  2
CDWK_PTTYP4
  0
BLOCK_RECORD
  5
3B7
100
AcDbSymbolTableRecord
100
AcDbBlockTableRecord
  2
CDWK_PTTYP5
  0
BLOCK_RECORD
  5
3B8
100
AcDbSymbolTableRecord
100
AcDbBlockTableRecord
  2
CDWK_PTTYP6
  0
BLOCK_RECORD
  5
3B9
100
AcDbSymbolTableRecord
100
AcDbBlockTableRecord
  2
CDWK_PTTYP7
  0
BLOCK_RECORD
  5
3BA
100
AcDbSymbolTableRecord
100
AcDbBlockTableRecord
  2
CDWK_PTTYP8
  0
BLOCK_RECORD
  5
3BB
100
AcDbSymbolTableRecord
100
AcDbBlockTableRecord
  2
CDWK_PTTYP9
  0
BLOCK_RECORD
  5
3BC
100
AcDbSymbolTableRecord
100
AcDbBlockTableRecord
  2
CDWK_PTTYP10
  0
BLOCK_RECORD
  5
3BD
100
AcDbSymbolTableRecord
100
AcDbBlockTableRecord
  2
CDWK_PTTYP11
  0
BLOCK_RECORD
  5
3BE
100
AcDbSymbolTableRecord
100
AcDbBlockTableRecord
  2
CDWK_PTTYP12
  0
BLOCK_RECORD
  5
3BF
100
AcDbSymbolTableRecord
100
AcDbBlockTableRecord
  2
CDWK_PTTYP13
  0
BLOCK_RECORD
  5
3C0
100
AcDbSymbolTableRecord
100
AcDbBlockTableRecord
  2
CDWK_PTTYP14
  0
BLOCK_RECORD
  5
3C1
100
AcDbSymbolTableRecord
100
AcDbBlockTableRecord
  2
CDWK_PTTYP15
  0
BLOCK_RECORD
  5
3C2
100
AcDbSymbolTableRecord
100
AcDbBlockTableRecord
  2
CDWK_PTTYP16
  0
BLOCK_RECORD
  5
3C3
100
AcDbSymbolTableRecord
100
AcDbBlockTableRecord
  2
CDWK_PTTYP17
  0
BLOCK_RECORD
  5
3C4
100
AcDbSymbolTableRecord
100
AcDbBlockTableRecord
  2
CDWK_PTTYP18
  0
BLOCK_RECORD
  5
3C5
100
AcDbSymbolTableRecord
100
AcDbBlockTableRecord
  2
CDWK_PTTYP19
  0
BLOCK_RECORD
  5
3C6
100
AcDbSymbolTableRecord
100
AcDbBlockTableRecord
  2
CDWK_PTTYP20
  0
BLOCK_RECORD
  5
3C7
100
AcDbSymbolTableRecord
100
AcDbBlockTableRecord
  2
CDWK_PTTYP21
  0
BLOCK_RECORD
  5
3C8
100
AcDbSymbolTableRecord
100
AcDbBlockTableRecord
  2
CDWK_PTTYP22
  0
BLOCK_RECORD
  5
3C9
100
AcDbSymbolTableRecord
100
AcDbBlockTableRecord
  2
CDWK_PTTYP23
  0
BLOCK_RECORD
  5
3CA
100
AcDbSymbolTableRecord
100
AcDbBlockTableRecord
  2
CDWK_PTTYP24
  0
BLOCK_RECORD
  5
3CB
100
AcDbSymbolTableRecord
100
AcDbBlockTableRecord
  2
CDWK_PTTYP25
  0
BLOCK_RECORD
  5
3CC
100
AcDbSymbolTableRecord
100
AcDbBlockTableRecord
  2
CDWK_PTTYP26
  0
BLOCK_RECORD
  5
3CD
100
AcDbSymbolTableRecord
100
AcDbBlockTableRecord
  2
CDWK_PTTYP27
  0
BLOCK_RECORD
  5
3CE
100
AcDbSymbolTableRecord
100
AcDbBlockTableRecord
  2
CDWK_PTTYP28
  0
BLOCK_RECORD
  5
3CF
100
AcDbSymbolTableRecord
100
AcDbBlockTableRecord
  2
CDWK_PTTYP29
  0
BLOCK_RECORD
  5
3D0
100
AcDbSymbolTableRecord
100
AcDbBlockTableRecord
  2
CDWK_PTTYP30
  0
BLOCK_RECORD
  5
3D1
100
AcDbSymbolTableRecord
100
AcDbBlockTableRecord
  2
CDWK_PTTYP31
  0
BLOCK_RECORD
  5
3D2
100
AcDbSymbolTableRecord
100
AcDbBlockTableRecord
  2
CDWK_PTTYP32
  0
BLOCK_RECORD
  5
3D3
100
AcDbSymbolTableRecord
100
AcDbBlockTableRecord
  2
CDWK_PTTYP33
  0
BLOCK_RECORD
  5
3D4
100
AcDbSymbolTableRecord
100
AcDbBlockTableRecord
  2
CDWK_PTTYP34
  0
BLOCK_RECORD
  5
3D5
100
AcDbSymbolTableRecord
100
AcDbBlockTableRecord
  2
CDWK_PTTYP35
  0
BLOCK_RECORD
  5
3D6
100
AcDbSymbolTableRecord
100
AcDbBlockTableRecord
  2
CDWK_PTTYP36
  0
BLOCK_RECORD
  5
3D7
100
AcDbSymbolTableRecord
100
AcDbBlockTableRecord
  2
CDWK_PTTYP37
  0
BLOCK_RECORD
  5
3D8
100
AcDbSymbolTableRecord
100
AcDbBlockTableRecord
  2
CDWK_PTTYP38
  0
BLOCK_RECORD
  5
3D9
100
AcDbSymbolTableRecord
100
AcDbBlockTableRecord
  2
*X1
  0
BLOCK_RECORD
  5
3DA
100
AcDbSymbolTableRecord
100
AcDbBlockTableRecord
  2
*X2
  0
ENDTAB
  0
ENDSEC
  0
SECTION
  2
BLOCKS
  0
BLOCK
  5
3DB
100
AcDbEntity
  8
0
100
AcDbBlockBegin
  2
*MODEL_SPACE
 70
     0
 10
0.0
 20
0.0
 30
0.0
  3
*MODEL_SPACE
  1

  0
ENDBLK
  5
3DC
100
AcDbEntity
100
AcDbBlockEnd
  0
BLOCK
  5
3DD
100
AcDbEntity
  8
0
100
AcDbBlockBegin
  2
*PAPER_SPACE
 70
     0
 10
0.0
 20
0.0
 30
0.0
  3
*PAPER_SPACE
  1

  0
ENDBLK
  5
3DE
100
AcDbEntity
100
AcDbBlockEnd
  0
BLOCK
  5
3DF
100
AcDbEntity
  8
0
100
AcDbBlockBegin
  2
CDWK_EXTR_0
 70
     0
 10
0.0
 20
0.0
 30
0.0
  3
CDWK_EXTR_0
  1

  4
Cadwork line-extremity
  0
LINE
  5
3E0
100
AcDbEntity
  8
0
 62
     0
370
    -2
100
AcDbLine
 10
0.0
 20
0.0
 30
0.0
 11
2.0
 21
0.5
 31
0.0
  0
LINE
  5
3E1
100
AcDbEntity
  8
0
 62
     0
370
    -2
100
AcDbLine
 10
0.0
 20
0.0
 30
0.0
 11
2.0
 21
-0.5
 31
0.0
  0
LINE
  5
3E2
100
AcDbEntity
  8
0
 62
     0
370
    -2
100
AcDbLine
 10
2.0
 20
0.5
 30
0.0
 11
2.0
 21
-0.5
 31
0.0
  0
ENDBLK
  5
3E3
100
AcDbEntity
100
AcDbBlockEnd
  0
BLOCK
  5
3E4
100
AcDbEntity
  8
0
100
AcDbBlockBegin
  2
CDWK_EXTR_1D
 70
     0
 10
0.0
 20
0.0
 30
0.0
  3
CDWK_EXTR_1D
  1

  4
Cadwork line-extremity
  0
LINE
  5
3E5
100
AcDbEntity
  8
0
 62
     0
370
    -2
100
AcDbLine
 10
0.0
 20
0.0
 30
0.0
 11
0.0
 21
1.0
 31
0.0
  0
LINE
  5
3E6
100
AcDbEntity
  8
0
 62
     0
370
    -2
100
AcDbLine
 10
0.0
 20
1.0
 30
0.0
 11
0.5
 21
1.5
 31
0.0
  0
LINE
  5
3E7
100
AcDbEntity
  8
0
 62
     0
370
    -2
100
AcDbLine
 10
0.5
 20
1.5
 30
0.0
 11
1.5
 21
1.5
 31
0.0
  0
ENDBLK
  5
3E8
100
AcDbEntity
100
AcDbBlockEnd
  0
BLOCK
  5
3E9
100
AcDbEntity
  8
0
100
AcDbBlockBegin
  2
CDWK_EXTR_1G
 70
     0
 10
0.0
 20
0.0
 30
0.0
  3
CDWK_EXTR_1G
  1

  4
Cadwork line-extremity
  0
LINE
  5
3EA
100
AcDbEntity
  8
0
 62
     0
370
    -2
100
AcDbLine
 10
0.0
 20
0.0
 30
0.0
 11
0.0
 21
-1.0
 31
0.0
  0
LINE
  5
3EB
100
AcDbEntity
  8
0
 62
     0
370
    -2
100
AcDbLine
 10
0.0
 20
-1.0
 30
0.0
 11
0.5
 21
-1.5
 31
0.0
  0
LINE
  5
3EC
100
AcDbEntity
  8
0
 62
     0
370
    -2
100
AcDbLine
 10
0.5
 20
-1.5
 30
0.0
 11
1.5
 21
-1.5
 31
0.0
  0
ENDBLK
  5
3ED
100
AcDbEntity
100
AcDbBlockEnd
  0
BLOCK
  5
3EE
100
AcDbEntity
  8
0
100
AcDbBlockBegin
  2
CDWK_EXTR_2
 70
     0
 10
0.0
 20
0.0
 30
0.0
  3
CDWK_EXTR_2
  1

  4
Cadwork line-extremity
  0
SOLID
  5
3EF
100
AcDbEntity
  8
0
 62
     0
100
AcDbTrace
 10
0.0
 20
0.0
 11
2.0
 21
0.5
 12
2.0
 22
-0.5
 13
2.0
 23
-0.5
  0
ENDBLK
  5
3F0
100
AcDbEntity
100
AcDbBlockEnd
  0
BLOCK
  5
3F1
100
AcDbEntity
  8
0
100
AcDbBlockBegin
  2
CDWK_EXTR_3
 70
     0
 10
0.0
 20
0.0
 30
0.0
  3
CDWK_EXTR_3
  1

  4
Cadwork line-extremity
  0
SOLID
  5
3F2
100
AcDbEntity
  8
0
 62
     0
100
AcDbTrace
 10
0.0
 20
0.0
 11
2.0
 21
0.5
 12
2.0
 22
-0.5
 13
2.0
 23
-0.5
  0
LINE
  5
3F3
100
AcDbEntity
  8
0
 62
     0
370
    -2
100
AcDbLine
 10
0.0
 20
1.0
 30
0.0
 11
0.0
 21
-1.0
 31
0.0
  0
ENDBLK
  5
3F4
100
AcDbEntity
100
AcDbBlockEnd
  0
BLOCK
  5
3F5
100
AcDbEntity
  8
0
100
AcDbBlockBegin
  2
CDWK_EXTR_4
 70
     0
 10
0.0
 20
0.0
 30
0.0
  3
CDWK_EXTR_4
  1

  4
Cadwork line-extremity
  0
HATCH
  5
3F6
100
AcDbEntity
  8
0
 62
     0
370
    -2
100
AcDbHatch
 10
0.0
 20
0.0
 30
0.0
210
0.0
220
0.0
230
1.0
  2
SOLID
 70
     1
 71
     0
 91
        1
 92
        1
 93
        1
 72
     2
 10
0.0
 20
0.0
 40
0.5
 50
0.0
 51
360.0
 73
     1
 97
        0
 75
     0
 76
     1
 98
        1
 10
0.0
 20
0.0
  0
ENDBLK
  5
3F7
100
AcDbEntity
100
AcDbBlockEnd
  0
BLOCK
  5
3F8
100
AcDbEntity
  8
0
100
AcDbBlockBegin
  2
CDWK_PTTYP0
 70
     0
 10
0.0
 20
0.0
 30
0.0
  3
CDWK_PTTYP0
  1

  4
Cadwork point
  0
POINT
  5
3F9
100
AcDbEntity
  8
0
 62
     0
100
AcDbPoint
 10
0.0
 20
0.0
 30
0.0
  0
ENDBLK
  5
3FA
100
AcDbEntity
100
AcDbBlockEnd
  0
BLOCK
  5
3FB
100
AcDbEntity
  8
0
100
AcDbBlockBegin
  2
CDWK_PTTYP1
 70
     0
 10
0.0
 20
0.0
 30
0.0
  3
CDWK_PTTYP1
  1

  4
Cadwork node
  0
LINE
  5
3FC
100
AcDbEntity
  8
0
 62
     0
370
    -2
100
AcDbLine
 10
-0.5
 20
0.5
 30
0.0
 11
0.5
 21
0.5
 31
0.0
  0
LINE
  5
3FD
100
AcDbEntity
  8
0
 62
     0
370
    -2
100
AcDbLine
 10
0.5
 20
0.5
 30
0.0
 11
0.5
 21
-0.5
 31
0.0
  0
LINE
  5
3FE
100
AcDbEntity
  8
0
 62
     0
370
    -2
100
AcDbLine
 10
0.5
 20
-0.5
 30
0.0
 11
-0.5
 21
-0.5
 31
0.0
  0
LINE
  5
3FF
100
AcDbEntity
  8
0
 62
     0
370
    -2
100
AcDbLine
 10
-0.5
 20
-0.5
 30
0.0
 11
-0.5
 21
0.5
 31
0.0
  0
ENDBLK
  5
400
100
AcDbEntity
100
AcDbBlockEnd
  0
BLOCK
  5
401
100
AcDbEntity
  8
0
100
AcDbBlockBegin
  2
CDWK_PTTYP2
 70
     0
 10
0.0
 20
0.0
 30
0.0
  3
CDWK_PTTYP2
  1

  4
Cadwork node
  0
LINE
  5
402
100
AcDbEntity
  8
0
 62
     0
370
    -2
100
AcDbLine
 10
0.0
 20
0.5
 30
0.0
 11
0.0
 21
-0.5
 31
0.0
  0
LINE
  5
403
100
AcDbEntity
  8
0
 62
     0
370
    -2
100
AcDbLine
 10
-0.5
 20
0.0
 30
0.0
 11
0.5
 21
0.0
 31
0.0
  0
ENDBLK
  5
404
100
AcDbEntity
100
AcDbBlockEnd
  0
BLOCK
  5
405
100
AcDbEntity
  8
0
100
AcDbBlockBegin
  2
CDWK_PTTYP3
 70
     0
 10
0.0
 20
0.0
 30
0.0
  3
CDWK_PTTYP3
  1

  4
Cadwork node
  0
CIRCLE
  5
406
100
AcDbEntity
  8
0
 62
     0
370
    -2
100
AcDbCircle
 10
0.0
 20
0.0
 30
0.0
 40
0.5
  0
ENDBLK
  5
407
100
AcDbEntity
100
AcDbBlockEnd
  0
BLOCK
  5
408
100
AcDbEntity
  8
0
100
AcDbBlockBegin
  2
CDWK_PTTYP4
 70
     0
 10
0.0
 20
0.0
 30
0.0
  3
CDWK_PTTYP4
  1

  4
Cadwork node
  0
HATCH
  5
409
100
AcDbEntity
  8
0
 62
     0
370
    -2
100
AcDbHatch
 10
0.0
 20
0.0
 30
0.0
210
0.0
220
0.0
230
1.0
  2
SOLID
 70
     1
 71
     0
 91
        1
 92
        1
 93
        1
 72
     2
 10
0.0
 20
0.0
 40
0.5
 50
0.0
 51
360.0
 73
     1
 97
        0
 75
     0
 76
     1
 98
        1
 10
0.0
 20
0.0
  0
ENDBLK
  5
40A
100
AcDbEntity
100
AcDbBlockEnd
  0
BLOCK
  5
40B
100
AcDbEntity
  8
0
100
AcDbBlockBegin
  2
CDWK_PTTYP5
 70
     0
 10
0.0
 20
0.0
 30
0.0
  3
CDWK_PTTYP5
  1

  4
Cadwork node
  0
LINE
  5
40C
100
AcDbEntity
  8
0
 62
     0
370
    -2
100
AcDbLine
 10
-0.5
 20
0.5
 30
0.0
 11
0.5
 21
0.5
 31
0.0
  0
LINE
  5
40D
100
AcDbEntity
  8
0
 62
     0
370
    -2
100
AcDbLine
 10
0.5
 20
0.5
 30
0.0
 11
0.5
 21
-0.5
 31
0.0
  0
LINE
  5
40E
100
AcDbEntity
  8
0
 62
     0
370
    -2
100
AcDbLine
 10
0.5
 20
-0.5
 30
0.0
 11
-0.5
 21
-0.5
 31
0.0
  0
LINE
  5
40F
100
AcDbEntity
  8
0
 62
     0
370
    -2
100
AcDbLine
 10
-0.5
 20
-0.5
 30
0.0
 11
-0.5
 21
0.5
 31
0.0
  0
SOLID
  5
410
100
AcDbEntity
  8
0
 62
     0
100
AcDbTrace
 10
-0.5
 20
-0.5
 11
-0.5
 21
0.0
 12
0.0
 22
-0.5
 13
0.0
 23
0.0
  0
SOLID
  5
411
100
AcDbEntity
  8
0
 62
     0
100
AcDbTrace
 10
0.0
 20
0.0
 11
0.0
 21
0.5
 12
0.5
 22
0.0
 13
0.5
 23
0.5
  0
ENDBLK
  5
412
100
AcDbEntity
100
AcDbBlockEnd
  0
BLOCK
  5
413
100
AcDbEntity
  8
0
100
AcDbBlockBegin
  2
CDWK_PTTYP6
 70
     0
 10
0.0
 20
0.0
 30
0.0
  3
CDWK_PTTYP6
  1

  4
Cadwork node
  0
LINE
  5
414
100
AcDbEntity
  8
0
 62
     0
370
    -2
100
AcDbLine
 10
-0.5
 20
0.5
 30
0.0
 11
0.5
 21
0.5
 31
0.0
  0
LINE
  5
415
100
AcDbEntity
  8
0
 62
     0
370
    -2
100
AcDbLine
 10
0.5
 20
0.5
 30
0.0
 11
0.5
 21
-0.5
 31
0.0
  0
LINE
  5
416
100
AcDbEntity
  8
0
 62
     0
370
    -2
100
AcDbLine
 10
0.5
 20
-0.5
 30
0.0
 11
-0.5
 21
-0.5
 31
0.0
  0
LINE
  5
417
100
AcDbEntity
  8
0
 62
     0
370
    -2
100
AcDbLine
 10
-0.5
 20
-0.5
 30
0.0
 11
-0.5
 21
0.5
 31
0.0
  0
SOLID
  5
418
100
AcDbEntity
  8
0
 62
     0
100
AcDbTrace
 10
-0.5
 20
-0.5
 11
-0.5
 21
0.5
 12
0.5
 22
0.5
 13
0.5
 23
0.5
  0
ENDBLK
  5
419
100
AcDbEntity
100
AcDbBlockEnd
  0
BLOCK
  5
41A
100
AcDbEntity
  8
0
100
AcDbBlockBegin
  2
CDWK_PTTYP7
 70
     0
 10
0.0
 20
0.0
 30
0.0
  3
CDWK_PTTYP7
  1

  4
Cadwork node
  0
LINE
  5
41B
100
AcDbEntity
  8
0
 62
     0
370
    -2
100
AcDbLine
 10
-0.5
 20
0.5
 30
0.0
 11
0.5
 21
0.5
 31
0.0
  0
LINE
  5
41C
100
AcDbEntity
  8
0
 62
     0
370
    -2
100
AcDbLine
 10
0.5
 20
0.5
 30
0.0
 11
0.5
 21
-0.5
 31
0.0
  0
LINE
  5
41D
100
AcDbEntity
  8
0
 62
     0
370
    -2
100
AcDbLine
 10
0.5
 20
-0.5
 30
0.0
 11
-0.5
 21
-0.5
 31
0.0
  0
LINE
  5
41E
100
AcDbEntity
  8
0
 62
     0
370
    -2
100
AcDbLine
 10
-0.5
 20
-0.5
 30
0.0
 11
-0.5
 21
0.5
 31
0.0
  0
LINE
  5
41F
100
AcDbEntity
  8
0
 62
     0
370
    -2
100
AcDbLine
 10
0.0
 20
0.5
 30
0.0
 11
0.0
 21
-0.5
 31
0.0
  0
LINE
  5
420
100
AcDbEntity
  8
0
 62
     0
370
    -2
100
AcDbLine
 10
-0.5
 20
0.0
 30
0.0
 11
0.5
 21
0.0
 31
0.0
  0
ENDBLK
  5
421
100
AcDbEntity
100
AcDbBlockEnd
  0
BLOCK
  5
422
100
AcDbEntity
  8
0
100
AcDbBlockBegin
  2
CDWK_PTTYP8
 70
     0
 10
0.0
 20
0.0
 30
0.0
  3
CDWK_PTTYP8
  1

  4
Cadwork node
  0
SOLID
  5
423
100
AcDbEntity
  8
0
 62
     0
100
AcDbTrace
 10
-0.5
 20
0.5
 11
0.5
 21
0.5
 12
-0.5
 22
-0.5
 13
0.5
 23
-0.5
  0
ENDBLK
  5
424
100
AcDbEntity
100
AcDbBlockEnd
  0
BLOCK
  5
425
100
AcDbEntity
  8
0
100
AcDbBlockBegin
  2
CDWK_PTTYP9
 70
     0
 10
0.0
 20
0.0
 30
0.0
  3
CDWK_PTTYP9
  1

  4
Cadwork node
  0
CIRCLE
  5
426
100
AcDbEntity
  8
0
 62
     0
370
    -2
100
AcDbCircle
 10
0.0
 20
0.0
 30
0.0
 40
0.5
  0
CIRCLE
  5
427
100
AcDbEntity
  8
0
 62
     0
370
    -2
100
AcDbCircle
 10
0.0
 20
0.0
 30
0.0
 40
0.16666667
  0
ENDBLK
  5
428
100
AcDbEntity
100
AcDbBlockEnd
  0
BLOCK
  5
429
100
AcDbEntity
  8
0
100
AcDbBlockBegin
  2
CDWK_PTTYP10
 70
     0
 10
0.0
 20
0.0
 30
0.0
  3
CDWK_PTTYP10
  1

  4
Cadwork node
  0
CIRCLE
  5
42A
100
AcDbEntity
  8
0
 62
     0
370
    -2
100
AcDbCircle
 10
0.0
 20
0.0
 30
0.0
 40
0.5
  0
ENDBLK
  5
42B
100
AcDbEntity
100
AcDbBlockEnd
  0
BLOCK
  5
42C
100
AcDbEntity
  8
0
100
AcDbBlockBegin
  2
CDWK_PTTYP11
 70
     0
 10
0.0
 20
0.0
 30
0.0
  3
CDWK_PTTYP11
  1

  4
Cadwork node
  0
CIRCLE
  5
42D
100
AcDbEntity
  8
0
 62
     0
370
    -2
100
AcDbCircle
 10
0.0
 20
0.0
 30
0.0
 40
0.5
  0
CIRCLE
  5
42E
100
AcDbEntity
  8
0
 62
     0
370
    -2
100
AcDbCircle
 10
0.0
 20
0.0
 30
0.0
 40
0.25
  0
ENDBLK
  5
42F
100
AcDbEntity
100
AcDbBlockEnd
  0
BLOCK
  5
430
100
AcDbEntity
  8
0
100
AcDbBlockBegin
  2
CDWK_PTTYP12
 70
     0
 10
0.0
 20
0.0
 30
0.0
  3
CDWK_PTTYP12
  1

  4
Cadwork node
  0
CIRCLE
  5
431
100
AcDbEntity
  8
0
 62
     0
370
    -2
100
AcDbCircle
 10
0.0
 20
0.0
 30
0.0
 40
0.5
  0
CIRCLE
  5
432
100
AcDbEntity
  8
0
 62
     0
370
    -2
100
AcDbCircle
 10
0.25
 20
0.0
 30
0.0
 40
0.25
  0
ENDBLK
  5
433
100
AcDbEntity
100
AcDbBlockEnd
  0
BLOCK
  5
434
100
AcDbEntity
  8
0
100
AcDbBlockBegin
  2
CDWK_PTTYP13
 70
     0
 10
0.0
 20
0.0
 30
0.0
  3
CDWK_PTTYP13
  1

  4
Cadwork node
  0
CIRCLE
  5
435
100
AcDbEntity
  8
0
 62
     0
370
    -2
100
AcDbCircle
 10
0.0
 20
0.0
 30
0.0
 40
0.5
  0
CIRCLE
  5
436
100
AcDbEntity
  8
0
 62
     0
370
    -2
100
AcDbCircle
 10
0.25
 20
0.0
 30
0.0
 40
0.25
  0
CIRCLE
  5
437
100
AcDbEntity
  8
0
 62
     0
370
    -2
100
AcDbCircle
 10
-0.25
 20
0.0
 30
0.0
 40
0.25
  0
ENDBLK
  5
438
100
AcDbEntity
100
AcDbBlockEnd
  0
BLOCK
  5
439
100
AcDbEntity
  8
0
100
AcDbBlockBegin
  2
CDWK_PTTYP14
 70
     0
 10
0.0
 20
0.0
 30
0.0
  3
CDWK_PTTYP14
  1

  4
Cadwork node
  0
POINT
  5
43A
100
AcDbEntity
  8
0
 62
     0
100
AcDbPoint
 10
0.0
 20
0.0
 30
0.0
  0
ENDBLK
  5
43B
100
AcDbEntity
100
AcDbBlockEnd
  0
BLOCK
  5
43C
100
AcDbEntity
  8
0
100
AcDbBlockBegin
  2
CDWK_PTTYP15
 70
     0
 10
0.0
 20
0.0
 30
0.0
  3
CDWK_PTTYP15
  1

  4
Cadwork node
  0
POINT
  5
43D
100
AcDbEntity
  8
0
 62
     0
100
AcDbPoint
 10
0.0
 20
0.0
 30
0.0
  0
ENDBLK
  5
43E
100
AcDbEntity
100
AcDbBlockEnd
  0
BLOCK
  5
43F
100
AcDbEntity
  8
0
100
AcDbBlockBegin
  2
CDWK_PTTYP16
 70
     0
 10
0.0
 20
0.0
 30
0.0
  3
CDWK_PTTYP16
  1

  4
Cadwork node
  0
LINE
  5
440
100
AcDbEntity
  8
0
 62
     0
370
    -2
100
AcDbLine
 10
-0.5
 20
-0.28867513
 30
0.0
 11
0.5
 21
-0.28867513
 31
0.0
  0
LINE
  5
441
100
AcDbEntity
  8
0
 62
     0
370
    -2
100
AcDbLine
 10
0.5
 20
-0.28867513
 30
0.0
 11
0.0
 21
0.57735027
 31
0.0
  0
LINE
  5
442
100
AcDbEntity
  8
0
 62
     0
370
    -2
100
AcDbLine
 10
0.0
 20
0.57735027
 30
0.0
 11
-0.5
 21
-0.28867513
 31
0.0
  0
CIRCLE
  5
443
100
AcDbEntity
  8
0
 62
     0
370
    -2
100
AcDbCircle
 10
0.0
 20
0.0
 30
0.0
 40
0.28867513
  0
ENDBLK
  5
444
100
AcDbEntity
100
AcDbBlockEnd
  0
BLOCK
  5
445
100
AcDbEntity
  8
0
100
AcDbBlockBegin
  2
CDWK_PTTYP17
 70
     0
 10
0.0
 20
0.0
 30
0.0
  3
CDWK_PTTYP17
  1

  4
Cadwork node
  0
CIRCLE
  5
446
100
AcDbEntity
  8
0
 62
     0
370
    -2
100
AcDbCircle
 10
0.0
 20
0.0
 30
0.0
 40
0.5
  0
HATCH
  5
447
100
AcDbEntity
  8
0
 62
     0
370
    -2
100
AcDbHatch
 10
0.0
 20
0.0
 30
0.0
210
0.0
220
0.0
230
1.0
  2
SOLID
 70
     1
 71
     0
 91
        1
 92
        1
 93
        1
 72
     2
 10
0.0
 20
0.0
 40
0.25
 50
0.0
 51
360.0
 73
     1
 97
        0
 75
     0
 76
     1
 98
        1
 10
0.0
 20
0.0
  0
ENDBLK
  5
448
100
AcDbEntity
100
AcDbBlockEnd
  0
BLOCK
  5
449
100
AcDbEntity
  8
0
100
AcDbBlockBegin
  2
CDWK_PTTYP18
 70
     0
 10
0.0
 20
0.0
 30
0.0
  3
CDWK_PTTYP18
  1

  4
Cadwork node
  0
CIRCLE
  5
44A
100
AcDbEntity
  8
0
 62
     0
370
    -2
100
AcDbCircle
 10
0.0
 20
0.0
 30
0.0
 40
0.5
  0
CIRCLE
  5
44B
100
AcDbEntity
  8
0
 62
     0
370
    -2
100
AcDbCircle
 10
0.0
 20
0.0
 30
0.0
 40
0.2
  0
ENDBLK
  5
44C
100
AcDbEntity
100
AcDbBlockEnd
  0
BLOCK
  5
44D
100
AcDbEntity
  8
0
100
AcDbBlockBegin
  2
CDWK_PTTYP19
 70
     0
 10
0.0
 20
0.0
 30
0.0
  3
CDWK_PTTYP19
  1

  4
Cadwork node
  0
CIRCLE
  5
44E
100
AcDbEntity
  8
0
 62
     0
370
    -2
100
AcDbCircle
 10
0.0
 20
0.0
 30
0.0
 40
0.4
  0
CIRCLE
  5
44F
100
AcDbEntity
  8
0
 62
     0
370
    -2
100
AcDbCircle
 10
0.0
 20
0.0
 30
0.0
 40
0.25
  0
LINE
  5
450
100
AcDbEntity
  8
0
 62
     0
370
    -2
100
AcDbLine
 10
-0.25
 20
0.0
 30
0.0
 11
0.25
 21
0.0
 31
0.0
  0
ENDBLK
  5
451
100
AcDbEntity
100
AcDbBlockEnd
  0
BLOCK
  5
452
100
AcDbEntity
  8
0
100
AcDbBlockBegin
  2
CDWK_PTTYP20
 70
     0
 10
0.0
 20
0.0
 30
0.0
  3
CDWK_PTTYP20
  1

  4
Cadwork node
  0
CIRCLE
  5
453
100
AcDbEntity
  8
0
 62
     0
370
    -2
100
AcDbCircle
 10
0.0
 20
0.0
 30
0.0
 40
0.5
  0
CIRCLE
  5
454
100
AcDbEntity
  8
0
 62
     0
370
    -2
100
AcDbCircle
 10
0.0
 20
0.0
 30
0.0
 40
0.3
  0
ENDBLK
  5
455
100
AcDbEntity
100
AcDbBlockEnd
  0
BLOCK
  5
456
100
AcDbEntity
  8
0
100
AcDbBlockBegin
  2
CDWK_PTTYP21
 70
     0
 10
0.0
 20
0.0
 30
0.0
  3
CDWK_PTTYP21
  1

  4
Cadwork node
  0
CIRCLE
  5
457
100
AcDbEntity
  8
0
 62
     0
370
    -2
100
AcDbCircle
 10
0.0
 20
0.0
 30
0.0
 40
0.5
  0
LINE
  5
458
100
AcDbEntity
  8
0
 62
     0
370
    -2
100
AcDbLine
 10
-0.5
 20
0.0
 30
0.0
 11
0.5
 21
0.0
 31
0.0
  0
ENDBLK
  5
459
100
AcDbEntity
100
AcDbBlockEnd
  0
BLOCK
  5
45A
100
AcDbEntity
  8
0
100
AcDbBlockBegin
  2
CDWK_PTTYP22
 70
     0
 10
0.0
 20
0.0
 30
0.0
  3
CDWK_PTTYP22
  1

  4
Cadwork node
  0
POINT
  5
45B
100
AcDbEntity
  8
0
 62
     0
100
AcDbPoint
 10
0.0
 20
0.0
 30
0.0
  0
ENDBLK
  5
45C
100
AcDbEntity
100
AcDbBlockEnd
  0
BLOCK
  5
45D
100
AcDbEntity
  8
0
100
AcDbBlockBegin
  2
CDWK_PTTYP23
 70
     0
 10
0.0
 20
0.0
 30
0.0
  3
CDWK_PTTYP23
  1

  4
Cadwork node
  0
POINT
  5
45E
100
AcDbEntity
  8
0
 62
     0
100
AcDbPoint
 10
0.0
 20
0.0
 30
0.0
  0
ENDBLK
  5
45F
100
AcDbEntity
100
AcDbBlockEnd
  0
BLOCK
  5
460
100
AcDbEntity
  8
0
100
AcDbBlockBegin
  2
CDWK_PTTYP24
 70
     0
 10
0.0
 20
0.0
 30
0.0
  3
CDWK_PTTYP24
  1

  4
Cadwork node
  0
POINT
  5
461
100
AcDbEntity
  8
0
 62
     0
100
AcDbPoint
 10
0.0
 20
0.0
 30
0.0
  0
ENDBLK
  5
462
100
AcDbEntity
100
AcDbBlockEnd
  0
BLOCK
  5
463
100
AcDbEntity
  8
0
100
AcDbBlockBegin
  2
CDWK_PTTYP25
 70
     0
 10
0.0
 20
0.0
 30
0.0
  3
CDWK_PTTYP25
  1

  4
Cadwork node
  0
LINE
  5
464
100
AcDbEntity
  8
0
 62
     0
370
    -2
100
AcDbLine
 10
-0.43290044
 20
-0.25
 30
0.0
 11
0.43290044
 21
-0.25
 31
0.0
  0
LINE
  5
465
100
AcDbEntity
  8
0
 62
     0
370
    -2
100
AcDbLine
 10
-0.43290044
 20
-0.25
 30
0.0
 11
0.0
 21
0.5
 31
0.0
  0
LINE
  5
466
100
AcDbEntity
  8
0
 62
     0
370
    -2
100
AcDbLine
 10
0.43290044
 20
-0.25
 30
0.0
 11
0.0
 21
0.5
 31
0.0
  0
CIRCLE
  5
467
100
AcDbEntity
  8
0
 62
     0
370
    -2
100
AcDbCircle
 10
0.0
 20
0.0
 30
0.0
 40
0.5
  0
ENDBLK
  5
468
100
AcDbEntity
100
AcDbBlockEnd
  0
BLOCK
  5
469
100
AcDbEntity
  8
0
100
AcDbBlockBegin
  2
CDWK_PTTYP26
 70
     0
 10
0.0
 20
0.0
 30
0.0
  3
CDWK_PTTYP26
  1

  4
Cadwork node
  0
LINE
  5
46A
100
AcDbEntity
  8
0
 62
     0
370
    -2
100
AcDbLine
 10
-0.5
 20
-0.28850001
 30
0.0
 11
0.5
 21
-0.28850001
 31
0.0
  0
LINE
  5
46B
100
AcDbEntity
  8
0
 62
     0
370
    -2
100
AcDbLine
 10
-0.5
 20
-0.28850001
 30
0.0
 11
0.0
 21
0.57736721
 31
0.0
  0
LINE
  5
46C
100
AcDbEntity
  8
0
 62
     0
370
    -2
100
AcDbLine
 10
0.5
 20
-0.28850001
 30
0.0
 11
0.0
 21
0.57736721
 31
0.0
  0
CIRCLE
  5
46D
100
AcDbEntity
  8
0
 62
     0
370
    -2
100
AcDbCircle
 10
0.0
 20
0.0
 30
0.0
 40
0.1312336
  0
ENDBLK
  5
46E
100
AcDbEntity
100
AcDbBlockEnd
  0
BLOCK
  5
46F
100
AcDbEntity
  8
0
100
AcDbBlockBegin
  2
CDWK_PTTYP27
 70
     0
 10
0.0
 20
0.0
 30
0.0
  3
CDWK_PTTYP27
  1

  4
Cadwork node
  0
LINE
  5
470
100
AcDbEntity
  8
0
 62
     0
370
    -2
100
AcDbLine
 10
-0.43290044
 20
-0.25
 30
0.0
 11
0.43290044
 21
-0.25
 31
0.0
  0
LINE
  5
471
100
AcDbEntity
  8
0
 62
     0
370
    -2
100
AcDbLine
 10
-0.43290044
 20
-0.25
 30
0.0
 11
0.0
 21
0.5
 31
0.0
  0
LINE
  5
472
100
AcDbEntity
  8
0
 62
     0
370
    -2
100
AcDbLine
 10
0.43290044
 20
-0.25
 30
0.0
 11
0.0
 21
0.5
 31
0.0
  0
CIRCLE
  5
473
100
AcDbEntity
  8
0
 62
     0
370
    -2
100
AcDbCircle
 10
0.0
 20
0.0
 30
0.0
 40
0.5
  0
CIRCLE
  5
474
100
AcDbEntity
  8
0
 62
     0
370
    -2
100
AcDbCircle
 10
0.0
 20
0.0
 30
0.0
 40
0.1312336
  0
ENDBLK
  5
475
100
AcDbEntity
100
AcDbBlockEnd
  0
BLOCK
  5
476
100
AcDbEntity
  8
0
100
AcDbBlockBegin
  2
CDWK_PTTYP28
 70
     0
 10
0.0
 20
0.0
 30
0.0
  3
CDWK_PTTYP28
  1

  4
Cadwork node
  0
POINT
  5
477
100
AcDbEntity
  8
0
 62
     0
100
AcDbPoint
 10
0.0
 20
0.0
 30
0.0
  0
ENDBLK
  5
478
100
AcDbEntity
100
AcDbBlockEnd
  0
BLOCK
  5
479
100
AcDbEntity
  8
0
100
AcDbBlockBegin
  2
CDWK_PTTYP29
 70
     0
 10
0.0
 20
0.0
 30
0.0
  3
CDWK_PTTYP29
  1

  4
Cadwork node
  0
CIRCLE
  5
47A
100
AcDbEntity
  8
0
 62
     0
370
    -2
100
AcDbCircle
 10
0.0
 20
0.0
 30
0.0
 40
0.5
  0
CIRCLE
  5
47B
100
AcDbEntity
  8
0
 62
     0
370
    -2
100
AcDbCircle
 10
0.0
 20
0.0
 30
0.0
 40
0.375
  0
CIRCLE
  5
47C
100
AcDbEntity
  8
0
 62
     0
370
    -2
100
AcDbCircle
 10
0.0
 20
0.0
 30
0.0
 40
0.21875
  0
ENDBLK
  5
47D
100
AcDbEntity
100
AcDbBlockEnd
  0
BLOCK
  5
47E
100
AcDbEntity
  8
0
100
AcDbBlockBegin
  2
CDWK_PTTYP30
 70
     0
 10
0.0
 20
0.0
 30
0.0
  3
CDWK_PTTYP30
  1

  4
Cadwork node
  0
LINE
  5
47F
100
AcDbEntity
  8
0
 62
     0
370
    -2
100
AcDbLine
 10
0.17680339
 20
0.17680339
 30
0.0
 11
0.5
 21
0.5
 31
0.0
  0
LINE
  5
480
100
AcDbEntity
  8
0
 62
     0
370
    -2
100
AcDbLine
 10
-0.17680339
 20
0.17680339
 30
0.0
 11
-0.5
 21
0.5
 31
0.0
  0
LINE
  5
481
100
AcDbEntity
  8
0
 62
     0
370
    -2
100
AcDbLine
 10
0.17680339
 20
-0.17680339
 30
0.0
 11
0.5
 21
-0.5
 31
0.0
  0
LINE
  5
482
100
AcDbEntity
  8
0
 62
     0
370
    -2
100
AcDbLine
 10
-0.17680339
 20
-0.17680339
 30
0.0
 11
-0.5
 21
-0.5
 31
0.0
  0
ENDBLK
  5
483
100
AcDbEntity
100
AcDbBlockEnd
  0
BLOCK
  5
484
100
AcDbEntity
  8
0
100
AcDbBlockBegin
  2
CDWK_PTTYP31
 70
     0
 10
0.0
 20
0.0
 30
0.0
  3
CDWK_PTTYP31
  1

  4
Cadwork node
  0
CIRCLE
  5
485
100
AcDbEntity
  8
0
 62
     0
370
    -2
100
AcDbCircle
 10
0.0
 20
0.0
 30
0.0
 40
0.075
  0
LINE
  5
486
100
AcDbEntity
  8
0
 62
     0
370
    -2
100
AcDbLine
 10
0.075
 20
0.0
 30
0.0
 11
0.5
 21
0.0
 31
0.0
  0
LINE
  5
487
100
AcDbEntity
  8
0
 62
     0
370
    -2
100
AcDbLine
 10
-0.075
 20
0.0
 30
0.0
 11
-0.5
 21
0.0
 31
0.0
  0
LINE
  5
488
100
AcDbEntity
  8
0
 62
     0
370
    -2
100
AcDbLine
 10
0.0
 20
0.075
 30
0.0
 11
0.0
 21
0.5
 31
0.0
  0
LINE
  5
489
100
AcDbEntity
  8
0
 62
     0
370
    -2
100
AcDbLine
 10
0.0
 20
-0.075
 30
0.0
 11
0.0
 21
-0.5
 31
0.0
  0
ENDBLK
  5
48A
100
AcDbEntity
100
AcDbBlockEnd
  0
BLOCK
  5
48B
100
AcDbEntity
  8
0
100
AcDbBlockBegin
  2
CDWK_PTTYP32
 70
     0
 10
0.0
 20
0.0
 30
0.0
  3
CDWK_PTTYP32
  1

  4
Cadwork node
  0
CIRCLE
  5
48C
100
AcDbEntity
  8
0
 62
     0
370
    -2
100
AcDbCircle
 10
0.0
 20
0.0
 30
0.0
 40
0.5
  0
CIRCLE
  5
48D
100
AcDbEntity
  8
0
 62
     0
370
    -2
100
AcDbCircle
 10
0.0
 20
0.0
 30
0.0
 40
0.16666667
  0
LINE
  5
48E
100
AcDbEntity
  8
0
 62
     0
370
    -2
100
AcDbLine
 10
0.11786893
 20
0.11786893
 30
0.0
 11
0.35360678
 21
0.35360678
 31
0.0
  0
LINE
  5
48F
100
AcDbEntity
  8
0
 62
     0
370
    -2
100
AcDbLine
 10
-0.11786893
 20
0.11786893
 30
0.0
 11
-0.35360678
 21
0.35360678
 31
0.0
  0
LINE
  5
490
100
AcDbEntity
  8
0
 62
     0
370
    -2
100
AcDbLine
 10
0.11786893
 20
-0.11786893
 30
0.0
 11
0.35360678
 21
-0.35360678
 31
0.0
  0
LINE
  5
491
100
AcDbEntity
  8
0
 62
     0
370
    -2
100
AcDbLine
 10
-0.11786893
 20
-0.11786893
 30
0.0
 11
-0.35360678
 21
-0.35360678
 31
0.0
  0
ENDBLK
  5
492
100
AcDbEntity
100
AcDbBlockEnd
  0
BLOCK
  5
493
100
AcDbEntity
  8
0
100
AcDbBlockBegin
  2
CDWK_PTTYP33
 70
     0
 10
0.0
 20
0.0
 30
0.0
  3
CDWK_PTTYP33
  1

  4
Cadwork node
  0
CIRCLE
  5
494
100
AcDbEntity
  8
0
 62
     0
370
    -2
100
AcDbCircle
 10
0.0
 20
0.0
 30
0.0
 40
0.5
  0
LINE
  5
495
100
AcDbEntity
  8
0
 62
     0
370
    -2
100
AcDbLine
 10
0.0
 20
0.5
 30
0.0
 11
0.0
 21
-0.5
 31
0.0
  0
LINE
  5
496
100
AcDbEntity
  8
0
 62
     0
370
    -2
100
AcDbLine
 10
-0.5
 20
0.0
 30
0.0
 11
0.5
 21
0.0
 31
0.0
  0
ENDBLK
  5
497
100
AcDbEntity
100
AcDbBlockEnd
  0
BLOCK
  5
498
100
AcDbEntity
  8
0
100
AcDbBlockBegin
  2
CDWK_PTTYP34
 70
     0
 10
0.0
 20
0.0
 30
0.0
  3
CDWK_PTTYP34
  1

  4
Cadwork node
  0
CIRCLE
  5
499
100
AcDbEntity
  8
0
 62
     0
370
    -2
100
AcDbCircle
 10
0.0
 20
0.0
 30
0.0
 40
0.5
  0
LINE
  5
49A
100
AcDbEntity
  8
0
 62
     0
370
    -2
100
AcDbLine
 10
-0.30360678
 20
-0.40360678
 30
0.0
 11
0.40360678
 21
0.30360678
 31
0.0
  0
LINE
  5
49B
100
AcDbEntity
  8
0
 62
     0
370
    -2
100
AcDbLine
 10
-0.40360678
 20
-0.30360678
 30
0.0
 11
0.30360678
 21
0.40360678
 31
0.0
  0
ENDBLK
  5
49C
100
AcDbEntity
100
AcDbBlockEnd
  0
BLOCK
  5
49D
100
AcDbEntity
  8
0
100
AcDbBlockBegin
  2
CDWK_PTTYP35
 70
     0
 10
0.0
 20
0.0
 30
0.0
  3
CDWK_PTTYP35
  1

  4
Cadwork node
  0
CIRCLE
  5
49E
100
AcDbEntity
  8
0
 62
     0
370
    -2
100
AcDbCircle
 10
0.0
 20
0.0
 30
0.0
 40
0.21431634
  0
LINE
  5
49F
100
AcDbEntity
  8
0
 62
     0
370
    -2
100
AcDbLine
 10
0.0
 20
0.21431634
 30
0.0
 11
0.0
 21
0.5
 31
0.0
  0
LINE
  5
4A0
100
AcDbEntity
  8
0
 62
     0
370
    -2
100
AcDbLine
 10
0.0
 20
-0.21431634
 30
0.0
 11
0.0
 21
-0.5
 31
0.0
  0
ENDBLK
  5
4A1
100
AcDbEntity
100
AcDbBlockEnd
  0
BLOCK
  5
4A2
100
AcDbEntity
  8
0
100
AcDbBlockBegin
  2
CDWK_PTTYP36
 70
     0
 10
0.0
 20
0.0
 30
0.0
  3
CDWK_PTTYP36
  1

  4
Cadwork node
  0
LINE
  5
4A3
100
AcDbEntity
  8
0
 62
     0
370
    -2
100
AcDbLine
 10
-0.5
 20
-0.16666667
 30
0.0
 11
0.5
 21
-0.16666667
 31
0.0
  0
LINE
  5
4A4
100
AcDbEntity
  8
0
 62
     0
370
    -2
100
AcDbLine
 10
0.5
 20
-0.16666667
 30
0.0
 11
0.5
 21
0.16666667
 31
0.0
  0
LINE
  5
4A5
100
AcDbEntity
  8
0
 62
     0
370
    -2
100
AcDbLine
 10
0.5
 20
0.16666667
 30
0.0
 11
-0.5
 21
0.16666667
 31
0.0
  0
LINE
  5
4A6
100
AcDbEntity
  8
0
 62
     0
370
    -2
100
AcDbLine
 10
-0.5
 20
0.16666667
 30
0.0
 11
-0.5
 21
-0.16666667
 31
0.0
  0
SOLID
  5
4A7
100
AcDbEntity
  8
0
 62
     0
100
AcDbTrace
 10
-0.5
 20
-0.16666667
 11
0.5
 21
0.16666667
 12
0.5
 22
-0.16666667
 13
0.5
 23
-0.16666667
  0
ENDBLK
  5
4A8
100
AcDbEntity
100
AcDbBlockEnd
  0
BLOCK
  5
4A9
100
AcDbEntity
  8
0
100
AcDbBlockBegin
  2
CDWK_PTTYP37
 70
     0
 10
0.0
 20
0.0
 30
0.0
  3
CDWK_PTTYP37
  1

  4
Cadwork node
  0
CIRCLE
  5
4AA
100
AcDbEntity
  8
0
 62
     0
370
    -2
100
AcDbCircle
 10
0.0
 20
0.0
 30
0.0
 40
0.5
  0
SOLID
  5
4AB
100
AcDbEntity
  8
0
 62
     0
100
AcDbTrace
 10
0.0
 20
0.0
 11
0.35350001
 21
0.35350001
 12
0.5
 22
0.0
 13
0.46200001
 23
0.19149999
  0
SOLID
  5
4AC
100
AcDbEntity
  8
0
 62
     0
100
AcDbTrace
 10
0.0
 20
0.0
 11
0.35350001
 21
-0.35350001
 12
0.5
 22
0.0
 13
0.46200001
 23
-0.19149999
  0
SOLID
  5
4AD
100
AcDbEntity
  8
0
 62
     0
100
AcDbTrace
 10
0.0
 20
0.0
 11
0.0
 21
-0.5
 12
0.35350001
 22
-0.35350001
 13
0.19149999
 23
-0.46200001
  0
SOLID
  5
4AE
100
AcDbEntity
  8
0
 62
     0
100
AcDbTrace
 10
0.0
 20
0.0
 11
0.0
 21
-0.5
 12
-0.35350001
 22
-0.35350001
 13
-0.19149999
 23
-0.46200001
  0
ENDBLK
  5
4AF
100
AcDbEntity
100
AcDbBlockEnd
  0
BLOCK
  5
4B0
100
AcDbEntity
  8
0
100
AcDbBlockBegin
  2
CDWK_PTTYP38
 70
     0
 10
0.0
 20
0.0
 30
0.0
  3
CDWK_PTTYP38
  1

  4
Cadwork node
  0
CIRCLE
  5
4B1
100
AcDbEntity
  8
0
 62
     0
370
    -2
100
AcDbCircle
 10
0.0
 20
0.0
 30
0.0
 40
0.5
  0
SOLID
  5
4B2
100
AcDbEntity
  8
0
 62
     0
100
AcDbTrace
 10
0.0
 20
0.0
 11
0.35350001
 21
0.35350001
 12
0.0
 22
0.5
 13
0.19149999
 23
0.46200001
  0
SOLID
  5
4B3
100
AcDbEntity
  8
0
 62
     0
100
AcDbTrace
 10
0.0
 20
0.0
 11
0.5
 21
0.0
 12
0.35350001
 22
0.35350001
 13
0.46200001
 23
0.19149999
  0
SOLID
  5
4B4
100
AcDbEntity
  8
0
 62
     0
100
AcDbTrace
 10
0.0
 20
0.0
 11
0.0
 21
-0.5
 12
-0.35350001
 22
-0.35350001
 13
-0.19149999
 23
-0.46200001
  0
SOLID
  5
4B5
100
AcDbEntity
  8
0
 62
     0
100
AcDbTrace
 10
0.0
 20
0.0
 11
-0.5
 21
0.0
 12
-0.35350001
 22
-0.35350001
 13
-0.46200001
 23
-0.19149999
  0
ENDBLK
  5
4B6
100
AcDbEntity
100
AcDbBlockEnd
  0
BLOCK
  5
4B7
100
AcDbEntity
  8
Ech.1_5
100
AcDbBlockBegin
  2
*X1
 70
     1
 10
0.0
 20
0.0
 30
0.0
  3
*X1
  1

  4
Cadwork hatch
  0
LINE
  5
4B8
100
AcDbEntity
  8
Ech.1_5
 62
   190
  6
CONTINUOUS
370
    -2
100
AcDbLine
 10
36932.39928639
 20
-23591.45376061
 30
0.0
 11
36752.39866634
 21
-23546.45377275
 31
0.0
  0
LINE
  5
4B9
100
AcDbEntity
  8
Ech.1_5
 62
   190
  6
CONTINUOUS
370
    -2
100
AcDbLine
 10
36932.39928639
 20
-23546.45377275
 30
0.0
 11
36752.39866634
 21
-23591.45376061
 31
0.0
  0
ENDBLK
  5
4BA
100
AcDbEntity
100
AcDbBlockEnd
  0
BLOCK
  5
4BB
100
AcDbEntity
  8
Ech.1_5
100
AcDbBlockBegin
  2
*X2
 70
     1
 10
0.0
 20
0.0
 30
0.0
  3
*X2
  1

  4
Cadwork hatch
  0
LINE
  5
4BC
100
AcDbEntity
  8
Ech.1_5
 62
   190
  6
CONTINUOUS
370
    -2
100
AcDbLine
 10
36932.39928639
 20
-23689.45377874
 30
0.0
 11
36752.39866634
 21
-23644.45379089
 31
0.0
  0
LINE
  5
4BD
100
AcDbEntity
  8
Ech.1_5
 62
   190
  6
CONTINUOUS
370
    -2
100
AcDbLine
 10
36932.39928639
 20
-23644.45379089
 30
0.0
 11
36752.39866634
 21
-23689.45377874
 31
0.0
  0
ENDBLK
  5
4BE
100
AcDbEntity
100
AcDbBlockEnd
  0
ENDSEC
  0
SECTION
  2
ENTITIES
  0
INSERT
  5
4BF
100
AcDbEntity
  8
Ech.1_5
 62
     0
370
    -3
100
AcDbBlockReference
  2
*X1
 10
0.0
 20
0.0
 30
0.0
  0
INSERT
  5
4C0
100
AcDbEntity
  8
Ech.1_5
 62
     0
370
    -3
100
AcDbBlockReference
  2
*X2
 10
0.0
 20
0.0
 30
0.0
  0
LWPOLYLINE
  5
4C1
100
AcDbEntity
  8
Ech.1_5
 62
   190
  6
CONTINUOUS
370
    -3
100
AcDbPolyline
 90
        9
 70
     1
 43
0.0
 10
36866.47013062
 20
-24366.42637182
 10
36882.9564847
 20
-24348.44802022
 10
36868.84654469
 20
-24384.40372015
 10
36885.33204784
 20
-24366.42637182
 10
36932.39765665
 20
-24366.42474199
 10
36932.39765665
 20
-23907.45383009
 10
36932.39765665
 20
-23644.453832
 10
36752.39765665
 20
-23644.453832
 10
36752.39765665
 20
-24366.42607999
  0
LWPOLYLINE
  5
4C2
100
AcDbEntity
  8
Ech.1_5
 62
   190
  6
CONTINUOUS
370
    -3
100
AcDbPolyline
 90
       44
 70
     0
 43
0.0
 10
36902.36218332
 20
-24366.42286894
 42
1.14028181
 10
36894.60311304
 20
-24307.45856194
 10
36790.15525204
 20
-24335.40096819
 42
-1.30322619
 10
36790.1588705
 20
-24277.45913412
 10
36894.60324069
 20
-24305.41458565
 42
1.30322619
 10
36894.60685915
 20
-24247.47275159
 10
36790.15899814
 20
-24275.41515784
 42
-1.30322619
 10
36790.1626166
 20
-24217.47332377
 10
36894.60698679
 20
-24245.4287753
 42
1.30322619
 10
36894.61060525
 20
-24187.48694123
 10
36790.16274425
 20
-24215.42934748
 42
-1.30322619
 10
36790.16636271
 20
-24157.48751341
 10
36894.6107329
 20
-24185.44296494
 42
1.30322619
 10
36894.61435135
 20
-24127.50113088
 10
36790.16649035
 20
-24155.44353713
 42
-1.30322619
 10
36790.17010881
 20
-24097.50170306
 10
36894.614479
 20
-24125.45715459
 42
1.30322619
 10
36894.61809746
 20
-24067.51532052
 10
36790.17023646
 20
-24095.45772677
 42
-1.30322619
 10
36790.17385491
 20
-24037.5158927
 10
36894.6182251
 20
-24065.47134423
 42
1.30322619
 10
36894.62184356
 20
-24007.52951017
 10
36790.17398256
 20
-24035.47191642
 42
-1.30322619
 10
36790.17760102
 20
-23977.53008235
 10
36894.62197121
 20
-24005.48553388
 42
1.30322619
 10
36894.62558966
 20
-23947.54369981
 10
36790.17772866
 20
-23975.48610606
 42
-1.30322619
 10
36790.18134712
 20
-23917.54427199
 10
36894.62571731
 20
-23945.49972352
 42
1.30322619
 10
36894.62933577
 20
-23887.55788946
 10
36790.18147477
 20
-23915.50029571
 42
-1.30322619
 10
36790.18509322
 20
-23857.55846164
 10
36894.62946341
 20
-23885.51391317
 42
1.30322619
 10
36894.63308187
 20
-23827.5720791
 10
36790.18522087
 20
-23855.51448535
 42
-1.30322619
 10
36790.18883933
 20
-23797.57265128
 10
36894.63320952
 20
-23825.52810281
 42
1.30322619
 10
36894.63682797
 20
-23767.58626875
 10
36790.18896697
 20
-23795.528675
 42
-1.30322619
 10
36790.19258543
 20
-23737.58684093
 10
36894.63695562
 20
-23765.54229246
 42
1.30322619
 10
36894.64057408
 20
-23707.60045839
 10
36790.19271308
 20
-23735.54286464
 42
-0.77850974
 10
36761.82704853
 20
-23684.77651323
  0
LWPOLYLINE
  5
4C3
100
AcDbEntity
  8
Ech.1_5
 62
   190
  6
CONTINUOUS
370
    -3
100
AcDbPolyline
 90
        5
 70
     1
 43
0.0
 10
36752.39833876
 20
-23782.17562166
 10
36842.39833876
 20
-23782.17562166
 10
36842.39791729
 20
-23905.75386243
 10
36842.39765665
 20
-24140.15042195
 10
36752.39765665
 20
-24140.15042195
  0
LWPOLYLINE
  5
4C4
102
{ACAD_REACTORS
330
4C5
102
}
100
AcDbEntity
  8
Ech.1_5
 62
   150
  6
CONTINUOUS
370
    -3
100
AcDbPolyline
 90
        4
 70
     1
 43
0.0
 10
36733.39765665
 20
-24100.15042195
 10
36733.39765665
 20
-23823.31379236
 10
36743.39765665
 20
-23823.31379236
 10
36743.39765665
 20
-24100.15042195
  0
HATCH
  5
4C5
100
AcDbEntity
  8
Ech.1_5
 62
   150
  6
CONTINUOUS
100
AcDbHatch
 10
0.0
 20
0.0
 30
0.0
210
0.0
220
0.0
230
1.0
  2
ANSI31
 70
     0
 71
     1
 91
        1
 92
        7
 72
     0
 73
     1
 93
        4
 10
36733.39765665
 20
-24100.15042195
 10
36733.39765665
 20
-23823.31379236
 10
36743.39765665
 20
-23823.31379236
 10
36743.39765665
 20
-24100.15042195
 97
        1
330
4C4
 75
     0
 76
     2
 52
90.0
 41
1.25985044
 77
     0
 78
     1
 53
-45.0
 43
0.0
 44
0.0
 45
2.82842717
 46
2.82842717
 79
     0
 47
0.775229
 98
        1
 10
0.0
 20
0.0
  0
LWPOLYLINE
  5
4C6
100
AcDbEntity
  8
Ech.1_5
 62
   190
  6
CONTINUOUS
370
    -3
100
AcDbPolyline
 90
        4
 70
     1
 43
0.0
 10
36932.39765665
 20
-23391.453832
 10
36932.39765665
 20
-23591.453832
 10
36952.39765665
 20
-23591.453832
 10
36952.39765665
 20
-23391.453832
  0
LWPOLYLINE
  5
4C7
100
AcDbEntity
  8
Ech.1_5
 62
   190
  6
CONTINUOUS
370
    -3
100
AcDbPolyline
 90
      120
 70
     0
 43
0.0
 10
36949.06432331
 20
-23591.453832
 42
1.14028181
 10
36948.20159122
 20
-23584.90074643
 10
36936.59372207
 20
-23588.00691757
 42
-1.30322619
 10
36936.59372207
 20
-23581.5674131
 10
36948.20159122
 20
-23584.67358423
 42
1.30322619
 10
36948.20159122
 20
-23578.23407977
 10
36936.59372207
 20
-23581.3402509
 42
-1.30322619
 10
36936.59372207
 20
-23574.90074643
 10
36948.20159122
 20
-23578.00691757
 42
1.30322619
 10
36948.20159122
 20
-23571.5674131
 10
36936.59372207
 20
-23574.67358423
 42
-1.30322619
 10
36936.59372207
 20
-23568.23407977
 10
36948.20159122
 20
-23571.3402509
 42
1.30322619
 10
36948.20159122
 20
-23564.90074643
 10
36936.59372207
 20
-23568.00691757
 42
-1.30322619
 10
36936.59372207
 20
-23561.5674131
 10
36948.20159122
 20
-23564.67358423
 42
1.30322619
 10
36948.20159122
 20
-23558.23407977
 10
36936.59372207
 20
-23561.3402509
 42
-1.30322619
 10
36936.59372207
 20
-23554.90074643
 10
36948.20159122
 20
-23558.00691757
 42
1.30322619
 10
36948.20159122
 20
-23551.5674131
 10
36936.59372207
 20
-23554.67358423
 42
-1.30322619
 10
36936.59372207
 20
-23548.23407977
 10
36948.20159122
 20
-23551.3402509
 42
1.30322619
 10
36948.20159122
 20
-23544.90074643
 10
36936.59372207
 20
-23548.00691757
 42
-1.30322619
 10
36936.59372207
 20
-23541.5674131
 10
36948.20159122
 20
-23544.67358423
 42
1.30322619
 10
36948.20159122
 20
-23538.23407977
 10
36936.59372207
 20
-23541.3402509
 42
-1.30322619
 10
36936.59372207
 20
-23534.90074643
 10
36948.20159122
 20
-23538.00691757
 42
1.30322619
 10
36948.20159122
 20
-23531.5674131
 10
36936.59372207
 20
-23534.67358423
 42
-1.30322619
 10
36936.59372207
 20
-23528.23407977
 10
36948.20159122
 20
-23531.3402509
 42
1.30322619
 10
36948.20159122
 20
-23524.90074643
 10
36936.59372207
 20
-23528.00691757
 42
-1.30322619
 10
36936.59372207
 20
-23521.5674131
 10
36948.20159122
 20
-23524.67358423
 42
1.30322619
 10
36948.20159122
 20
-23518.23407977
 10
36936.59372207
 20
-23521.3402509
 42
-1.30322619
 10
36936.59372207
 20
-23514.90074643
 10
36948.20159122
 20
-23518.00691757
 42
1.30322619
 10
36948.20159122
 20
-23511.5674131
 10
36936.59372207
 20
-23514.67358423
 42
-1.30322619
 10
36936.59372207
 20
-23508.23407977
 10
36948.20159122
 20
-23511.3402509
 42
1.30322619
 10
36948.20159122
 20
-23504.90074643
 10
36936.59372207
 20
-23508.00691757
 42
-1.30322619
 10
36936.59372207
 20
-23501.5674131
 10
36948.20159122
 20
-23504.67358423
 42
1.30322619
 10
36948.20159122
 20
-23498.23407977
 10
36936.59372207
 20
-23501.3402509
 42
-1.30322619
 10
36936.59372207
 20
-23494.90074643
 10
36948.20159122
 20
-23498.00691757
 42
1.30322619
 10
36948.20159122
 20
-23491.5674131
 10
36936.59372207
 20
-23494.67358423
 42
-1.30322619
 10
36936.59372207
 20
-23488.23407977
 10
36948.20159122
 20
-23491.3402509
 42
1.30322619
 10
36948.20159122
 20
-23484.90074643
 10
36936.59372207
 20
-23488.00691757
 42
-1.30322619
 10
36936.59372207
 20
-23481.5674131
 10
36948.20159122
 20
-23484.67358423
 42
1.30322619
 10
36948.20159122
 20
-23478.23407977
 10
36936.59372207
 20
-23481.3402509
 42
-1.30322619
 10
36936.59372207
 20
-23474.90074643
 10
36948.20159122
 20
-23478.00691757
 42
1.30322619
 10
36948.20159122
 20
-23471.5674131
 10
36936.59372207
 20
-23474.67358423
 42
-1.30322619
 10
36936.59372207
 20
-23468.23407977
 10
36948.20159122
 20
-23471.3402509
 42
1.30322619
 10
36948.20159122
 20
-23464.90074643
 10
36936.59372207
 20
-23468.00691757
 42
-1.30322619
 10
36936.59372207
 20
-23461.5674131
 10
36948.20159122
 20
-23464.67358423
 42
1.30322619
 10
36948.20159122
 20
-23458.23407977
 10
36936.59372207
 20
-23461.3402509
 42
-1.30322619
 10
36936.59372207
 20
-23454.90074643
 10
36948.20159122
 20
-23458.00691757
 42
1.30322619
 10
36948.20159122
 20
-23451.5674131
 10
36936.59372207
 20
-23454.67358423
 42
-1.30322619
 10
36936.59372207
 20
-23448.23407977
 10
36948.20159122
 20
-23451.3402509
 42
1.30322619
 10
36948.20159122
 20
-23444.90074643
 10
36936.59372207
 20
-23448.00691757
 42
-1.30322619
 10
36936.59372207
 20
-23441.5674131
 10
36948.20159122
 20
-23444.67358423
 42
1.30322619
 10
36948.20159122
 20
-23438.23407977
 10
36936.59372207
 20
-23441.3402509
 42
-1.30322619
 10
36936.59372207
 20
-23434.90074643
 10
36948.20159122
 20
-23438.00691757
 42
1.30322619
 10
36948.20159122
 20
-23431.5674131
 10
36936.59372207
 20
-23434.67358423
 42
-1.30322619
 10
36936.59372207
 20
-23428.23407977
 10
36948.20159122
 20
-23431.3402509
 42
1.30322619
 10
36948.20159122
 20
-23424.90074643
 10
36936.59372207
 20
-23428.00691757
 42
-1.30322619
 10
36936.59372207
 20
-23421.5674131
 10
36948.20159122
 20
-23424.67358423
 42
1.30322619
 10
36948.20159122
 20
-23418.23407977
 10
36936.59372207
 20
-23421.3402509
 42
-1.30322619
 10
36936.59372207
 20
-23414.90074643
 10
36948.20159122
 20
-23418.00691757
 42
1.30322619
 10
36948.20159122
 20
-23411.5674131
 10
36936.59372207
 20
-23414.67358423
 42
-1.30322619
 10
36936.59372207
 20
-23408.23407977
 10
36948.20159122
 20
-23411.3402509
 42
1.30322619
 10
36948.20159122
 20
-23404.90074643
 10
36936.59372207
 20
-23408.00691757
 42
-1.30322619
 10
36936.59372207
 20
-23401.5674131
 10
36948.20159122
 20
-23404.67358423
 42
1.30322619
 10
36948.20159122
 20
-23398.23407977
 10
36936.59372207
 20
-23401.3402509
 42
-1.30322619
 10
36936.59372207
 20
-23394.90074643
 10
36948.20159122
 20
-23398.00691757
 42
1.30322619
 10
36948.20159122
 20
-23391.5674131
 10
36936.59372207
 20
-23394.67358423
 42
-0.52586277
 10
36932.39765665
 20
-23391.453832
  0
LWPOLYLINE
  5
4C8
100
AcDbEntity
  8
Ech.1_5
 62
   190
  6
CONTINUOUS
370
    -3
100
AcDbPolyline
 90
        4
 70
     1
 43
0.0
 10
36932.39765665
 20
-23591.453832
 10
36932.39765665
 20
-23791.453832
 10
36952.39765665
 20
-23791.453832
 10
36952.39765665
 20
-23591.453832
  0
LWPOLYLINE
  5
4C9
100
AcDbEntity
  8
Ech.1_5
 62
   190
  6
CONTINUOUS
370
    -3
100
AcDbPolyline
 90
      120
 70
     0
 43
0.0
 10
36949.06432331
 20
-23791.453832
 42
1.14028181
 10
36948.20159122
 20
-23784.90074643
 10
36936.59372207
 20
-23788.00691757
 42
-1.30322619
 10
36936.59372207
 20
-23781.5674131
 10
36948.20159122
 20
-23784.67358423
 42
1.30322619
 10
36948.20159122
 20
-23778.23407977
 10
36936.59372207
 20
-23781.3402509
 42
-1.30322619
 10
36936.59372207
 20
-23774.90074643
 10
36948.20159122
 20
-23778.00691757
 42
1.30322619
 10
36948.20159122
 20
-23771.5674131
 10
36936.59372207
 20
-23774.67358423
 42
-1.30322619
 10
36936.59372207
 20
-23768.23407977
 10
36948.20159122
 20
-23771.3402509
 42
1.30322619
 10
36948.20159122
 20
-23764.90074643
 10
36936.59372207
 20
-23768.00691757
 42
-1.30322619
 10
36936.59372207
 20
-23761.5674131
 10
36948.20159122
 20
-23764.67358423
 42
1.30322619
 10
36948.20159122
 20
-23758.23407977
 10
36936.59372207
 20
-23761.3402509
 42
-1.30322619
 10
36936.59372207
 20
-23754.90074643
 10
36948.20159122
 20
-23758.00691757
 42
1.30322619
 10
36948.20159122
 20
-23751.5674131
 10
36936.59372207
 20
-23754.67358423
 42
-1.30322619
 10
36936.59372207
 20
-23748.23407977
 10
36948.20159122
 20
-23751.3402509
 42
1.30322619
 10
36948.20159122
 20
-23744.90074643
 10
36936.59372207
 20
-23748.00691757
 42
-1.30322619
 10
36936.59372207
 20
-23741.5674131
 10
36948.20159122
 20
-23744.67358423
 42
1.30322619
 10
36948.20159122
 20
-23738.23407977
 10
36936.59372207
 20
-23741.3402509
 42
-1.30322619
 10
36936.59372207
 20
-23734.90074643
 10
36948.20159122
 20
-23738.00691757
 42
1.30322619
 10
36948.20159122
 20
-23731.5674131
 10
36936.59372207
 20
-23734.67358423
 42
-1.30322619
 10
36936.59372207
 20
-23728.23407977
 10
36948.20159122
 20
-23731.3402509
 42
1.30322619
 10
36948.20159122
 20
-23724.90074643
 10
36936.59372207
 20
-23728.00691757
 42
-1.30322619
 10
36936.59372207
 20
-23721.5674131
 10
36948.20159122
 20
-23724.67358423
 42
1.30322619
 10
36948.20159122
 20
-23718.23407977
 10
36936.59372207
 20
-23721.3402509
 42
-1.30322619
 10
36936.59372207
 20
-23714.90074643
 10
36948.20159122
 20
-23718.00691757
 42
1.30322619
 10
36948.20159122
 20
-23711.5674131
 10
36936.59372207
 20
-23714.67358423
 42
-1.30322619
 10
36936.59372207
 20
-23708.23407977
 10
36948.20159122
 20
-23711.3402509
 42
1.30322619
 10
36948.20159122
 20
-23704.90074643
 10
36936.59372207
 20
-23708.00691757
 42
-1.30322619
 10
36936.59372207
 20
-23701.5674131
 10
36948.20159122
 20
-23704.67358423
 42
1.30322619
 10
36948.20159122
 20
-23698.23407977
 10
36936.59372207
 20
-23701.3402509
 42
-1.30322619
 10
36936.59372207
 20
-23694.90074643
 10
36948.20159122
 20
-23698.00691757
 42
1.30322619
 10
36948.20159122
 20
-23691.5674131
 10
36936.59372207
 20
-23694.67358423
 42
-1.30322619
 10
36936.59372207
 20
-23688.23407977
 10
36948.20159122
 20
-23691.3402509
 42
1.30322619
 10
36948.20159122
 20
-23684.90074643
 10
36936.59372207
 20
-23688.00691757
 42
-1.30322619
 10
36936.59372207
 20
-23681.5674131
 10
36948.20159122
 20
-23684.67358423
 42
1.30322619
 10
36948.20159122
 20
-23678.23407977
 10
36936.59372207
 20
-23681.3402509
 42
-1.30322619
 10
36936.59372207
 20
-23674.90074643
 10
36948.20159122
 20
-23678.00691757
 42
1.30322619
 10
36948.20159122
 20
-23671.5674131
 10
36936.59372207
 20
-23674.67358423
 42
-1.30322619
 10
36936.59372207
 20
-23668.23407977
 10
36948.20159122
 20
-23671.3402509
 42
1.30322619
 10
36948.20159122
 20
-23664.90074643
 10
36936.59372207
 20
-23668.00691757
 42
-1.30322619
 10
36936.59372207
 20
-23661.5674131
 10
36948.20159122
 20
-23664.67358423
 42
1.30322619
 10
36948.20159122
 20
-23658.23407977
 10
36936.59372207
 20
-23661.3402509
 42
-1.30322619
 10
36936.59372207
 20
-23654.90074643
 10
36948.20159122
 20
-23658.00691757
 42
1.30322619
 10
36948.20159122
 20
-23651.5674131
 10
36936.59372207
 20
-23654.67358423
 42
-1.30322619
 10
36936.59372207
 20
-23648.23407977
 10
36948.20159122
 20
-23651.3402509
 42
1.30322619
 10
36948.20159122
 20
-23644.90074643
 10
36936.59372207
 20
-23648.00691757
 42
-1.30322619
 10
36936.59372207
 20
-23641.5674131
 10
36948.20159122
 20
-23644.67358423
 42
1.30322619
 10
36948.20159122
 20
-23638.23407977
 10
36936.59372207
 20
-23641.3402509
 42
-1.30322619
 10
36936.59372207
 20
-23634.90074643
 10
36948.20159122
 20
-23638.00691757
 42
1.30322619
 10
36948.20159122
 20
-23631.5674131
 10
36936.59372207
 20
-23634.67358423
 42
-1.30322619
 10
36936.59372207
 20
-23628.23407977
 10
36948.20159122
 20
-23631.3402509
 42
1.30322619
 10
36948.20159122
 20
-23624.90074643
 10
36936.59372207
 20
-23628.00691757
 42
-1.30322619
 10
36936.59372207
 20
-23621.5674131
 10
36948.20159122
 20
-23624.67358423
 42
1.30322619
 10
36948.20159122
 20
-23618.23407977
 10
36936.59372207
 20
-23621.3402509
 42
-1.30322619
 10
36936.59372207
 20
-23614.90074643
 10
36948.20159122
 20
-23618.00691757
 42
1.30322619
 10
36948.20159122
 20
-23611.5674131
 10
36936.59372207
 20
-23614.67358423
 42
-1.30322619
 10
36936.59372207
 20
-23608.23407977
 10
36948.20159122
 20
-23611.3402509
 42
1.30322619
 10
36948.20159122
 20
-23604.90074643
 10
36936.59372207
 20
-23608.00691757
 42
-1.30322619
 10
36936.59372207
 20
-23601.5674131
 10
36948.20159122
 20
-23604.67358423
 42
1.30322619
 10
36948.20159122
 20
-23598.23407977
 10
36936.59372207
 20
-23601.3402509
 42
-1.30322619
 10
36936.59372207
 20
-23594.90074643
 10
36948.20159122
 20
-23598.00691757
 42
1.30322619
 10
36948.20159122
 20
-23591.5674131
 10
36936.59372207
 20
-23594.67358423
 42
-0.52586277
 10
36932.39765665
 20
-23591.453832
  0
LWPOLYLINE
  5
4CA
100
AcDbEntity
  8
Ech.1_5
 62
   190
  6
CONTINUOUS
370
    -3
100
AcDbPolyline
 90
        4
 70
     1
 43
0.0
 10
36797.39341862
 20
-23645.22603881
 10
36830.59726387
 20
-23645.22515523
 10
36830.59726387
 20
-23635.79249517
 10
36797.39341862
 20
-23635.79337875
  0
LWPOLYLINE
  5
4CB
100
AcDbEntity
  8
Ech.1_5
 62
   190
  6
CONTINUOUS
370
    -3
100
AcDbPolyline
 90
        4
 70
     0
 43
0.0
 10
36830.59726387
 20
-23635.79249517
 10
36797.39341862
 20
-23645.22603881
 10
36797.39341862
 20
-23635.79337875
 10
36830.59726387
 20
-23645.22515523
  0
LWPOLYLINE
  5
4CC
100
AcDbEntity
  8
Ech.1_5
 62
     9
  6
CONTINUOUS
370
    -3
100
AcDbPolyline
 90
        6
 70
     0
 43
0.0
 10
37380.82753304
 20
-23470.453832
 10
37380.82900886
 20
-23605.56133208
 10
37398.80635727
 20
-23622.04683527
 10
37362.85065726
 20
-23607.93689474
 10
37380.82900886
 20
-23624.42324957
 10
37380.82818658
 20
-23733.6141453
  0
LINE
  5
4CD
100
AcDbEntity
  8
Ech.1_5
 62
   190
  6
CONTINUOUS
370
    -3
100
AcDbLine
 10
36932.39765665
 20
-23459.453832
 30
0.0
 11
36932.39765665
 21
-23361.86199177
 31
0.0
  0
LINE
  5
4CE
100
AcDbEntity
  8
Ech.1_5
 62
   190
  6
CONTINUOUS
370
    -3
100
AcDbLine
 10
36932.39765665
 20
-23833.453832
 30
0.0
 11
36932.39765665
 21
-24366.42474199
 31
0.0
  0
LWPOLYLINE
  5
4CF
100
AcDbEntity
  8
Ech.1_5
 62
   190
  6
CONTINUOUS
370
    -3
100
AcDbPolyline
 90
        8
 70
     1
 43
0.0
 10
36833.69307736
 20
-23361.86074723
 10
36817.20672328
 20
-23379.83909882
 10
36831.3166633
 20
-23343.8833989
 10
36814.83116014
 20
-23361.86074723
 10
36752.39765665
 20
-23361.86099805
 10
36752.39765665
 20
-23591.453832
 10
36932.39765665
 20
-23591.453832
 10
36932.39765665
 20
-23361.86114777
  0
ARC
  5
4D0
100
AcDbEntity
  8
Ech.1_5
 62
   190
  6
CONTINUOUS
370
    -3
100
AcDbCircle
 10
36902.3976621
 20
-23646.05138751
 30
0.0
 40
30.00002939
100
AcDbArc
 50
254.99996969
 51
270.00612887
  0
LWPOLYLINE
  5
4D1
100
AcDbEntity
  8
Ech.1_5
 62
   190
  6
CONTINUOUS
370
    -3
100
AcDbPolyline
 90
        4
 70
     0
 43
0.0
 10
36772.73831882
 20
-23644.453832
 42
0.08211149
 10
36782.3944421
 20
-23646.05141673
 42
0.06557045
 10
36790.16224548
 20
-23645.02918658
 10
36792.31236543
 20
-23644.453832
  0
ARC
  5
4D2
100
AcDbEntity
  8
Ech.1_5
 62
   190
  6
CONTINUOUS
370
    -3
100
AcDbCircle
 10
36902.39765677
 20
-23586.0514164
 30
0.0
 40
29.99999984
100
AcDbArc
 50
333.46482228
 51
89.99386095
  0
ARC
  5
4D3
100
AcDbEntity
  8
Ech.1_5
 62
   190
  6
CONTINUOUS
370
    -3
100
AcDbCircle
 10
36902.3976621
 20
-23526.05138752
 30
0.0
 40
30.00002938
100
AcDbArc
 50
254.99996969
 51
270.00612887
  0
LWPOLYLINE
  5
4D4
100
AcDbEntity
  8
Ech.1_5
 62
   190
  6
CONTINUOUS
370
    -3
100
AcDbPolyline
 90
        4
 70
     0
 43
0.0
 10
36806.53115236
 20
-23591.453832
 10
36790.16224548
 20
-23587.07364592
 42
0.06551676
 10
36782.40087154
 20
-23586.05141673
 42
0.15359944
 10
36765.22329047
 20
-23591.453832
  0
LWPOLYLINE
  5
4D5
100
AcDbEntity
  8
Ech.1_5
 62
   190
  6
CONTINUOUS
370
    -3
100
AcDbPolyline
 90
        4
 70
     1
 43
0.0
 10
36752.39765665
 20
-23546.453832
 10
36752.39765665
 20
-23591.453832
 10
36932.39765665
 20
-23591.453832
 10
36932.39765665
 20
-23546.453832
  0
LWPOLYLINE
  5
4D6
100
AcDbEntity
  8
Ech.1_5
 62
   190
  6
CONTINUOUS
370
    -3
100
AcDbPolyline
 90
        4
 70
     1
 43
0.0
 10
36932.39765665
 20
-23591.453832
 10
36932.39765665
 20
-23546.453832
 10
36752.39765665
 20
-23546.453832
 10
36752.39765665
 20
-23591.453832
  0
LWPOLYLINE
  5
4D7
100
AcDbEntity
  8
Ech.1_5
 62
   190
  6
CONTINUOUS
370
    -3
100
AcDbPolyline
 90
        4
 70
     1
 43
0.0
 10
36752.39765665
 20
-23644.453832
 10
36752.39765665
 20
-23689.453832
 10
36932.39765665
 20
-23689.453832
 10
36932.39765665
 20
-23644.453832
  0
LWPOLYLINE
  5
4D8
100
AcDbEntity
  8
Ech.1_5
 62
   190
  6
CONTINUOUS
370
    -3
100
AcDbPolyline
 90
        4
 70
     1
 43
0.0
 10
36932.39765665
 20
-23689.453832
 10
36932.39765665
 20
-23644.453832
 10
36752.39765665
 20
-23644.453832
 10
36752.39765665
 20
-23689.453832
  0
LWPOLYLINE
  5
4D9
102
{ACAD_REACTORS
330
4DA
102
}
100
AcDbEntity
  8
Ech.1_5
 62
     7
  6
CONTINUOUS
370
     5
100
AcDbPolyline
 90
        4
 70
     1
 43
0.0
 10
36763.84270029
 20
-23644.453832
 10
36789.66723137
 20
-23644.453832
 10
36789.66723137
 20
-23635.0211719
 10
36763.84270029
 20
-23635.0211719
  0
HATCH
  5
4DA
100
AcDbEntity
  8
Ech.1_5
 62
     2
  6
CONTINUOUS
100
AcDbHatch
 10
0.0
 20
0.0
 30
0.0
210
0.0
220
0.0
230
1.0
  2
SOLID
 70
     1
 71
     1
 91
        1
 92
        7
 72
     0
 73
     1
 93
        4
 10
36763.84270029
 20
-23644.453832
 10
36789.66723137
 20
-23644.453832
 10
36789.66723137
 20
-23635.0211719
 10
36763.84270029
 20
-23635.0211719
 97
        1
330
4D9
 75
     0
 76
     2
 47
0.775229
 98
        1
 10
0.0
 20
0.0
  0
HATCH
  5
4DB
100
AcDbEntity
  8
Ech.1_5
 62
     7
100
AcDbHatch
 10
0.0
 20
0.0
 30
0.0
210
0.0
220
0.0
230
1.0
  2
ANSI37
 70
     0
 71
     0
 91
        1
 92
        7
 72
     0
 73
     1
 93
        4
 10
36763.84270029
 20
-23644.453832
 10
36789.66723137
 20
-23644.453832
 10
36789.66723137
 20
-23635.0211719
 10
36763.84270029
 20
-23635.0211719
 97
        0
 75
     0
 76
     2
 52
0.0
 41
1.87498831
 77
     0
 78
     2
 53
45.0
 43
0.0
 44
0.0
 45
4.20946876
 46
-4.20946876
 79
     0
 53
-45.0
 43
0.0
 44
0.0
 45
4.20946876
 46
4.20946876
 79
     0
 47
0.775229
 98
        1
 10
0.0
 20
0.0
  0
LWPOLYLINE
  5
4DC
102
{ACAD_REACTORS
330
4DD
102
}
100
AcDbEntity
  8
Ech.1_5
 62
     7
  6
CONTINUOUS
370
     5
100
AcDbPolyline
 90
        4
 70
     1
 43
0.0
 10
36894.70299032
 20
-23600.00142226
 10
36920.52752141
 20
-23600.00142226
 10
36920.52752141
 20
-23590.56876215
 10
36894.70299032
 20
-23590.56876215
  0
HATCH
  5
4DD
100
AcDbEntity
  8
Ech.1_5
 62
     2
  6
CONTINUOUS
100
AcDbHatch
 10
0.0
 20
0.0
 30
0.0
210
0.0
220
0.0
230
1.0
  2
SOLID
 70
     1
 71
     1
 91
        1
 92
        7
 72
     0
 73
     1
 93
        4
 10
36894.70299032
 20
-23600.00142226
 10
36920.52752141
 20
-23600.00142226
 10
36920.52752141
 20
-23590.56876215
 10
36894.70299032
 20
-23590.56876215
 97
        1
330
4DC
 75
     0
 76
     2
 47
0.775229
 98
        1
 10
0.0
 20
0.0
  0
HATCH
  5
4DE
100
AcDbEntity
  8
Ech.1_5
 62
     7
100
AcDbHatch
 10
0.0
 20
0.0
 30
0.0
210
0.0
220
0.0
230
1.0
  2
ANSI37
 70
     0
 71
     0
 91
        1
 92
        7
 72
     0
 73
     1
 93
        4
 10
36894.70299032
 20
-23600.00142226
 10
36920.52752141
 20
-23600.00142226
 10
36920.52752141
 20
-23590.56876215
 10
36894.70299032
 20
-23590.56876215
 97
        0
 75
     0
 76
     2
 52
0.0
 41
1.87498831
 77
     0
 78
     2
 53
45.0
 43
0.0
 44
0.0
 45
4.20946876
 46
-4.20946876
 79
     0
 53
-45.0
 43
0.0
 44
0.0
 45
4.20946876
 46
4.20946876
 79
     0
 47
0.775229
 98
        1
 10
0.0
 20
0.0
  0
LWPOLYLINE
  5
4DF
102
{ACAD_REACTORS
330
4E0
102
}
100
AcDbEntity
  8
Ech.1_5
 62
     9
  6
CONTINUOUS
370
    -3
100
AcDbPolyline
 90
       11
 70
     1
 43
0.0
 38
2500.0
 39
-2500.0
 10
36952.39765665
 20
-23524.45383486
 10
36952.39765665
 20
-23704.45533881
 10
37380.82859566
 20
-23704.45533881
 10
37380.82900886
 20
-23624.42324957
 10
37362.85065726
 20
-23607.93689474
 10
37398.80635727
 20
-23622.04683527
 10
37380.82900886
 20
-23605.56133208
 10
37380.82804243
 20
-23524.45383486
 10
37380.82780412
 20
-23504.45383486
 10
37084.89765665
 20
-23504.45383486
 10
36952.39765665
 20
-23504.45383486
  0
HATCH
  5
4E0
100
AcDbEntity
  8
Ech.1_5
 62
     9
  6
CONTINUOUS
100
AcDbHatch
 10
0.0
 20
0.0
 30
0.0
210
0.0
220
0.0
230
1.0
  2
AR-CONC
 70
     0
 71
     1
 91
        1
 92
        7
 72
     0
 73
     1
 93
       11
 10
36952.39765665
 20
-23524.45383486
 10
36952.39765665
 20
-23704.45533881
 10
37380.82859566
 20
-23704.45533881
 10
37380.82900886
 20
-23624.42324957
 10
37362.85065726
 20
-23607.93689474
 10
37398.80635727
 20
-23622.04683527
 10
37380.82900886
 20
-23605.56133208
 10
37380.82804243
 20
-23524.45383486
 10
37380.82780412
 20
-23504.45383486
 10
37084.89765665
 20
-23504.45383486
 10
36952.39765665
 20
-23504.45383486
 97
        1
330
4DF
 75
     0
 76
     2
 52
0.0
 41
0.11811097
 77
     0
 78
    13
 53
50.0
 43
0.0
 44
0.0
 45
-18.84283637
 46
1.64853443
 79
     2
 49
1.97029307
 49
-21.67322338
 53
355.0
 43
0.0
 44
0.0
 45
-3.64507756
 46
19.76051824
 79
     2
 49
1.57623377
 49
-17.3385787
 53
100.45140076
 43
1.57023568
 44
-0.13737749
 45
-15.19777228
 46
-18.11197244
 79
     2
 49
1.67449124
 49
-18.41940522
 53
46.18420029
 43
0.0
 44
5.25411576
 45
-28.03703353
 46
4.34827878
 79
     2
 49
2.95543872
 49
-32.50983238
 53
96.63559723
 43
2.33641885
 44
4.89175692
 45
-24.55412615
 46
-25.59063404
 79
     2
 49
2.51173697
 49
-27.62910426
 53
351.1842041
 43
0.0
 44
5.25411576
 45
24.55410288
 46
25.59065715
 79
     2
 49
2.36435249
 49
-26.00786805
 53
21.0
 43
2.62705699
 44
3.94058615
 45
-15.68109068
 46
10.57702905
 79
     2
 49
1.97029307
 49
-21.67322338
 53
326.0
 43
2.62705699
 44
3.94058615
 45
6.39203268
 46
19.05010734
 79
     2
 49
1.57623377
 49
-17.3385787
 53
71.45140076
 43
3.93381357
 44
3.05916555
 45
-22.07312962
 46
-8.47306182
 79
     2
 49
1.67449124
 49
-18.41940522
 53
37.5
 43
0.0
 44
0.0
 45
0.31944534
 46
8.74531245
 79
     6
 49
0.01875
 49
-17.12841332
 49
0.01875
 49
-17.60128498
 49
0.01875
 49
-17.40425348
 53
7.5
 43
0.0
 44
0.0
 45
6.91098818
 46
10.3614222
 79
     6
 49
0.01875
 49
-10.03535807
 49
0.01875
 49
-16.7343539
 49
0.01875
 49
-6.6333206
 53
-32.5
 43
-5.85833833
 44
0.0
 45
14.02382061
 46
-0.59253003
 79
     6
 49
0.01875
 49
-6.56764314
 49
0.01875
 49
-20.49104869
 49
0.01875
 49
-27.19004452
 53
-42.5
 43
-8.48539531
 44
0.0
 45
15.32063571
 46
2.62981542
 79
     6
 49
0.01875
 49
-8.53793621
 49
0.01875
 49
-13.60815793
 49
0.01875
 49
-19.30887222
 47
0.775229
 98
        1
 10
0.0
 20
0.0
  0
3DFACE
  5
4E1
102
{ACAD_REACTORS
330
4E2
102
}
100
AcDbEntity
  8
Ech.1_5
 62
     9
  6
CONTINUOUS
370
    -3
100
AcDbFace
 70
     0
 10
36952.39765665
 20
-23361.8614459
 30
2500.0
 11
36952.39765665
 21
-23504.45383486
 31
2500.0
 12
37152.39765665
 22
-23504.48321655
 32
2500.0
 13
37152.39765665
 23
-23361.86135738
 33
2500.0
  0
HATCH
  5
4E2
100
AcDbEntity
  8
Ech.1_5
 62
     9
  6
CONTINUOUS
100
AcDbHatch
 10
0.0
 20
0.0
 30
0.0
210
0.0
220
0.0
230
1.0
  2
AR-CONC
 70
     0
 71
     1
 91
        1
 92
        7
 72
     0
 73
     1
 93
        4
 10
36952.39765665
 20
-23361.8614459
 10
36952.39765665
 20
-23504.45383486
 10
37152.39765665
 20
-23504.48321655
 10
37152.39765665
 20
-23361.86135738
 97
        1
330
4E1
 75
     0
 76
     2
 52
0.0
 41
0.11811097
 77
     0
 78
    13
 53
50.0
 43
0.0
 44
0.0
 45
-18.84283637
 46
1.64853443
 79
     2
 49
1.97029307
 49
-21.67322338
 53
355.0
 43
0.0
 44
0.0
 45
-3.64507756
 46
19.76051824
 79
     2
 49
1.57623377
 49
-17.3385787
 53
100.45140076
 43
1.57023568
 44
-0.13737749
 45
-15.19777228
 46
-18.11197244
 79
     2
 49
1.67449124
 49
-18.41940522
 53
46.18420029
 43
0.0
 44
5.25411576
 45
-28.03703353
 46
4.34827878
 79
     2
 49
2.95543872
 49
-32.50983238
 53
96.63559723
 43
2.33641885
 44
4.89175692
 45
-24.55412615
 46
-25.59063404
 79
     2
 49
2.51173697
 49
-27.62910426
 53
351.1842041
 43
0.0
 44
5.25411576
 45
24.55410288
 46
25.59065715
 79
     2
 49
2.36435249
 49
-26.00786805
 53
21.0
 43
2.62705699
 44
3.94058615
 45
-15.68109068
 46
10.57702905
 79
     2
 49
1.97029307
 49
-21.67322338
 53
326.0
 43
2.62705699
 44
3.94058615
 45
6.39203268
 46
19.05010734
 79
     2
 49
1.57623377
 49
-17.3385787
 53
71.45140076
 43
3.93381357
 44
3.05916555
 45
-22.07312962
 46
-8.47306182
 79
     2
 49
1.67449124
 49
-18.41940522
 53
37.5
 43
0.0
 44
0.0
 45
0.31944534
 46
8.74531245
 79
     6
 49
0.01875
 49
-17.12841332
 49
0.01875
 49
-17.60128498
 49
0.01875
 49
-17.40425348
 53
7.5
 43
0.0
 44
0.0
 45
6.91098818
 46
10.3614222
 79
     6
 49
0.01875
 49
-10.03535807
 49
0.01875
 49
-16.7343539
 49
0.01875
 49
-6.6333206
 53
-32.5
 43
-5.85833833
 44
0.0
 45
14.02382061
 46
-0.59253003
 79
     6
 49
0.01875
 49
-6.56764314
 49
0.01875
 49
-20.49104869
 49
0.01875
 49
-27.19004452
 53
-42.5
 43
-8.48539531
 44
0.0
 45
15.32063571
 46
2.62981542
 79
     6
 49
0.01875
 49
-8.53793621
 49
0.01875
 49
-13.60815793
 49
0.01875
 49
-19.30887222
 47
0.775229
 98
        1
 10
0.0
 20
0.0
  0
3DFACE
  5
4E3
102
{ACAD_REACTORS
330
4E4
102
}
100
AcDbEntity
  8
Ech.1_5
 62
     9
  6
CONTINUOUS
370
    -3
100
AcDbFace
 70
     0
 10
36952.39765665
 20
-23704.45542733
 30
2500.0
 11
36952.39765665
 21
-24366.42474199
 31
2500.0
 12
37152.39765665
 22
-24366.45412303
 32
2500.0
 13
37152.39765665
 23
-23704.45533881
 33
2500.0
  0
HATCH
  5
4E4
100
AcDbEntity
  8
Ech.1_5
 62
     9
  6
CONTINUOUS
100
AcDbHatch
 10
0.0
 20
0.0
 30
0.0
210
0.0
220
0.0
230
1.0
  2
AR-CONC
 70
     0
 71
     1
 91
        1
 92
        7
 72
     0
 73
     1
 93
        4
 10
36952.39765665
 20
-23704.45542733
 10
36952.39765665
 20
-24366.42474199
 10
37152.39765665
 20
-24366.45412303
 10
37152.39765665
 20
-23704.45533881
 97
        1
330
4E3
 75
     0
 76
     2
 52
0.0
 41
0.11811097
 77
     0
 78
    13
 53
50.0
 43
0.0
 44
0.0
 45
-18.84283637
 46
1.64853443
 79
     2
 49
1.97029307
 49
-21.67322338
 53
355.0
 43
0.0
 44
0.0
 45
-3.64507756
 46
19.76051824
 79
     2
 49
1.57623377
 49
-17.3385787
 53
100.45140076
 43
1.57023568
 44
-0.13737749
 45
-15.19777228
 46
-18.11197244
 79
     2
 49
1.67449124
 49
-18.41940522
 53
46.18420029
 43
0.0
 44
5.25411576
 45
-28.03703353
 46
4.34827878
 79
     2
 49
2.95543872
 49
-32.50983238
 53
96.63559723
 43
2.33641885
 44
4.89175692
 45
-24.55412615
 46
-25.59063404
 79
     2
 49
2.51173697
 49
-27.62910426
 53
351.1842041
 43
0.0
 44
5.25411576
 45
24.55410288
 46
25.59065715
 79
     2
 49
2.36435249
 49
-26.00786805
 53
21.0
 43
2.62705699
 44
3.94058615
 45
-15.68109068
 46
10.57702905
 79
     2
 49
1.97029307
 49
-21.67322338
 53
326.0
 43
2.62705699
 44
3.94058615
 45
6.39203268
 46
19.05010734
 79
     2
 49
1.57623377
 49
-17.3385787
 53
71.45140076
 43
3.93381357
 44
3.05916555
 45
-22.07312962
 46
-8.47306182
 79
     2
 49
1.67449124
 49
-18.41940522
 53
37.5
 43
0.0
 44
0.0
 45
0.31944534
 46
8.74531245
 79
     6
 49
0.01875
 49
-17.12841332
 49
0.01875
 49
-17.60128498
 49
0.01875
 49
-17.40425348
 53
7.5
 43
0.0
 44
0.0
 45
6.91098818
 46
10.3614222
 79
     6
 49
0.01875
 49
-10.03535807
 49
0.01875
 49
-16.7343539
 49
0.01875
 49
-6.6333206
 53
-32.5
 43
-5.85833833
 44
0.0
 45
14.02382061
 46
-0.59253003
 79
     6
 49
0.01875
 49
-6.56764314
 49
0.01875
 49
-20.49104869
 49
0.01875
 49
-27.19004452
 53
-42.5
 43
-8.48539531
 44
0.0
 45
15.32063571
 46
2.62981542
 79
     6
 49
0.01875
 49
-8.53793621
 49
0.01875
 49
-13.60815793
 49
0.01875
 49
-19.30887222
 47
0.775229
 98
        1
 10
0.0
 20
0.0
  0
LWPOLYLINE
  5
4E5
100
AcDbEntity
  8
Ech.1_5
 62
     7
  6
CONTINUOUS
370
    -3
100
AcDbPolyline
 90
       10
 70
     1
 43
0.0
 10
36798.04375562
 20
-23636.453832
 10
36832.39765665
 20
-23636.453832
 10
36832.39765665
 20
-23591.453832
 10
36814.35920123
 20
-23591.453832
 10
36814.35920123
 20
-23591.453832
 10
36814.35920123
 20
-23591.453832
 10
36788.35920123
 20
-23591.453832
 10
36752.39765664
 20
-23591.453832
 10
36752.39765665
 20
-23636.453832
 10
36772.2192625
 20
-23636.45278201
  0
LWPOLYLINE
  5
4E6
100
AcDbEntity
  8
Ech.1_5
 62
   190
  6
CONTINUOUS
370
    35
100
AcDbPolyline
 90
        4
 70
     0
 43
0.0
 10
36752.99642156
 20
-23636.28477934
 10
36832.39765665
 20
-23591.453832
 10
36832.39765665
 20
-23636.453832
 10
36752.39765665
 20
-23591.453832
  0
LWPOLYLINE
  5
4E7
100
AcDbEntity
  8
Ech.1_5
 62
     7
  6
CONTINUOUS
370
    -3
100
AcDbPolyline
 90
       10
 70
     1
 43
0.0
 10
36898.00118747
 20
-23644.453832
 10
36932.3550885
 20
-23644.453832
 10
36932.3550885
 20
-23599.453832
 10
36914.31663308
 20
-23599.453832
 10
36914.31663308
 20
-23599.453832
 10
36914.31663308
 20
-23599.453832
 10
36888.31663308
 20
-23599.453832
 10
36852.3550885
 20
-23599.453832
 10
36852.3550885
 20
-23644.453832
 10
36872.17669435
 20
-23644.45278201
  0
LWPOLYLINE
  5
4E8
100
AcDbEntity
  8
Ech.1_5
 62
   190
  6
CONTINUOUS
370
    35
100
AcDbPolyline
 90
        4
 70
     0
 43
0.0
 10
36852.95385341
 20
-23644.28477934
 10
36932.3550885
 20
-23599.453832
 10
36932.3550885
 20
-23644.453832
 10
36852.3550885
 20
-23599.453832
  0
LWPOLYLINE
  5
4E9
100
AcDbEntity
  8
Ech.1_5
 62
     5
  6
CONTINUOUS
370
    -3
100
AcDbPolyline
 90
       12
 70
     0
 43
0.0
 10
36852.3550885
 20
-23644.453832
 10
36872.17665639
 20
-23644.453832
 10
36872.17669435
 20
-23644.45278201
 10
36898.00122544
 20
-23644.45278201
 10
36898.00118747
 20
-23644.453832
 10
36932.3550885
 20
-23644.453832
 10
36932.3550885
 20
-23599.453832
 10
36914.31663308
 20
-23599.453832
 10
36914.31663308
 20
-23599.453832
 10
36888.31663308
 20
-23599.453832
 10
36888.31663308
 20
-23599.453832
 10
36852.3550885
 20
-23599.453832
  0
LINE
  5
4EA
100
AcDbEntity
  8
Ech.1_5
 62
   150
  6
CONTINUOUS
370
    50
100
AcDbLine
 10
36852.3550885
 20
-23599.453832
 30
2500.0
 11
36852.3550885
 21
-23644.453832
 31
2500.0
  0
LWPOLYLINE
  5
4EB
100
AcDbEntity
  8
Ech.1_5
 62
     7
  6
CONTINUOUS
370
   120
100
AcDbPolyline
 90
        3
 70
     0
 43
5.0
 10
36952.39765665
 20
-23449.63730751
 10
36952.39765665
 20
-23598.13730751
 10
36863.00404424
 20
-23598.13730751
  0
LWPOLYLINE
  5
4EC
100
AcDbEntity
  8
Ech.1_5
 62
   190
  6
CONTINUOUS
370
    -3
100
AcDbPolyline
 90
        5
 70
     0
 43
0.0
 10
36439.67442951
 20
-24684.08053157
 10
37424.67442951
 20
-24684.08053157
 10
37424.67442951
 20
-23329.08053157
 10
36439.67442951
 20
-23329.08053157
 10
36439.67442951
 20
-24684.08053157
  0
LWPOLYLINE
  5
4ED
100
AcDbEntity
  8
Ech.1_5
 62
   190
  6
CONTINUOUS
370
    -3
100
AcDbPolyline
 90
        4
 70
     1
 43
0.0
 10
36743.39765665
 20
-23621.40085051
 10
36752.39765665
 20
-23621.40085051
 10
36752.39765665
 20
-23361.86099805
 10
36743.39765665
 20
-23361.86099805
  0
LWPOLYLINE
  5
4EE
100
AcDbEntity
  8
Ech.1_5
 62
   190
  6
CONTINUOUS
370
    -3
100
AcDbPolyline
 90
        4
 70
     1
 43
0.0
 10
36752.39765665
 20
-23623.40085051
 10
36743.39765665
 20
-23623.40085051
 10
36743.39765665
 20
-24366.42607999
 10
36752.39765665
 20
-24366.42607999
  0
LWPOLYLINE
  5
4EF
102
{ACAD_REACTORS
330
4F0
102
}
100
AcDbEntity
  8
Ech.1_5
 62
     7
  6
CONTINUOUS
370
    -3
100
AcDbPolyline
 90
        4
 70
     1
 43
0.0
 10
36743.39765665
 20
-23621.40085051
 10
36752.39765665
 20
-23621.40085051
 10
36752.39765665
 20
-23361.86099805
 10
36743.39765665
 20
-23361.86099805
  0
HATCH
  5
4F0
100
AcDbEntity
  8
Ech.1_5
 62
   190
  6
CONTINUOUS
100
AcDbHatch
 10
0.0
 20
0.0
 30
0.0
210
0.0
220
0.0
230
1.0
  2
CDWK10A
 70
     0
 71
     1
 91
        1
 92
        7
 72
     0
 73
     1
 93
        4
 10
36743.39765665
 20
-23621.40085051
 10
36752.39765665
 20
-23621.40085051
 10
36752.39765665
 20
-23361.86099805
 10
36743.39765665
 20
-23361.86099805
 97
        1
330
4EF
 75
     0
 76
     2
 52
0.0
 41
1.0
 77
     0
 78
     3
 53
45.0
 43
0.0
 44
0.0
 45
0.0
 46
42.00000167
 79
     0
 53
45.0
 43
0.0
 44
10.80000043
 45
0.0
 46
42.00000167
 79
     0
 53
45.0
 43
0.0
 44
21.60000086
 45
0.0
 46
42.00000167
 79
     0
 47
0.775229
 98
        1
 10
0.0
 20
0.0
  0
LWPOLYLINE
  5
4F1
100
AcDbEntity
  8
Ech.1_5
 62
     9
100
AcDbPolyline
 90
       27
 70
     0
 43
0.0
 10
36705.27103953
 20
-23817.36835989
 10
36705.39765665
 20
-23817.03388628
 10
36705.39765665
 20
-23789.65042242
 10
36712.39765665
 20
-23789.65042242
 10
36712.39765665
 20
-23798.65042242
 10
36718.39765665
 20
-23798.65042242
 10
36718.39765665
 20
-23771.65042242
 10
36714.39765665
 20
-23767.65042242
 10
36718.39765665
 20
-23763.65042242
 10
36718.39765665
 20
-23699.65042242
 10
36714.39765665
 20
-23695.65042242
 10
36718.39765665
 20
-23691.65042242
 10
36718.39765665
 20
-23656.65042242
 10
36711.39765665
 20
-23656.65042242
 10
36711.39765665
 20
-23650.65042242
 10
36708.89765665
 20
-23645.65042242
 10
36706.39765665
 20
-23650.65042242
 10
36706.39765665
 20
-23681.57935461
 10
36706.01705431
 20
-23683.49277148
 10
36699.86212274
 20
-23690.18595633
 10
36698.39765665
 20
-23693.72149023
 10
36698.39765665
 20
-23812.80823454
 10
36699.35797904
 20
-23814.43810305
 10
36704.0940999
 20
-23817.40945277
 10
36704.50610127
 20
-23817.65042242
 10
36704.81991876
 20
-23817.65042242
 10
36705.27103953
 20
-23817.36835989
  0
LWPOLYLINE
  5
4F2
100
AcDbEntity
  8
Ech.1_5
 62
     9
100
AcDbPolyline
 90
       27
 70
     0
 43
0.0
 10
36705.27103953
 20
-23962.36835989
 10
36705.39765665
 20
-23962.03388628
 10
36705.39765665
 20
-23934.65042242
 10
36712.39765665
 20
-23934.65042242
 10
36712.39765665
 20
-23943.65042242
 10
36718.39765665
 20
-23943.65042242
 10
36718.39765665
 20
-23916.65042242
 10
36714.39765665
 20
-23912.65042242
 10
36718.39765665
 20
-23908.65042242
 10
36718.39765665
 20
-23844.65042242
 10
36714.39765665
 20
-23840.65042242
 10
36718.39765665
 20
-23836.65042242
 10
36718.39765665
 20
-23801.65042242
 10
36711.39765665
 20
-23801.65042242
 10
36711.39765665
 20
-23795.65042242
 10
36708.89765665
 20
-23790.65042242
 10
36706.39765665
 20
-23795.65042242
 10
36706.39765665
 20
-23826.57935461
 10
36706.01705431
 20
-23828.49277148
 10
36699.86212274
 20
-23835.18595633
 10
36698.39765665
 20
-23838.72149023
 10
36698.39765665
 20
-23957.80823454
 10
36699.35797904
 20
-23959.43810305
 10
36704.0940999
 20
-23962.40945277
 10
36704.50610127
 20
-23962.65042242
 10
36704.81991876
 20
-23962.65042242
 10
36705.27103953
 20
-23962.36835989
  0
LWPOLYLINE
  5
4F3
102
{ACAD_REACTORS
330
4F4
102
}
100
AcDbEntity
  8
Ech.1_5
 62
     7
  6
CONTINUOUS
370
    -3
100
AcDbPolyline
 90
        4
 70
     1
 43
0.0
 10
36752.39765665
 20
-23623.40085051
 10
36743.39765665
 20
-23623.40085051
 10
36743.39765665
 20
-24366.42607999
 10
36752.39765665
 20
-24366.42607999
  0
HATCH
  5
4F4
100
AcDbEntity
  8
Ech.1_5
 62
   190
  6
CONTINUOUS
100
AcDbHatch
 10
0.0
 20
0.0
 30
0.0
210
0.0
220
0.0
230
1.0
  2
CDWK10A
 70
     0
 71
     1
 91
        1
 92
        7
 72
     0
 73
     1
 93
        4
 10
36752.39765665
 20
-23623.40085051
 10
36743.39765665
 20
-23623.40085051
 10
36743.39765665
 20
-24366.42607999
 10
36752.39765665
 20
-24366.42607999
 97
        1
330
4F3
 75
     0
 76
     2
 52
0.0
 41
1.0
 77
     0
 78
     3
 53
45.0
 43
0.0
 44
0.0
 45
0.0
 46
42.00000167
 79
     0
 53
45.0
 43
0.0
 44
10.80000043
 45
0.0
 46
42.00000167
 79
     0
 53
45.0
 43
0.0
 44
21.60000086
 45
0.0
 46
42.00000167
 79
     0
 47
0.775229
 98
        1
 10
0.0
 20
0.0
  0
LINE
  5
4F5
100
AcDbEntity
  8
Ech.1_5
 62
   150
  6
CADWORK_22
370
    35
100
AcDbLine
 10
36743.39765665
 20
-23567.36933264
 30
0.0
 11
36743.39765665
 21
-24366.42485357
 31
0.0
  0
LWPOLYLINE
  5
4F6
100
AcDbEntity
  8
Ech.1_5
 62
   150
  6
CADWORK_22
370
    35
100
AcDbPolyline
 90
        4
 70
     0
 43
0.0
 10
36743.37123181
 20
-23361.79162301
 10
36743.38080993
 20
-23558.97999606
 10
36738.38110204
 20
-23567.87094435
 10
36738.38289202
 20
-23613.31436667
  0
LWPOLYLINE
  5
4F7
100
AcDbEntity
  8
Ech.1_5
 62
     9
  6
CONTINUOUS
370
     5
100
AcDbPolyline
 90
        5
 70
     0
 43
0.0
 10
36718.39765665
 20
-24366.42566801
 10
36743.39765665
 20
-24366.42558599
 10
36743.39765665
 20
-23361.79135598
 10
36718.39765665
 20
-23361.79162301
 10
36718.39765665
 20
-23580.88305411
  0
LINE
  5
4F8
100
AcDbEntity
  8
Ech.1_5
 62
     9
  6
CONTINUOUS
370
     5
100
AcDbLine
 10
36718.39765665
 20
-23650.88305315
 30
0.0
 11
36718.39765665
 21
-24366.42566801
 31
0.0
  0
LINE
  5
4F9
100
AcDbEntity
  8
Ech.1_5
 62
     9
  6
CONTINUOUS
370
    -3
100
AcDbLine
 10
36718.39765665
 20
-23580.88305411
 30
0.0
 11
36741.92408148
 21
-23580.88305411
 31
0.0
  0
LINE
  5
4FA
100
AcDbEntity
  8
Ech.1_5
 62
     9
  6
CONTINUOUS
370
    -3
100
AcDbLine
 10
36718.39765665
 20
-23650.88305411
 30
0.0
 11
36741.92408148
 21
-23650.88305411
 31
0.0
  0
LWPOLYLINE
  5
4FB
100
AcDbEntity
  8
Ech.1_5
 62
     7
  6
CONTINUOUS
370
    50
100
AcDbPolyline
 90
        5
 70
     0
 43
0.0
 10
36741.39765665
 20
-23585.88305411
 10
36741.39765665
 20
-23620.88305411
 10
36689.87123181
 20
-23640.88305411
 10
36689.87123181
 20
-23670.88305411
 10
36692.07424515
 20
-23665.62402377
  0
LWPOLYLINE
  5
4FC
100
AcDbEntity
  8
Ech.1_5
 62
     5
  6
CONTINUOUS
370
    -3
100
AcDbPolyline
 90
        5
 70
     0
 43
0.0
 10
36752.39765665
 20
-23591.453832
 10
36752.39765665
 20
-23546.453832
 10
36932.39765665
 20
-23546.453832
 10
36932.39765665
 20
-23591.453832
 10
36752.39765665
 20
-23591.453832
  0
LWPOLYLINE
  5
4FD
100
AcDbEntity
  8
Ech.1_5
 62
     5
  6
CONTINUOUS
370
    -3
100
AcDbPolyline
 90
        5
 70
     0
 43
0.0
 10
36752.39765665
 20
-23689.453832
 10
36752.39765665
 20
-23644.453832
 10
36932.39765665
 20
-23644.453832
 10
36932.39765665
 20
-23689.453832
 10
36752.39765665
 20
-23689.453832
  0
LWPOLYLINE
  5
4FE
100
AcDbEntity
  8
Ech.1_5
 62
     5
  6
CONTINUOUS
370
    -3
100
AcDbPolyline
 90
       12
 70
     0
 43
0.0
 10
36752.39765665
 20
-23636.453832
 10
36772.21922454
 20
-23636.453832
 10
36772.2192625
 20
-23636.45278201
 10
36798.04379359
 20
-23636.45278201
 10
36798.04375562
 20
-23636.453832
 10
36832.39765665
 20
-23636.453832
 10
36832.39765665
 20
-23591.453832
 10
36814.35920123
 20
-23591.453832
 10
36814.35920123
 20
-23591.453832
 10
36788.35920123
 20
-23591.453832
 10
36788.35920123
 20
-23591.453832
 10
36752.39765665
 20
-23591.453832
  0
LINE
  5
4FF
100
AcDbEntity
  8
Ech.1_5
 62
   150
  6
CONTINUOUS
370
    50
100
AcDbLine
 10
36752.39765665
 20
-23591.453832
 30
2500.0
 11
36752.39765665
 21
-23636.453832
 31
2500.0
  0
LWPOLYLINE
  5
500
102
{ACAD_REACTORS
330
501
102
}
100
AcDbEntity
  8
Ech.1_5
 62
     9
  6
CONTINUOUS
370
    -3
100
AcDbPolyline
 90
        4
 70
     1
 43
0.0
 10
37380.82753304
 20
-23504.45533881
 10
37380.82753304
 20
-23490.45533846
 10
37241.52424818
 20
-23490.45533881
 10
37241.52424818
 20
-23504.45533881
  0
HATCH
  5
501
100
AcDbEntity
  8
Ech.1_5
 62
     9
  6
CONTINUOUS
100
AcDbHatch
 10
0.0
 20
0.0
 30
0.0
210
0.0
220
0.0
230
1.0
  2
ANSI31
 70
     0
 71
     1
 91
        1
 92
        7
 72
     0
 73
     1
 93
        4
 10
37380.82753304
 20
-23504.45533881
 10
37380.82753304
 20
-23490.45533846
 10
37241.52424818
 20
-23490.45533881
 10
37241.52424818
 20
-23504.45533881
 97
        1
330
500
 75
     0
 76
     2
 52
90.0
 41
3.14962605
 77
     0
 78
     1
 53
-45.0
 43
0.0
 44
0.0
 45
7.07106781
 46
7.07106781
 79
     0
 47
0.775229
 98
        1
 10
0.0
 20
0.0
  0
LWPOLYLINE
  5
502
100
AcDbEntity
  8
Ech.1_5
 62
   254
  6
CONTINUOUS
370
    -3
100
AcDbPolyline
 90
        4
 70
     1
 43
0.0
 10
37221.67146589
 20
-23361.8615693
 10
37171.67146589
 20
-23361.8615693
 10
37171.67146589
 20
-23504.45383486
 10
37221.67146589
 20
-23504.45383486
  0
LWPOLYLINE
  5
503
100
AcDbEntity
  8
Ech.1_5
 62
     9
  6
CONTINUOUS
100
AcDbPolyline
 90
        6
 70
     0
 43
0.0
 10
37234.67288108
 20
-23424.78856596
 10
37237.67146588
 20
-23424.78863463
 42
-0.41421356
 10
37247.67146588
 20
-23434.78863463
 10
37247.67146588
 20
-23490.45340857
 10
37234.67146589
 20
-23490.45341048
 10
37234.67146589
 20
-23424.78863749
  0
LWPOLYLINE
  5
504
100
AcDbEntity
  8
Ech.1_5
 62
     9
  6
CONTINUOUS
370
    -3
100
AcDbPolyline
 90
        4
 70
     1
 43
0.0
 10
37221.67146589
 20
-23494.45341048
 10
37234.67146589
 20
-23494.45341048
 10
37234.67146589
 20
-23361.8615693
 10
37221.67146589
 20
-23361.8615693
  0
LWPOLYLINE
  5
505
102
{ACAD_REACTORS
330
506
102
}
100
AcDbEntity
  8
Ech.1_5
 62
     9
  6
CONTINUOUS
370
    -3
100
AcDbPolyline
 90
       12
 70
     1
 43
0.0
 10
37173.6701602
 20
-23474.45383486
 10
37171.67146589
 20
-23474.45383486
 10
37171.67146589
 20
-23504.45383486
 10
37221.56925621
 20
-23504.45383486
 10
37221.56925621
 20
-23474.45383486
 10
37219.56925621
 20
-23474.45383486
 10
37219.56925621
 20
-23476.45383486
 10
37219.56925621
 20
-23476.45383486
 10
37219.56925621
 20
-23502.45383486
 10
37173.6701602
 20
-23502.45383486
 10
37173.6701602
 20
-23476.45383486
 10
37173.6701602
 20
-23476.45383486
  0
HATCH
  5
506
100
AcDbEntity
  8
Ech.1_5
 62
     9
  6
CONTINUOUS
100
AcDbHatch
 10
0.0
 20
0.0
 30
0.0
210
0.0
220
0.0
230
1.0
  2
SOLID
 70
     1
 71
     1
 91
        1
 92
        7
 72
     0
 73
     1
 93
       10
 10
37173.6701602
 20
-23474.45383486
 10
37171.67146589
 20
-23474.45383486
 10
37171.67146589
 20
-23504.45383486
 10
37221.56925621
 20
-23504.45383486
 10
37221.56925621
 20
-23474.45383486
 10
37219.56925621
 20
-23474.45383486
 10
37219.56925621
 20
-23476.45383486
 10
37219.56925621
 20
-23502.45383486
 10
37173.6701602
 20
-23502.45383486
 10
37173.6701602
 20
-23476.45383486
 97
        1
330
505
 75
     0
 76
     2
 47
0.775229
 98
        1
 10
0.0
 20
0.0
  0
LWPOLYLINE
  5
507
100
AcDbEntity
  8
Ech.1_5
 62
   254
  6
CONTINUOUS
370
    -3
100
AcDbPolyline
 90
        5
 70
     1
 43
0.0
 10
37171.67146589
 20
-23704.45542733
 10
37171.67146589
 20
-24366.44254904
 10
37221.40415992
 20
-24366.44185
 10
37221.67146589
 20
-24366.44187098
 10
37221.67146589
 20
-23704.45542733
  0
LWPOLYLINE
  5
508
100
AcDbEntity
  8
Ech.1_5
 62
     9
  6
CONTINUOUS
370
    -3
100
AcDbPolyline
 90
        4
 70
     1
 43
0.0
 10
37221.67146589
 20
-24366.44185
 10
37234.67146589
 20
-24366.44185
 10
37234.67146589
 20
-23704.45392243
 10
37221.67146589
 20
-23704.45392243
  0
LWPOLYLINE
  5
509
102
{ACAD_REACTORS
330
50A
102
}
100
AcDbEntity
  8
Ech.1_5
 62
     9
  6
CONTINUOUS
370
    -3
100
AcDbPolyline
 90
       12
 70
     1
 43
0.0
 10
37173.6701602
 20
-23734.45542733
 10
37171.67146589
 20
-23734.45542733
 10
37171.67146589
 20
-23704.45542733
 10
37221.56925621
 20
-23704.45542733
 10
37221.56925621
 20
-23734.45542733
 10
37219.56925621
 20
-23734.45542733
 10
37219.56925621
 20
-23732.45542733
 10
37219.56925621
 20
-23732.45542733
 10
37219.56925621
 20
-23706.45542733
 10
37173.6701602
 20
-23706.45542733
 10
37173.6701602
 20
-23732.45542733
 10
37173.6701602
 20
-23732.45542733
  0
HATCH
  5
50A
100
AcDbEntity
  8
Ech.1_5
 62
     9
  6
CONTINUOUS
100
AcDbHatch
 10
0.0
 20
0.0
 30
0.0
210
0.0
220
0.0
230
1.0
  2
SOLID
 70
     1
 71
     1
 91
        1
 92
        7
 72
     0
 73
     1
 93
       10
 10
37173.6701602
 20
-23734.45542733
 10
37171.67146589
 20
-23734.45542733
 10
37171.67146589
 20
-23704.45542733
 10
37221.56925621
 20
-23704.45542733
 10
37221.56925621
 20
-23734.45542733
 10
37219.56925621
 20
-23734.45542733
 10
37219.56925621
 20
-23732.45542733
 10
37219.56925621
 20
-23706.45542733
 10
37173.6701602
 20
-23706.45542733
 10
37173.6701602
 20
-23732.45542733
 97
        1
330
509
 75
     0
 76
     2
 47
0.775229
 98
        1
 10
0.0
 20
0.0
  0
LWPOLYLINE
  5
50B
100
AcDbEntity
  8
Ech.1_5
 62
     9
  6
CONTINUOUS
100
AcDbPolyline
 90
       23
 70
     0
 43
0.0
 10
36706.39765665
 20
-23361.86222352
 10
36706.39765665
 20
-23370.70855746
 10
36706.01705431
 20
-23372.62197432
 10
36699.86212274
 20
-23379.31515917
 10
36698.39765665
 20
-23382.85069308
 10
36698.39765665
 20
-23501.93743739
 10
36699.35797904
 20
-23503.56730589
 10
36704.0940999
 20
-23506.53865561
 10
36704.50610127
 20
-23506.77962527
 10
36704.81991876
 20
-23506.77962527
 10
36705.27103953
 20
-23506.49756274
 10
36705.39765665
 20
-23506.16308913
 10
36705.39765665
 20
-23478.77962527
 10
36712.39765665
 20
-23478.77962527
 10
36712.39765665
 20
-23488.77962527
 10
36718.39765665
 20
-23488.77962527
 10
36718.39765665
 20
-23460.77962527
 10
36714.39765665
 20
-23456.77962527
 10
36718.39765665
 20
-23452.77962527
 10
36718.39765665
 20
-23388.77962527
 10
36714.39765665
 20
-23384.77962527
 10
36718.39765665
 20
-23380.77962527
 10
36718.39765665
 20
-23361.86222352
  0
LWPOLYLINE
  5
50C
100
AcDbEntity
  8
Ech.1_5
 62
     9
  6
BYBLOCK
100
AcDbPolyline
 90
       23
 70
     0
 43
0.0
 10
36698.39765665
 20
-23624.26120886
 10
36698.39765665
 20
-23527.85069308
 10
36699.86212274
 20
-23524.31515917
 10
36706.01705431
 20
-23517.62197432
 10
36706.39765665
 20
-23515.70855746
 10
36706.39765665
 20
-23484.77962527
 10
36708.89765665
 20
-23479.77962527
 10
36711.39765665
 20
-23484.77962527
 10
36711.39765665
 20
-23489.77962527
 10
36718.39765665
 20
-23489.77962527
 10
36718.39765665
 20
-23525.77962527
 10
36714.39765665
 20
-23529.77962527
 10
36718.39765665
 20
-23533.77962527
 10
36718.39765665
 20
-23597.77962527
 10
36714.39765665
 20
-23601.77962527
 10
36718.39765665
 20
-23605.77962527
 10
36718.39765665
 20
-23605.77962527
 10
36706.15374304
 20
-23621.67689928
 10
36703.33694621
 20
-23625.33417735
 10
36702.24748617
 20
-23625.88305411
 10
36699.49210565
 20
-23625.88305411
 10
36698.39765665
 20
-23624.26120886
 10
36698.39765665
 20
-23618.95258078
  0
LWPOLYLINE
  5
50D
100
AcDbEntity
  8
Ech.1_5
 62
   190
  6
CONTINUOUS
370
    -3
100
AcDbPolyline
 90
        6
 70
     0
 43
0.0
 10
37293.67795724
 20
-24366.42474199
 10
36885.33204784
 20
-24366.42637182
 10
36868.84654469
 20
-24384.40372015
 10
36882.9564847
 20
-24348.44802022
 10
36866.47013062
 20
-24366.42637182
 10
36679.87123181
 20
-24366.42558599
  0
LWPOLYLINE
  5
50E
100
AcDbEntity
  8
Ech.1_5
 62
   190
  6
CONTINUOUS
370
    -3
100
AcDbPolyline
 90
        6
 70
     0
 43
0.0
 10
36679.87123181
 20
-23361.86222352
 10
36814.83116014
 20
-23361.86074723
 10
36831.3166633
 20
-23343.8833989
 10
36817.20672328
 20
-23379.83909882
 10
36833.69307736
 20
-23361.86074723
 10
37266.43375905
 20
-23361.8615693
  0
LWPOLYLINE
  5
50F
100
AcDbEntity
  8
Ech.1_5
 62
     7
  6
CONTINUOUS
370
    -3
100
AcDbPolyline
 90
        4
 70
     1
 43
0.0
 10
36718.39765665
 20
-24100.15042195
 10
36733.40312463
 20
-24100.15042195
 10
36733.39765665
 20
-23823.31379236
 10
36718.39765665
 20
-23823.31379236
  0
LWPOLYLINE
  5
510
100
AcDbEntity
  8
Ech.1_5
 62
     7
  6
CONTINUOUS
370
    -3
100
AcDbPolyline
 90
        7
 70
     0
 43
0.0
 10
36718.39765665
 20
-23823.31379236
 10
36733.39765665
 20
-23823.31379236
 10
36733.40312463
 20
-24100.15042195
 10
36718.39765665
 20
-24100.15042195
 10
36718.39765665
 20
-23823.31379236
 10
36718.39765665
 20
-23843.31379236
 10
36733.39812004
 20
-23843.31379236
  0
LWPOLYLINE
  5
511
100
AcDbEntity
  8
Ech.1_5
 62
     1
  6
CONTINUOUS
370
    -3
100
AcDbPolyline
 90
        3
 70
     0
 43
0.0
 10
36892.48902058
 20
-23864.31379236
 10
36838.19524418
 20
-23864.31379236
 10
36837.27891614
 20
-23863.31379236
  0
LWPOLYLINE
  5
512
100
AcDbEntity
  8
Ech.1_5
 62
     1
  6
CONTINUOUS
370
    -3
100
AcDbPolyline
 90
        3
 70
     0
 43
0.0
 10
36835.61656616
 20
-23882.31379331
 10
36836.70787839
 20
-23881.31379331
 10
36892.48896784
 20
-23881.31379331
  0
LWPOLYLINE
  5
513
100
AcDbEntity
  8
Ech.1_5
 62
     1
  6
CONTINUOUS
370
    -3
100
AcDbPolyline
 90
        6
 70
     1
 43
0.0
 10
36656.10133639
 20
-23863.31379236
 10
36891.48902368
 20
-23863.31379236
 10
36892.48902058
 20
-23864.31379236
 10
36892.48896784
 20
-23881.31379331
 10
36891.48896474
 20
-23882.31379331
 10
36656.10133639
 20
-23882.31379331
  0
LINE
  5
514
100
AcDbEntity
  8
Ech.1_5
 62
     1
  6
CONTINUOUS
370
    -3
100
AcDbLine
 10
36891.48902368
 20
-23863.31379236
 30
0.0
 11
36891.48896474
 21
-23882.31379331
 31
0.0
  0
LINE
  5
515
100
AcDbEntity
  8
Ech.1_5
 62
     1
  6
CONTINUOUS
370
    -3
100
AcDbLine
 10
36655.10133639
 20
-23881.31379331
 30
0.0
 11
36892.48896784
 21
-23881.31379331
 31
0.0
  0
LINE
  5
516
100
AcDbEntity
  8
Ech.1_5
 62
     1
  6
CONTINUOUS
370
    -3
100
AcDbLine
 10
36655.10138913
 20
-23864.31379236
 30
0.0
 11
36892.48902058
 21
-23864.31379236
 31
0.0
  0
LWPOLYLINE
  5
517
100
AcDbEntity
  8
Ech.1_5
 62
     1
  6
CONTINUOUS
370
    -3
100
AcDbPolyline
 90
        4
 70
     0
 43
0.0
 10
36656.10133639
 20
-23863.31379236
 10
36655.10138913
 20
-23864.31379236
 10
36655.10133639
 20
-23881.31379331
 10
36656.10133639
 20
-23882.31379331
  0
LWPOLYLINE
  5
518
100
AcDbEntity
  8
Ech.1_5
 62
     1
  6
CONTINUOUS
370
    -3
100
AcDbPolyline
 90
        4
 70
     1
 43
0.0
 10
36844.39833876
 20
-23843.31379236
 10
36842.39833876
 20
-23843.31379236
 10
36842.39823008
 20
-23902.31379331
 10
36844.39823008
 20
-23902.31379331
  0
LWPOLYLINE
  5
519
100
AcDbEntity
  8
Ech.1_5
 62
     1
  6
CONTINUOUS
370
    -3
100
AcDbPolyline
 90
        6
 70
     1
 43
0.0
 10
36844.39828442
 20
-23894.41379455
 10
36856.80100541
 20
-23894.41379455
 10
36858.82708557
 20
-23890.11107421
 10
36858.82708557
 20
-23855.51867146
 10
36856.80100541
 20
-23851.21379112
 10
36844.39828442
 20
-23851.21379112
  0
LINE
  5
51A
100
AcDbEntity
  8
Ech.1_5
 62
     1
  6
CONTINUOUS
370
    -3
100
AcDbLine
 10
36856.80100541
 20
-23883.61379369
 30
0.0
 11
36858.82708557
 21
-23877.11867317
 31
0.0
  0
LINE
  5
51B
100
AcDbEntity
  8
Ech.1_5
 62
     1
  6
CONTINUOUS
370
    -3
100
AcDbLine
 10
36858.82708557
 20
-23872.81379283
 30
0.0
 11
36858.82708557
 21
-23890.11107421
 31
0.0
  0
LINE
  5
51C
100
AcDbEntity
  8
Ech.1_5
 62
     1
  6
CONTINUOUS
370
    -3
100
AcDbLine
 10
36858.82708557
 20
-23890.11107421
 30
0.0
 11
36856.80100541
 21
-23894.41379455
 31
0.0
  0
LINE
  5
51D
100
AcDbEntity
  8
Ech.1_5
 62
     1
  6
CONTINUOUS
370
    -3
100
AcDbLine
 10
36858.82708557
 20
-23887.91867403
 30
0.0
 11
36856.80100541
 21
-23883.61379369
 31
0.0
  0
LINE
  5
51E
100
AcDbEntity
  8
Ech.1_5
 62
     1
  6
CONTINUOUS
370
    -3
100
AcDbLine
 10
36856.80100541
 20
-23894.41379455
 30
0.0
 11
36844.39828442
 21
-23894.41379455
 31
0.0
  0
LINE
  5
51F
100
AcDbEntity
  8
Ech.1_5
 62
     1
  6
CONTINUOUS
370
    -3
100
AcDbLine
 10
36844.39828442
 20
-23894.41379455
 30
0.0
 11
36844.39828442
 21
-23872.81379283
 31
0.0
  0
LINE
  5
520
100
AcDbEntity
  8
Ech.1_5
 62
     1
  6
CONTINUOUS
370
    -3
100
AcDbLine
 10
36856.80100541
 20
-23883.61379369
 30
0.0
 11
36844.39828442
 21
-23883.61379369
 31
0.0
  0
LINE
  5
521
100
AcDbEntity
  8
Ech.1_5
 62
     1
  6
CONTINUOUS
370
    -3
100
AcDbLine
 10
36858.82708557
 20
-23855.51867146
 30
0.0
 11
36856.80100541
 21
-23851.21379112
 31
0.0
  0
LINE
  5
522
100
AcDbEntity
  8
Ech.1_5
 62
     1
  6
CONTINUOUS
370
    -3
100
AcDbLine
 10
36858.82708557
 20
-23857.71107163
 30
0.0
 11
36856.80100541
 21
-23862.01379197
 31
0.0
  0
LINE
  5
523
100
AcDbEntity
  8
Ech.1_5
 62
     1
  6
CONTINUOUS
370
    -3
100
AcDbLine
 10
36856.80100541
 20
-23862.01379197
 30
0.0
 11
36858.82708557
 21
-23868.51107249
 31
0.0
  0
LINE
  5
524
100
AcDbEntity
  8
Ech.1_5
 62
     1
  6
CONTINUOUS
370
    -3
100
AcDbLine
 10
36858.82708557
 20
-23872.81379283
 30
0.0
 11
36858.82708557
 21
-23855.51867146
 31
0.0
  0
LINE
  5
525
100
AcDbEntity
  8
Ech.1_5
 62
     1
  6
CONTINUOUS
370
    -3
100
AcDbLine
 10
36856.80100541
 20
-23851.21379112
 30
0.0
 11
36844.39828442
 21
-23851.21379112
 31
0.0
  0
LINE
  5
526
100
AcDbEntity
  8
Ech.1_5
 62
     1
  6
CONTINUOUS
370
    -3
100
AcDbLine
 10
36844.39828442
 20
-23851.21379112
 30
0.0
 11
36844.39828442
 21
-23872.81379283
 31
0.0
  0
LINE
  5
527
100
AcDbEntity
  8
Ech.1_5
 62
     1
  6
CONTINUOUS
370
    -3
100
AcDbLine
 10
36856.80100541
 20
-23862.01379197
 30
0.0
 11
36844.39828442
 21
-23862.01379197
 31
0.0
  0
LWPOLYLINE
  5
528
100
AcDbEntity
  8
Ech.1_5
 62
     9
100
AcDbPolyline
 90
       27
 70
     0
 43
0.0
 10
36705.27103953
 20
-24107.36835989
 10
36705.39765665
 20
-24107.03388628
 10
36705.39765665
 20
-24079.65042242
 10
36712.39765665
 20
-24079.65042242
 10
36712.39765665
 20
-24088.65042242
 10
36718.39765665
 20
-24088.65042242
 10
36718.39765665
 20
-24061.65042242
 10
36714.39765665
 20
-24057.65042242
 10
36718.39765665
 20
-24053.65042242
 10
36718.39765665
 20
-23989.65042242
 10
36714.39765665
 20
-23985.65042242
 10
36718.39765665
 20
-23981.65042242
 10
36718.39765665
 20
-23946.65042242
 10
36711.39765665
 20
-23946.65042242
 10
36711.39765665
 20
-23940.65042242
 10
36708.89765665
 20
-23935.65042242
 10
36706.39765665
 20
-23940.65042242
 10
36706.39765665
 20
-23971.57935461
 10
36706.01705431
 20
-23973.49277148
 10
36699.86212274
 20
-23980.18595633
 10
36698.39765665
 20
-23983.72149023
 10
36698.39765665
 20
-24102.80823454
 10
36699.35797904
 20
-24104.43810305
 10
36704.0940999
 20
-24107.40945277
 10
36704.50610127
 20
-24107.65042242
 10
36704.81991876
 20
-24107.65042242
 10
36705.27103953
 20
-24107.36835989
  0
LWPOLYLINE
  5
529
100
AcDbEntity
  8
Ech.1_5
 62
     9
100
AcDbPolyline
 90
       27
 70
     0
 43
0.0
 10
36705.27103953
 20
-24252.36835989
 10
36705.39765665
 20
-24252.03388628
 10
36705.39765665
 20
-24224.65042242
 10
36712.39765665
 20
-24224.65042242
 10
36712.39765665
 20
-24233.65042242
 10
36718.39765665
 20
-24233.65042242
 10
36718.39765665
 20
-24206.65042242
 10
36714.39765665
 20
-24202.65042242
 10
36718.39765665
 20
-24198.65042242
 10
36718.39765665
 20
-24134.65042242
 10
36714.39765665
 20
-24130.65042242
 10
36718.39765665
 20
-24126.65042242
 10
36718.39765665
 20
-24091.65042242
 10
36711.39765665
 20
-24091.65042242
 10
36711.39765665
 20
-24085.65042242
 10
36708.89765665
 20
-24080.65042242
 10
36706.39765665
 20
-24085.65042242
 10
36706.39765665
 20
-24116.57935461
 10
36706.01705431
 20
-24118.49277148
 10
36699.86212274
 20
-24125.18595633
 10
36698.39765665
 20
-24128.72149023
 10
36698.39765665
 20
-24247.80823454
 10
36699.35797904
 20
-24249.43810305
 10
36704.0940999
 20
-24252.40945277
 10
36704.50610127
 20
-24252.65042242
 10
36704.81991876
 20
-24252.65042242
 10
36705.27103953
 20
-24252.36835989
  0
LWPOLYLINE
  5
52A
100
AcDbEntity
  8
Ech.1_5
 62
   210
  6
CONTINUOUS
370
    70
100
AcDbPolyline
 90
        4
 70
     0
 43
0.0
 10
36712.90428964
 20
-23862.33139642
 10
36732.88814173
 20
-23862.33139642
 42
0.35164347
 10
36743.3650502
 20
-23852.41608801
 10
36743.3650502
 20
-23813.41613574
  0
LWPOLYLINE
  5
52B
100
AcDbEntity
  8
Ech.1_5
 62
   210
  6
CONTINUOUS
370
    70
100
AcDbPolyline
 90
        4
 70
     0
 43
0.0
 10
36712.90428964
 20
-23883.1766608
 10
36732.88814173
 20
-23883.1766608
 42
-0.35164347
 10
36743.3650502
 20
-23893.09196921
 10
36743.3650502
 20
-23932.09192148
  0
LWPOLYLINE
  5
52C
100
AcDbEntity
  8
Ech.1_5
 62
     3
370
    70
100
AcDbPolyline
 90
        4
 70
     0
 43
0.0
 10
36736.6173091
 20
-23826.13017665
 10
36736.6173091
 20
-23813.14104323
 10
36742.29792206
 20
-23809.20631109
 10
36742.29792206
 20
-23795.72788108
  0
LWPOLYLINE
  5
52D
100
AcDbEntity
  8
Ech.1_5
 62
     3
370
    70
100
AcDbPolyline
 90
        4
 70
     0
 43
0.0
 10
36736.6173091
 20
-23919.69481136
 10
36736.6173091
 20
-23932.68394478
 10
36742.29792206
 20
-23936.61867692
 10
36742.29792206
 20
-23950.09710692
  0
ARC
  5
52E
100
AcDbEntity
  8
Ech.1_5
 62
   190
  6
CONTINUOUS
100
AcDbCircle
 10
36695.74191051
 20
-24000.14899542
 30
0.0
 40
35.0
100
AcDbArc
 50
135.33098588
 51
155.67089365
  0
ARC
  5
52F
100
AcDbEntity
  8
Ech.1_5
 62
   190
  6
CONTINUOUS
100
AcDbCircle
 10
36664.66335458
 20
-23969.42744988
 30
0.0
 40
35.0
100
AcDbArc
 50
294.99107811
 51
315.33098588
  0
ARC
  5
530
100
AcDbEntity
  8
Ech.1_5
 62
   190
  6
CONTINUOUS
100
AcDbCircle
 10
36684.19266169
 20
-24012.4014381
 30
0.0
 40
20.0
100
AcDbArc
 50
98.22216367
 51
135.33098588
  0
ARC
  5
531
100
AcDbEntity
  8
Ech.1_5
 62
   190
  6
CONTINUOUS
100
AcDbCircle
 10
36680.20263254
 20
-23984.78822265
 30
0.0
 40
7.9
100
AcDbArc
 50
278.22216367
 51
172.4398081
  0
LWPOLYLINE
  5
532
100
AcDbEntity
  8
Ech.1_5
 62
   190
  6
CONTINUOUS
100
AcDbPolyline
 90
        9
 70
     0
 43
0.0
 10
36670.85061857
 20
-23975.54363858
 42
-0.08839159
 10
36675.61451654
 20
-23972.17955161
 42
-0.09371863
 10
36680.94688854
 20
-23970.80869
 42
-0.10238816
 10
36686.31232751
 20
-23971.56109287
 42
-0.10949276
 10
36690.60718344
 20
-23974.26276206
 42
-0.10949276
 10
36693.3582922
 20
-23978.52611806
 42
-0.10238816
 10
36694.17263353
 20
-23983.88250617
 42
-0.09371863
 10
36692.86347007
 20
-23989.2303603
 42
-0.08839159
 10
36689.55464652
 20
-23994.03280672
  0
CIRCLE
  5
533
100
AcDbEntity
  8
Ech.1_5
 62
   190
  6
CONTINUOUS
100
AcDbCircle
 10
36680.20263254
 20
-23984.78822265
 30
0.0
 40
4.5
  0
CIRCLE
  5
534
100
AcDbEntity
  8
Ech.1_5
 62
   190
  6
CONTINUOUS
100
AcDbCircle
 10
36680.20263254
 20
-23984.78822265
 30
0.0
 40
3.5
  0
ARC
  5
535
100
AcDbEntity
  8
Ech.1_5
 62
   190
  6
CONTINUOUS
100
AcDbCircle
 10
36680.50141188
 20
-23984.48597125
 30
0.0
 40
5.575
100
AcDbArc
 50
255.25631704
 51
195.40565472
  0
ARC
  5
536
100
AcDbEntity
  8
Ech.1_5
 62
   190
  6
CONTINUOUS
100
AcDbCircle
 10
36674.25906387
 20
-23986.20606319
 30
0.0
 40
0.9
100
AcDbArc
 50
291.88715745
 51
15.40565473
  0
LINE
  5
537
100
AcDbEntity
  8
Ech.1_5
 62
   190
  6
CONTINUOUS
100
AcDbLine
 10
36677.49404104
 20
-23988.38176297
 30
0.0
 11
36676.89780885
 21
-23988.98492388
 31
0.0
  0
LINE
  5
538
100
AcDbEntity
  8
Ech.1_5
 62
   190
  6
CONTINUOUS
100
AcDbLine
 10
36676.64062531
 20
-23987.53815074
 30
0.0
 11
36676.04439312
 21
-23988.14131165
 31
0.0
  0
ARC
  5
539
100
AcDbEntity
  8
Ech.1_5
 62
   190
  6
CONTINUOUS
100
AcDbCircle
 10
36678.85355464
 20
-23990.74777542
 30
0.0
 40
0.9
100
AcDbArc
 50
75.25631704
 51
158.77481432
  0
LINE
  5
53A
100
AcDbEntity
  8
Ech.1_5
 62
   190
  6
CENTER
100
AcDbLine
 10
36681.25714784
 20
-23983.72145299
 30
0.0
 11
36679.14811725
 21
-23985.8549923
 31
0.0
  0
LINE
  5
53B
100
AcDbEntity
  8
Ech.1_5
 62
   190
  6
CENTER
100
AcDbLine
 10
36681.2694022
 20
-23985.84273794
 30
0.0
 11
36679.13586289
 21
-23983.73370735
 31
0.0
  0
ARC
  5
53C
100
AcDbEntity
  8
Ech.1_5
 62
   190
  6
CONTINUOUS
100
AcDbCircle
 10
36652.54516193
 20
-23981.11748439
 30
0.0
 40
20.0
100
AcDbArc
 50
315.33098588
 51
352.4398081
  0
ARC
  5
53D
100
AcDbEntity
  8
Ech.1_5
 62
   190
  6
CONTINUOUS
100
AcDbCircle
 10
36675.62258701
 20
-23988.56801951
 30
0.0
 40
0.6
100
AcDbArc
 50
45.33098588
 51
225.33098588
  0
ARC
  5
53E
100
AcDbEntity
  8
Ech.1_5
 62
   190
  6
CONTINUOUS
100
AcDbCircle
 10
36680.20263254
 20
-23984.78822265
 30
0.0
 40
7.5817124
100
AcDbArc
 50
209.62819945
 51
220.791978
  0
ARC
  5
53F
100
AcDbEntity
  8
Ech.1_5
 62
   190
  6
CONTINUOUS
100
AcDbCircle
 10
36676.96671931
 20
-23990.63408838
 30
0.0
 40
0.9
100
AcDbArc
 50
241.03377232
 51
338.77481431
  0
ARC
  5
540
100
AcDbEntity
  8
Ech.1_5
 62
   190
  6
CONTINUOUS
100
AcDbCircle
 10
36676.47600273
 20
-23989.41163174
 30
0.0
 40
0.6
100
AcDbArc
 50
225.33098589
 51
45.33098588
  0
LINE
  5
541
100
AcDbEntity
  8
Ech.1_5
 62
   190
  6
CONTINUOUS
100
AcDbLine
 10
36678.01460636
 20
-23990.4219445
 30
0.0
 11
36677.80566758
 21
-23990.9599193
 31
0.0
  0
LINE
  5
542
100
AcDbEntity
  8
Ech.1_5
 62
   190
  6
CONTINUOUS
100
AcDbLine
 10
36676.05419661
 20
-23989.83833961
 30
0.0
 11
36675.31603591
 21
-23990.58507836
 31
0.0
  0
LINE
  5
543
100
AcDbEntity
  8
Ech.1_5
 62
   190
  6
CONTINUOUS
100
AcDbLine
 10
36675.20078089
 20
-23988.99472737
 30
0.0
 11
36674.46262018
 21
-23989.74146613
 31
0.0
  0
ARC
  5
544
100
AcDbEntity
  8
Ech.1_5
 62
   190
  6
CONTINUOUS
100
AcDbCircle
 10
36680.20263255
 20
-23984.78822264
 30
0.0
 40
7.5817124
100
AcDbArc
 50
229.86999377
 51
241.03377232
  0
ARC
  5
545
100
AcDbEntity
  8
Ech.1_5
 62
   190
  6
CONTINUOUS
100
AcDbCircle
 10
36674.39454255
 20
-23988.09145913
 30
0.0
 40
0.9
100
AcDbArc
 50
111.88715745
 51
209.62819944
  0
LINE
  5
546
100
AcDbEntity
  8
Ech.1_5
 62
   190
  6
CONTINUOUS
100
AcDbLine
 10
36674.05904073
 20
-23987.25633128
 30
0.0
 11
36674.59456569
 21
-23987.04119104
 31
0.0
  0
LWPOLYLINE
  5
547
100
AcDbEntity
  8
Ech.1_5
 62
   190
  6
CONTINUOUS
100
AcDbPolyline
 90
        5
 70
     0
 43
0.0
 10
36626.93599914
 20
-24030.1391326
 42
-0.37100023
 10
36626.89947999
 20
-24029.68733882
 42
-0.02183843
 10
36631.12344514
 20
-24024.39428412
 42
-0.00913431
 10
36635.84704629
 20
-24019.1737862
 42
-0.00647073
 10
36642.74147418
 20
-24012.01630284
  0
LWPOLYLINE
  5
548
100
AcDbEntity
  8
Ech.1_5
 62
   190
  6
CONTINUOUS
100
AcDbPolyline
 90
        5
 70
     0
 43
0.0
 10
36635.47015638
 20
-24038.57525495
 42
0.37100023
 10
36635.92234193
 20
-24038.60655195
 42
0.02183843
 10
36641.1662425
 20
-24034.3217163
 42
0.00913431
 10
36646.33181867
 20
-24029.53811628
 42
0.00647073
 10
36653.40917073
 20
-24022.56145577
  0
LINE
  5
549
100
AcDbEntity
  8
Ech.1_5
 62
   190
  6
CONTINUOUS
100
AcDbLine
 10
36653.84939973
 20
-24000.28143472
 30
0.0
 11
36643.19531561
 21
-24011.05932832
 31
0.0
  0
LINE
  5
54A
100
AcDbEntity
  8
Ech.1_5
 62
   190
  6
CONTINUOUS
100
AcDbLine
 10
36665.01492211
 20
-24011.31869479
 30
0.0
 11
36654.360838
 21
-24022.09658839
 31
0.0
  0
ARC
  5
54B
100
AcDbEntity
  8
Ech.1_5
 62
   190
  6
CONTINUOUS
100
AcDbCircle
 10
36618.29041124
 20
-23965.13092494
 30
0.0
 40
50.0
100
AcDbArc
 50
315.33098588
 51
335.67089365
  0
ARC
  5
54C
100
AcDbEntity
  8
Ech.1_5
 62
   190
  6
CONTINUOUS
100
AcDbCircle
 10
36700.5739106
 20
-24046.46920456
 30
0.0
 40
50.0
100
AcDbArc
 50
114.99107811
 51
135.33098588
  0
LINE
  5
54D
100
AcDbEntity
  8
Ech.1_5
 62
   190
  6
CONTINUOUS
100
AcDbLine
 10
36666.76875733
 20
-23995.17768831
 30
0.0
 11
36658.42608545
 21
-24003.6173091
 31
0.0
  0
LINE
  5
54E
100
AcDbEntity
  8
Ech.1_5
 62
   190
  6
CONTINUOUS
100
AcDbLine
 10
36669.96906629
 20
-23998.34123419
 30
0.0
 11
36661.62639441
 21
-24006.78085498
 31
0.0
  0
LINE
  5
54F
100
AcDbEntity
  8
Ech.1_5
 62
   190
  6
CONTINUOUS
100
AcDbLine
 10
36642.74147418
 20
-24012.01630284
 30
0.0
 11
36653.40917073
 21
-24022.56145577
 31
0.0
  0
LINE
  5
550
100
AcDbEntity
  8
Ech.1_5
 62
   190
  6
CONTINUOUS
100
AcDbLine
 10
36653.65374301
 20
-24022.10067318
 30
0.0
 11
36643.1994004
 21
-24011.7664233
 31
0.0
  0
LINE
  5
551
100
AcDbEntity
  8
Ech.1_5
 62
   190
  6
CONTINUOUS
100
AcDbLine
 10
36654.360838
 20
-24022.09658839
 30
0.0
 11
36653.65374301
 21
-24022.10067318
 31
0.0
  0
LINE
  5
552
100
AcDbEntity
  8
Ech.1_5
 62
   190
  6
CONTINUOUS
100
AcDbLine
 10
36653.40508892
 20
-24021.85487546
 30
0.0
 11
36653.40917073
 21
-24022.56145577
 31
0.0
  0
LINE
  5
553
100
AcDbEntity
  8
Ech.1_5
 62
   190
  6
CONTINUOUS
100
AcDbLine
 10
36643.19531561
 20
-24011.05932832
 30
0.0
 11
36643.1994004
 21
-24011.7664233
 31
0.0
  0
LINE
  5
554
100
AcDbEntity
  8
Ech.1_5
 62
   190
  6
CONTINUOUS
100
AcDbLine
 10
36643.44805449
 20
-24012.01222102
 30
0.0
 11
36642.74147418
 21
-24012.01630284
 31
0.0
  0
LINE
  5
555
100
AcDbEntity
  8
Ech.1_5
 62
   190
  6
CONTINUOUS
100
AcDbLine
 10
36635.47015638
 20
-24038.57525495
 30
0.0
 11
36626.93599914
 21
-24030.1391326
 31
0.0
  0
LWPOLYLINE
  5
556
100
AcDbEntity
  8
Ech.1_5
 62
   190
  6
CONTINUOUS
370
    -3
100
AcDbPolyline
 90
       29
 70
     0
 43
0.0
 10
36666.09062966
 20
-23970.65919265
 10
36665.68900372
 20
-23971.6849597
 10
36665.29195584
 20
-23972.70983945
 10
36664.90406409
 20
-23973.73294456
 10
36664.52990652
 20
-23974.75338775
 10
36664.1740612
 20
-23975.77028169
 10
36663.84110618
 20
-23976.78273907
 10
36663.53561954
 20
-23977.78987258
 10
36663.26217933
 20
-23978.79079492
 10
36663.02536362
 20
-23979.78461876
 10
36662.82975046
 20
-23980.7704568
 10
36662.67991793
 20
-23981.74742173
 10
36662.58044407
 20
-23982.71462623
 10
36662.53590696
 20
-23983.671183
 10
36662.55088465
 20
-23984.61620472
 10
36662.6299552
 20
-23985.54880408
 10
36662.77769669
 20
-23986.46809377
 10
36662.99868715
 20
-23987.37318648
 10
36663.29544676
 20
-23988.26359376
 10
36663.66261997
 20
-23989.1403536
 10
36664.09296745
 20
-23990.00486913
 10
36664.5792499
 20
-23990.85854345
 10
36665.11422799
 20
-23991.70277966
 10
36665.69066241
 20
-23992.53898089
 10
36666.30131385
 20
-23993.36855025
 10
36666.93894298
 20
-23994.19289083
 10
36667.59631049
 20
-23995.01340577
 10
36668.26617707
 20
-23995.83149815
 10
36668.75658363
 20
-23996.42516615
  0
LWPOLYLINE
  5
557
100
AcDbEntity
  8
Ech.1_5
 62
   190
  6
CONTINUOUS
370
    -3
100
AcDbPolyline
 90
        4
 70
     0
 43
0.0
 10
36666.09062966
 20
-23970.65919265
 10
36733.39765665
 20
-23885.75738325
 10
36733.39765665
 20
-23977.33689459
 10
36691.56948373
 20
-24001.63708913
  0
LWPOLYLINE
  5
558
100
AcDbEntity
  8
Ech.1_5
 62
   190
  6
CONTINUOUS
370
    -3
100
AcDbPolyline
 90
       26
 70
     0
 43
0.0
 10
36691.56948373
 20
-24001.63708913
 10
36690.52814266
 20
-24001.82017062
 10
36689.48813419
 20
-24001.9983068
 10
36688.45079092
 20
-24002.16655234
 10
36687.41744543
 20
-24002.31996193
 10
36686.38943032
 20
-24002.45359026
 10
36685.36807819
 20
-24002.562492
 10
36684.35472164
 20
-24002.64172185
 10
36683.35069326
 20
-24002.68633448
 10
36682.35732566
 20
-24002.69138458
 10
36681.37595141
 20
-24002.65192684
 10
36680.40790313
 20
-24002.56301593
 10
36679.4545134
 20
-24002.41970654
 10
36678.51711482
 20
-24002.21705336
 10
36677.5970316
 20
-24001.95014219
 10
36676.69462088
 20
-24001.61764773
 10
36675.80838679
 20
-24001.2251211
 10
36674.93662411
 20
-24000.77889055
 10
36674.07762756
 20
-24000.28528437
 10
36673.22969189
 20
-23999.7506308
 10
36672.39111186
 20
-23999.18125811
 10
36671.5601822
 20
-23998.58349457
 10
36670.73519767
 20
-23997.96366844
 10
36669.91445301
 20
-23997.32810798
 10
36669.09624297
 20
-23996.68314147
 10
36668.6987057
 20
-23996.36795308
  0
LWPOLYLINE
  5
559
100
AcDbEntity
  8
Ech.1_5
 62
     9
100
AcDbPolyline
 90
       17
 70
     0
 43
0.0
 10
36718.39765665
 20
-24366.42558599
 10
36718.39765665
 20
-24351.65042242
 10
36714.39765665
 20
-24347.65042242
 10
36718.39765665
 20
-24343.65042242
 10
36718.39765665
 20
-24279.65042242
 10
36714.39765665
 20
-24275.65042242
 10
36718.39765665
 20
-24271.65042242
 10
36718.39765665
 20
-24236.65042242
 10
36711.39765665
 20
-24236.65042242
 10
36711.39765665
 20
-24230.65042242
 10
36708.89765665
 20
-24225.65042242
 10
36706.39765665
 20
-24230.65042242
 10
36706.39765665
 20
-24261.57935461
 10
36706.01705431
 20
-24263.49277148
 10
36699.86212274
 20
-24270.18595633
 10
36698.39765665
 20
-24273.72149023
 10
36698.39765665
 20
-24366.42558599
  0
LWPOLYLINE
  5
55A
100
AcDbEntity
  8
Ech.1_5
 62
     1
  6
CONTINUOUS
370
    -3
100
AcDbPolyline
 90
        3
 70
     0
 43
0.0
 10
36892.48902058
 20
-24041.65042147
 10
36838.19524418
 20
-24041.65042147
 10
36837.27891614
 20
-24040.65042147
  0
LWPOLYLINE
  5
55B
100
AcDbEntity
  8
Ech.1_5
 62
     1
  6
CONTINUOUS
370
    -3
100
AcDbPolyline
 90
        3
 70
     0
 43
0.0
 10
36835.61656616
 20
-24059.65042242
 10
36836.70787839
 20
-24058.65042242
 10
36892.48896784
 20
-24058.65042242
  0
LWPOLYLINE
  5
55C
100
AcDbEntity
  8
Ech.1_5
 62
     1
  6
CONTINUOUS
370
    -3
100
AcDbPolyline
 90
        6
 70
     1
 43
0.0
 10
36656.10133639
 20
-24040.65042147
 10
36891.48902368
 20
-24040.65042147
 10
36892.48902058
 20
-24041.65042147
 10
36892.48896784
 20
-24058.65042242
 10
36891.48896474
 20
-24059.65042242
 10
36656.10133639
 20
-24059.65042242
  0
LINE
  5
55D
100
AcDbEntity
  8
Ech.1_5
 62
     1
  6
CONTINUOUS
370
    -3
100
AcDbLine
 10
36891.48902368
 20
-24040.65042147
 30
0.0
 11
36891.48896474
 21
-24059.65042242
 31
0.0
  0
LINE
  5
55E
100
AcDbEntity
  8
Ech.1_5
 62
     1
  6
CONTINUOUS
370
    -3
100
AcDbLine
 10
36655.10133639
 20
-24058.65042242
 30
0.0
 11
36892.48896784
 21
-24058.65042242
 31
0.0
  0
LINE
  5
55F
100
AcDbEntity
  8
Ech.1_5
 62
     1
  6
CONTINUOUS
370
    -3
100
AcDbLine
 10
36655.10138913
 20
-24041.65042147
 30
0.0
 11
36892.48902058
 21
-24041.65042147
 31
0.0
  0
LWPOLYLINE
  5
560
100
AcDbEntity
  8
Ech.1_5
 62
     1
  6
CONTINUOUS
370
    -3
100
AcDbPolyline
 90
        4
 70
     0
 43
0.0
 10
36656.10133639
 20
-24040.65042147
 10
36655.10138913
 20
-24041.65042147
 10
36655.10133639
 20
-24058.65042242
 10
36656.10133639
 20
-24059.65042242
  0
LWPOLYLINE
  5
561
100
AcDbEntity
  8
Ech.1_5
 62
     1
  6
CONTINUOUS
370
    -3
100
AcDbPolyline
 90
        4
 70
     1
 43
0.0
 10
36844.39833876
 20
-24020.65042147
 10
36842.39833876
 20
-24020.65042147
 10
36842.39823008
 20
-24079.65042242
 10
36844.39823008
 20
-24079.65042242
  0
LWPOLYLINE
  5
562
100
AcDbEntity
  8
Ech.1_5
 62
     1
  6
CONTINUOUS
370
    -3
100
AcDbPolyline
 90
        6
 70
     1
 43
0.0
 10
36844.39828442
 20
-24071.75042366
 10
36856.80100541
 20
-24071.75042366
 10
36858.82708557
 20
-24067.44770332
 10
36858.82708557
 20
-24032.85530057
 10
36856.80100541
 20
-24028.55042023
 10
36844.39828442
 20
-24028.55042023
  0
LINE
  5
563
100
AcDbEntity
  8
Ech.1_5
 62
     1
  6
CONTINUOUS
370
    -3
100
AcDbLine
 10
36856.80100541
 20
-24060.95042281
 30
0.0
 11
36858.82708557
 21
-24054.45530229
 31
0.0
  0
LINE
  5
564
100
AcDbEntity
  8
Ech.1_5
 62
     1
  6
CONTINUOUS
370
    -3
100
AcDbLine
 10
36858.82708557
 20
-24050.15042195
 30
0.0
 11
36858.82708557
 21
-24067.44770332
 31
0.0
  0
LINE
  5
565
100
AcDbEntity
  8
Ech.1_5
 62
     1
  6
CONTINUOUS
370
    -3
100
AcDbLine
 10
36858.82708557
 20
-24067.44770332
 30
0.0
 11
36856.80100541
 21
-24071.75042366
 31
0.0
  0
LINE
  5
566
100
AcDbEntity
  8
Ech.1_5
 62
     1
  6
CONTINUOUS
370
    -3
100
AcDbLine
 10
36858.82708557
 20
-24065.25530315
 30
0.0
 11
36856.80100541
 21
-24060.95042281
 31
0.0
  0
LINE
  5
567
100
AcDbEntity
  8
Ech.1_5
 62
     1
  6
CONTINUOUS
370
    -3
100
AcDbLine
 10
36856.80100541
 20
-24071.75042366
 30
0.0
 11
36844.39828442
 21
-24071.75042366
 31
0.0
  0
LINE
  5
568
100
AcDbEntity
  8
Ech.1_5
 62
     1
  6
CONTINUOUS
370
    -3
100
AcDbLine
 10
36844.39828442
 20
-24071.75042366
 30
0.0
 11
36844.39828442
 21
-24050.15042195
 31
0.0
  0
LINE
  5
569
100
AcDbEntity
  8
Ech.1_5
 62
     1
  6
CONTINUOUS
370
    -3
100
AcDbLine
 10
36856.80100541
 20
-24060.95042281
 30
0.0
 11
36844.39828442
 21
-24060.95042281
 31
0.0
  0
LINE
  5
56A
100
AcDbEntity
  8
Ech.1_5
 62
     1
  6
CONTINUOUS
370
    -3
100
AcDbLine
 10
36858.82708557
 20
-24032.85530057
 30
0.0
 11
36856.80100541
 21
-24028.55042023
 31
0.0
  0
LINE
  5
56B
100
AcDbEntity
  8
Ech.1_5
 62
     1
  6
CONTINUOUS
370
    -3
100
AcDbLine
 10
36858.82708557
 20
-24035.04770075
 30
0.0
 11
36856.80100541
 21
-24039.35042109
 31
0.0
  0
LINE
  5
56C
100
AcDbEntity
  8
Ech.1_5
 62
     1
  6
CONTINUOUS
370
    -3
100
AcDbLine
 10
36856.80100541
 20
-24039.35042109
 30
0.0
 11
36858.82708557
 21
-24045.84770161
 31
0.0
  0
LINE
  5
56D
100
AcDbEntity
  8
Ech.1_5
 62
     1
  6
CONTINUOUS
370
    -3
100
AcDbLine
 10
36858.82708557
 20
-24050.15042195
 30
0.0
 11
36858.82708557
 21
-24032.85530057
 31
0.0
  0
LINE
  5
56E
100
AcDbEntity
  8
Ech.1_5
 62
     1
  6
CONTINUOUS
370
    -3
100
AcDbLine
 10
36856.80100541
 20
-24028.55042023
 30
0.0
 11
36844.39828442
 21
-24028.55042023
 31
0.0
  0
LINE
  5
56F
100
AcDbEntity
  8
Ech.1_5
 62
     1
  6
CONTINUOUS
370
    -3
100
AcDbLine
 10
36844.39828442
 20
-24028.55042023
 30
0.0
 11
36844.39828442
 21
-24050.15042195
 31
0.0
  0
LINE
  5
570
100
AcDbEntity
  8
Ech.1_5
 62
     1
  6
CONTINUOUS
370
    -3
100
AcDbLine
 10
36856.80100541
 20
-24039.35042109
 30
0.0
 11
36844.39828442
 21
-24039.35042109
 31
0.0
  0
LWPOLYLINE
  5
571
100
AcDbEntity
  8
Ech.1_5
 62
   210
  6
CONTINUOUS
370
    70
100
AcDbPolyline
 90
        4
 70
     0
 43
0.0
 10
36712.90428964
 20
-24039.66802553
 10
36732.88814173
 20
-24039.66802553
 42
0.35164347
 10
36743.3650502
 20
-24029.75271712
 10
36743.3650502
 20
-23990.75276485
  0
LWPOLYLINE
  5
572
100
AcDbEntity
  8
Ech.1_5
 62
   210
  6
CONTINUOUS
370
    70
100
AcDbPolyline
 90
        4
 70
     0
 43
0.0
 10
36712.90428964
 20
-24060.51328991
 10
36732.88814173
 20
-24060.51328991
 42
-0.35164347
 10
36743.3650502
 20
-24070.42859833
 10
36743.3650502
 20
-24109.42855059
  0
LWPOLYLINE
  5
573
100
AcDbEntity
  8
Ech.1_5
 62
     3
370
    70
100
AcDbPolyline
 90
        4
 70
     0
 43
0.0
 10
36736.6173091
 20
-24003.46680576
 10
36736.6173091
 20
-23990.47767234
 10
36742.29792206
 20
-23986.5429402
 10
36742.29792206
 20
-23973.0645102
  0
LWPOLYLINE
  5
574
100
AcDbEntity
  8
Ech.1_5
 62
     3
370
    70
100
AcDbPolyline
 90
        4
 70
     0
 43
0.0
 10
36736.6173091
 20
-24097.03144047
 10
36736.6173091
 20
-24110.02057389
 10
36742.29792206
 20
-24113.95530603
 10
36742.29792206
 20
-24127.43373603
  0
LWPOLYLINE
  5
575
100
AcDbEntity
  8
Ech.1_5
 62
     1
  6
CONTINUOUS
370
    -3
100
AcDbPolyline
 90
        4
 70
     1
 43
0.0
 10
36696.39765665
 20
-23843.31379236
 10
36698.39765665
 20
-23843.31379236
 10
36698.39776533
 20
-23902.31379331
 10
36696.39776533
 20
-23902.31379331
  0
LWPOLYLINE
  5
576
100
AcDbEntity
  8
Ech.1_5
 62
     1
  6
CONTINUOUS
370
    -3
100
AcDbPolyline
 90
        6
 70
     1
 43
0.0
 10
36696.39771099
 20
-23894.41379455
 10
36683.99499
 20
-23894.41379455
 10
36681.96890984
 20
-23890.11107421
 10
36681.96890984
 20
-23855.51867146
 10
36683.99499
 20
-23851.21379112
 10
36696.39771099
 20
-23851.21379112
  0
LINE
  5
577
100
AcDbEntity
  8
Ech.1_5
 62
     1
  6
CONTINUOUS
370
    -3
100
AcDbLine
 10
36683.99499
 20
-23883.61379369
 30
0.0
 11
36681.96890984
 21
-23877.11867317
 31
0.0
  0
LINE
  5
578
100
AcDbEntity
  8
Ech.1_5
 62
     1
  6
CONTINUOUS
370
    -3
100
AcDbLine
 10
36681.96890984
 20
-23872.81379283
 30
0.0
 11
36681.96890984
 21
-23890.11107421
 31
0.0
  0
LINE
  5
579
100
AcDbEntity
  8
Ech.1_5
 62
     1
  6
CONTINUOUS
370
    -3
100
AcDbLine
 10
36681.96890984
 20
-23890.11107421
 30
0.0
 11
36683.99499
 21
-23894.41379455
 31
0.0
  0
LINE
  5
57A
100
AcDbEntity
  8
Ech.1_5
 62
     1
  6
CONTINUOUS
370
    -3
100
AcDbLine
 10
36681.96890984
 20
-23887.91867403
 30
0.0
 11
36683.99499
 21
-23883.61379369
 31
0.0
  0
LINE
  5
57B
100
AcDbEntity
  8
Ech.1_5
 62
     1
  6
CONTINUOUS
370
    -3
100
AcDbLine
 10
36683.99499
 20
-23894.41379455
 30
0.0
 11
36696.39771099
 21
-23894.41379455
 31
0.0
  0
LINE
  5
57C
100
AcDbEntity
  8
Ech.1_5
 62
     1
  6
CONTINUOUS
370
    -3
100
AcDbLine
 10
36696.39771099
 20
-23894.41379455
 30
0.0
 11
36696.39771099
 21
-23872.81379283
 31
0.0
  0
LINE
  5
57D
100
AcDbEntity
  8
Ech.1_5
 62
     1
  6
CONTINUOUS
370
    -3
100
AcDbLine
 10
36683.99499
 20
-23883.61379369
 30
0.0
 11
36696.39771099
 21
-23883.61379369
 31
0.0
  0
LINE
  5
57E
100
AcDbEntity
  8
Ech.1_5
 62
     1
  6
CONTINUOUS
370
    -3
100
AcDbLine
 10
36681.96890984
 20
-23855.51867146
 30
0.0
 11
36683.99499
 21
-23851.21379112
 31
0.0
  0
LINE
  5
57F
100
AcDbEntity
  8
Ech.1_5
 62
     1
  6
CONTINUOUS
370
    -3
100
AcDbLine
 10
36681.96890984
 20
-23857.71107163
 30
0.0
 11
36683.99499
 21
-23862.01379197
 31
0.0
  0
LINE
  5
580
100
AcDbEntity
  8
Ech.1_5
 62
     1
  6
CONTINUOUS
370
    -3
100
AcDbLine
 10
36683.99499
 20
-23862.01379197
 30
0.0
 11
36681.96890984
 21
-23868.51107249
 31
0.0
  0
LINE
  5
581
100
AcDbEntity
  8
Ech.1_5
 62
     1
  6
CONTINUOUS
370
    -3
100
AcDbLine
 10
36681.96890984
 20
-23872.81379283
 30
0.0
 11
36681.96890984
 21
-23855.51867146
 31
0.0
  0
LINE
  5
582
100
AcDbEntity
  8
Ech.1_5
 62
     1
  6
CONTINUOUS
370
    -3
100
AcDbLine
 10
36683.99499
 20
-23851.21379112
 30
0.0
 11
36696.39771099
 21
-23851.21379112
 31
0.0
  0
LINE
  5
583
100
AcDbEntity
  8
Ech.1_5
 62
     1
  6
CONTINUOUS
370
    -3
100
AcDbLine
 10
36696.39771099
 20
-23851.21379112
 30
0.0
 11
36696.39771099
 21
-23872.81379283
 31
0.0
  0
LINE
  5
584
100
AcDbEntity
  8
Ech.1_5
 62
     1
  6
CONTINUOUS
370
    -3
100
AcDbLine
 10
36683.99499
 20
-23862.01379197
 30
0.0
 11
36696.39771099
 21
-23862.01379197
 31
0.0
  0
LWPOLYLINE
  5
585
100
AcDbEntity
  8
Ech.1_5
 62
     1
  6
CONTINUOUS
370
    -3
100
AcDbPolyline
 90
        4
 70
     1
 43
0.0
 10
36696.39765665
 20
-24020.65042147
 10
36698.39765665
 20
-24020.65042147
 10
36698.39776533
 20
-24079.65042242
 10
36696.39776533
 20
-24079.65042242
  0
LWPOLYLINE
  5
586
100
AcDbEntity
  8
Ech.1_5
 62
     1
  6
CONTINUOUS
370
    -3
100
AcDbPolyline
 90
        6
 70
     1
 43
0.0
 10
36696.39771099
 20
-24071.75042366
 10
36683.99499
 20
-24071.75042366
 10
36681.96890984
 20
-24067.44770332
 10
36681.96890984
 20
-24032.85530057
 10
36683.99499
 20
-24028.55042023
 10
36696.39771099
 20
-24028.55042023
  0
LINE
  5
587
100
AcDbEntity
  8
Ech.1_5
 62
     1
  6
CONTINUOUS
370
    -3
100
AcDbLine
 10
36683.99499
 20
-24060.95042281
 30
0.0
 11
36681.96890984
 21
-24054.45530229
 31
0.0
  0
LINE
  5
588
100
AcDbEntity
  8
Ech.1_5
 62
     1
  6
CONTINUOUS
370
    -3
100
AcDbLine
 10
36681.96890984
 20
-24050.15042195
 30
0.0
 11
36681.96890984
 21
-24067.44770332
 31
0.0
  0
LINE
  5
589
100
AcDbEntity
  8
Ech.1_5
 62
     1
  6
CONTINUOUS
370
    -3
100
AcDbLine
 10
36681.96890984
 20
-24067.44770332
 30
0.0
 11
36683.99499
 21
-24071.75042366
 31
0.0
  0
LINE
  5
58A
100
AcDbEntity
  8
Ech.1_5
 62
     1
  6
CONTINUOUS
370
    -3
100
AcDbLine
 10
36681.96890984
 20
-24065.25530315
 30
0.0
 11
36683.99499
 21
-24060.95042281
 31
0.0
  0
LINE
  5
58B
100
AcDbEntity
  8
Ech.1_5
 62
     1
  6
CONTINUOUS
370
    -3
100
AcDbLine
 10
36683.99499
 20
-24071.75042366
 30
0.0
 11
36696.39771099
 21
-24071.75042366
 31
0.0
  0
LINE
  5
58C
100
AcDbEntity
  8
Ech.1_5
 62
     1
  6
CONTINUOUS
370
    -3
100
AcDbLine
 10
36696.39771099
 20
-24071.75042366
 30
0.0
 11
36696.39771099
 21
-24050.15042195
 31
0.0
  0
LINE
  5
58D
100
AcDbEntity
  8
Ech.1_5
 62
     1
  6
CONTINUOUS
370
    -3
100
AcDbLine
 10
36683.99499
 20
-24060.95042281
 30
0.0
 11
36696.39771099
 21
-24060.95042281
 31
0.0
  0
LINE
  5
58E
100
AcDbEntity
  8
Ech.1_5
 62
     1
  6
CONTINUOUS
370
    -3
100
AcDbLine
 10
36681.96890984
 20
-24032.85530057
 30
0.0
 11
36683.99499
 21
-24028.55042023
 31
0.0
  0
LINE
  5
58F
100
AcDbEntity
  8
Ech.1_5
 62
     1
  6
CONTINUOUS
370
    -3
100
AcDbLine
 10
36681.96890984
 20
-24035.04770075
 30
0.0
 11
36683.99499
 21
-24039.35042109
 31
0.0
  0
LINE
  5
590
100
AcDbEntity
  8
Ech.1_5
 62
     1
  6
CONTINUOUS
370
    -3
100
AcDbLine
 10
36683.99499
 20
-24039.35042109
 30
0.0
 11
36681.96890984
 21
-24045.84770161
 31
0.0
  0
LINE
  5
591
100
AcDbEntity
  8
Ech.1_5
 62
     1
  6
CONTINUOUS
370
    -3
100
AcDbLine
 10
36681.96890984
 20
-24050.15042195
 30
0.0
 11
36681.96890984
 21
-24032.85530057
 31
0.0
  0
LINE
  5
592
100
AcDbEntity
  8
Ech.1_5
 62
     1
  6
CONTINUOUS
370
    -3
100
AcDbLine
 10
36683.99499
 20
-24028.55042023
 30
0.0
 11
36696.39771099
 21
-24028.55042023
 31
0.0
  0
LINE
  5
593
100
AcDbEntity
  8
Ech.1_5
 62
     1
  6
CONTINUOUS
370
    -3
100
AcDbLine
 10
36696.39771099
 20
-24028.55042023
 30
0.0
 11
36696.39771099
 21
-24050.15042195
 31
0.0
  0
LINE
  5
594
100
AcDbEntity
  8
Ech.1_5
 62
     1
  6
CONTINUOUS
370
    -3
100
AcDbLine
 10
36683.99499
 20
-24039.35042109
 30
0.0
 11
36696.39771099
 21
-24039.35042109
 31
0.0
  0
LWPOLYLINE
  5
595
100
AcDbEntity
  8
Ech.1_5
 62
   190
  6
CONTINUOUS
370
    -3
100
AcDbPolyline
 90
       12
 70
     0
 43
0.0
 10
36782.39765665
 20
-23361.86099805
 42
1.14028181
 10
36790.16224548
 20
-23420.83876815
 10
36894.63306781
 20
-23392.88322794
 42
-1.30322619
 10
36894.63306781
 20
-23450.83876815
 10
36790.16224548
 20
-23422.88322794
 42
1.30322619
 10
36790.16224548
 20
-23480.83876815
 10
36894.63306781
 20
-23452.88322794
 42
-1.30322619
 10
36894.63306781
 20
-23510.83876815
 10
36790.16224548
 20
-23482.88322794
 42
1.30322619
 10
36790.16224548
 20
-23540.83876815
 10
36894.63306781
 20
-23512.88322794
 42
-0.54186205
 10
36932.04400341
 20
-23546.453832
  0
LWPOLYLINE
  5
596
100
AcDbEntity
  8
Ech.1_5
 62
     1
  6
CADWORK_22
370
    35
100
AcDbPolyline
 90
        3
 70
     0
 43
0.0
 10
36847.51627875
 20
-23546.44422134
 10
36932.39765665
 20
-23546.453832
 10
36932.39765665
 20
-23361.86114777
  0
LWPOLYLINE
  5
597
100
AcDbEntity
  8
Ech.1_5
 62
     1
  6
CADWORK_22
370
    35
100
AcDbPolyline
 90
        4
 70
     0
 43
0.0
 10
36847.4737106
 20
-23599.44422134
 10
36932.3550885
 20
-23599.453832
 10
36932.3550885
 20
-23599.453832
 10
36932.3550885
 20
-24366.42474199
  0
LWPOLYLINE
  5
598
100
AcDbEntity
  8
Ech.1_5
 62
     9
  6
CONTINUOUS
370
    -3
100
AcDbPolyline
 90
       34
 70
     0
 43
0.0
 10
37180.00479923
 20
-23361.8615693
 42
1.14028181
 10
37182.16162946
 20
-23378.24428321
 10
37211.18130233
 20
-23370.47885538
 42
-1.30322619
 10
37211.18130233
 20
-23386.57761655
 10
37182.16162946
 20
-23378.81218871
 42
1.30322619
 10
37182.16162946
 20
-23394.91094988
 10
37211.18130233
 20
-23387.14552205
 42
-1.30322619
 10
37211.18130233
 20
-23403.24428321
 10
37182.16162946
 20
-23395.47885538
 42
1.30322619
 10
37182.16162946
 20
-23411.57761655
 10
37211.18130233
 20
-23403.81218871
 42
-1.30322619
 10
37211.18130233
 20
-23419.91094988
 10
37182.16162946
 20
-23412.14552205
 42
1.30322619
 10
37182.16162946
 20
-23428.24428321
 10
37211.18130233
 20
-23420.47885538
 42
-1.30322619
 10
37211.18130233
 20
-23436.57761655
 10
37182.16162946
 20
-23428.81218871
 42
1.30322619
 10
37182.16162946
 20
-23444.91094988
 10
37211.18130233
 20
-23437.14552205
 42
-1.30322619
 10
37211.18130233
 20
-23453.24428321
 10
37182.16162946
 20
-23445.47885538
 42
1.30322619
 10
37182.16162946
 20
-23461.57761655
 10
37211.18130233
 20
-23453.81218871
 42
-1.30322619
 10
37211.18130233
 20
-23469.91094988
 10
37182.16162946
 20
-23462.14552205
 42
1.30322619
 10
37182.16162946
 20
-23478.24428321
 10
37211.18130233
 20
-23470.47885538
 42
-1.30322619
 10
37211.18130233
 20
-23486.57761655
 10
37182.16162946
 20
-23478.81218871
 42
1.30322619
 10
37182.16162946
 20
-23494.91094988
 10
37211.18130233
 20
-23487.14552205
 42
-1.30322619
 10
37211.18130233
 20
-23503.24428321
 10
37182.16162946
 20
-23495.47885538
 42
0.52822838
 10
37171.72302942
 20
-23504.45383486
  0
LWPOLYLINE
  5
599
100
AcDbEntity
  8
Ech.1_5
 62
     9
  6
CONTINUOUS
370
    -3
100
AcDbPolyline
 90
      158
 70
     0
 43
0.0
 10
37180.00479923
 20
-23704.45542733
 42
1.14028181
 10
37182.16162946
 20
-23720.83814124
 10
37211.18130233
 20
-23713.07271341
 42
-1.30322619
 10
37211.18130233
 20
-23729.17147458
 10
37182.16162946
 20
-23721.40604674
 42
1.30322619
 10
37182.16162946
 20
-23737.50480791
 10
37211.18130233
 20
-23729.73938007
 42
-1.30322619
 10
37211.18130233
 20
-23745.83814124
 10
37182.16162946
 20
-23738.07271341
 42
1.30322619
 10
37182.16162946
 20
-23754.17147458
 10
37211.18130233
 20
-23746.40604674
 42
-1.30322619
 10
37211.18130233
 20
-23762.50480791
 10
37182.16162946
 20
-23754.73938007
 42
1.30322619
 10
37182.16162946
 20
-23770.83814124
 10
37211.18130233
 20
-23763.07271341
 42
-1.30322619
 10
37211.18130233
 20
-23779.17147458
 10
37182.16162946
 20
-23771.40604674
 42
1.30322619
 10
37182.16162946
 20
-23787.50480791
 10
37211.18130233
 20
-23779.73938007
 42
-1.30322619
 10
37211.18130233
 20
-23795.83814124
 10
37182.16162946
 20
-23788.07271341
 42
1.30322619
 10
37182.16162946
 20
-23804.17147458
 10
37211.18130233
 20
-23796.40604674
 42
-1.30322619
 10
37211.18130233
 20
-23812.50480791
 10
37182.16162946
 20
-23804.73938007
 42
1.30322619
 10
37182.16162946
 20
-23820.83814124
 10
37211.18130233
 20
-23813.07271341
 42
-1.30322619
 10
37211.18130233
 20
-23829.17147458
 10
37182.16162946
 20
-23821.40604674
 42
1.30322619
 10
37182.16162946
 20
-23837.50480791
 10
37211.18130233
 20
-23829.73938007
 42
-1.30322619
 10
37211.18130233
 20
-23845.83814124
 10
37182.16162946
 20
-23838.07271341
 42
1.30322619
 10
37182.16162946
 20
-23854.17147458
 10
37211.18130233
 20
-23846.40604674
 42
-1.30322619
 10
37211.18130233
 20
-23862.50480791
 10
37182.16162946
 20
-23854.73938007
 42
1.30322619
 10
37182.16162946
 20
-23870.83814124
 10
37211.18130233
 20
-23863.07271341
 42
-1.30322619
 10
37211.18130233
 20
-23879.17147458
 10
37182.16162946
 20
-23871.40604674
 42
1.30322619
 10
37182.16162946
 20
-23887.50480791
 10
37211.18130233
 20
-23879.73938007
 42
-1.30322619
 10
37211.18130233
 20
-23895.83814124
 10
37182.16162946
 20
-23888.07271341
 42
1.30322619
 10
37182.16162946
 20
-23904.17147458
 10
37211.18130233
 20
-23896.40604674
 42
-1.30322619
 10
37211.18130233
 20
-23912.50480791
 10
37182.16162946
 20
-23904.73938007
 42
1.30322619
 10
37182.16162946
 20
-23920.83814124
 10
37211.18130233
 20
-23913.07271341
 42
-1.30322619
 10
37211.18130233
 20
-23929.17147458
 10
37182.16162946
 20
-23921.40604674
 42
1.30322619
 10
37182.16162946
 20
-23937.50480791
 10
37211.18130233
 20
-23929.73938007
 42
-1.30322619
 10
37211.18130233
 20
-23945.83814124
 10
37182.16162946
 20
-23938.07271341
 42
1.30322619
 10
37182.16162946
 20
-23954.17147458
 10
37211.18130233
 20
-23946.40604674
 42
-1.30322619
 10
37211.18130233
 20
-23962.50480791
 10
37182.16162946
 20
-23954.73938007
 42
1.30322619
 10
37182.16162946
 20
-23970.83814124
 10
37211.18130233
 20
-23963.07271341
 42
-1.30322619
 10
37211.18130233
 20
-23979.17147458
 10
37182.16162946
 20
-23971.40604674
 42
1.30322619
 10
37182.16162946
 20
-23987.50480791
 10
37211.18130233
 20
-23979.73938007
 42
-1.30322619
 10
37211.18130233
 20
-23995.83814124
 10
37182.16162946
 20
-23988.07271341
 42
1.30322619
 10
37182.16162946
 20
-24004.17147458
 10
37211.18130233
 20
-23996.40604674
 42
-1.30322619
 10
37211.18130233
 20
-24012.50480791
 10
37182.16162946
 20
-24004.73938007
 42
1.30322619
 10
37182.16162946
 20
-24020.83814124
 10
37211.18130233
 20
-24013.07271341
 42
-1.30322619
 10
37211.18130233
 20
-24029.17147458
 10
37182.16162946
 20
-24021.40604674
 42
1.30322619
 10
37182.16162946
 20
-24037.50480791
 10
37211.18130233
 20
-24029.73938007
 42
-1.30322619
 10
37211.18130233
 20
-24045.83814124
 10
37182.16162946
 20
-24038.07271341
 42
1.30322619
 10
37182.16162946
 20
-24054.17147458
 10
37211.18130233
 20
-24046.40604674
 42
-1.30322619
 10
37211.18130233
 20
-24062.50480791
 10
37182.16162946
 20
-24054.73938007
 42
1.30322619
 10
37182.16162946
 20
-24070.83814124
 10
37211.18130233
 20
-24063.07271341
 42
-1.30322619
 10
37211.18130233
 20
-24079.17147458
 10
37182.16162946
 20
-24071.40604674
 42
1.30322619
 10
37182.16162946
 20
-24087.50480791
 10
37211.18130233
 20
-24079.73938007
 42
-1.30322619
 10
37211.18130233
 20
-24095.83814124
 10
37182.16162946
 20
-24088.07271341
 42
1.30322619
 10
37182.16162946
 20
-24104.17147458
 10
37211.18130233
 20
-24096.40604674
 42
-1.30322619
 10
37211.18130233
 20
-24112.50480791
 10
37182.16162946
 20
-24104.73938007
 42
1.30322619
 10
37182.16162946
 20
-24120.83814124
 10
37211.18130233
 20
-24113.07271341
 42
-1.30322619
 10
37211.18130233
 20
-24129.17147458
 10
37182.16162946
 20
-24121.40604674
 42
1.30322619
 10
37182.16162946
 20
-24137.50480791
 10
37211.18130233
 20
-24129.73938007
 42
-1.30322619
 10
37211.18130233
 20
-24145.83814124
 10
37182.16162946
 20
-24138.07271341
 42
1.30322619
 10
37182.16162946
 20
-24154.17147458
 10
37211.18130233
 20
-24146.40604674
 42
-1.30322619
 10
37211.18130233
 20
-24162.50480791
 10
37182.16162946
 20
-24154.73938007
 42
1.30322619
 10
37182.16162946
 20
-24170.83814124
 10
37211.18130233
 20
-24163.07271341
 42
-1.30322619
 10
37211.18130233
 20
-24179.17147458
 10
37182.16162946
 20
-24171.40604674
 42
1.30322619
 10
37182.16162946
 20
-24187.50480791
 10
37211.18130233
 20
-24179.73938007
 42
-1.30322619
 10
37211.18130233
 20
-24195.83814124
 10
37182.16162946
 20
-24188.07271341
 42
1.30322619
 10
37182.16162946
 20
-24204.17147458
 10
37211.18130233
 20
-24196.40604674
 42
-1.30322619
 10
37211.18130233
 20
-24212.50480791
 10
37182.16162946
 20
-24204.73938007
 42
1.30322619
 10
37182.16162946
 20
-24220.83814124
 10
37211.18130233
 20
-24213.07271341
 42
-1.30322619
 10
37211.18130233
 20
-24229.17147458
 10
37182.16162946
 20
-24221.40604674
 42
1.30322619
 10
37182.16162946
 20
-24237.50480791
 10
37211.18130233
 20
-24229.73938007
 42
-1.30322619
 10
37211.18130233
 20
-24245.83814124
 10
37182.16162946
 20
-24238.07271341
 42
1.30322619
 10
37182.16162946
 20
-24254.17147458
 10
37211.18130233
 20
-24246.40604674
 42
-1.30322619
 10
37211.18130233
 20
-24262.50480791
 10
37182.16162946
 20
-24254.73938007
 42
1.30322619
 10
37182.16162946
 20
-24270.83814124
 10
37211.18130233
 20
-24263.07271341
 42
-1.30322619
 10
37211.18130233
 20
-24279.17147458
 10
37182.16162946
 20
-24271.40604674
 42
1.30322619
 10
37182.16162946
 20
-24287.50480791
 10
37211.18130233
 20
-24279.73938007
 42
-1.30322619
 10
37211.18130233
 20
-24295.83814124
 10
37182.16162946
 20
-24288.07271341
 42
1.30322619
 10
37182.16162946
 20
-24304.17147458
 10
37211.18130233
 20
-24296.40604674
 42
-1.30322619
 10
37211.18130233
 20
-24312.50480791
 10
37182.16162946
 20
-24304.73938007
 42
1.30322619
 10
37182.16162946
 20
-24320.83814124
 10
37211.18130233
 20
-24313.07271341
 42
-1.30322619
 10
37211.18130233
 20
-24329.17147458
 10
37182.16162946
 20
-24321.40604674
 42
1.30322619
 10
37182.16162946
 20
-24337.50480791
 10
37211.18130233
 20
-24329.73938007
 42
-1.30322619
 10
37211.18130233
 20
-24345.83814124
 10
37182.16162946
 20
-24338.07271341
 42
1.30322619
 10
37182.16162946
 20
-24354.17147458
 10
37211.18130233
 20
-24346.40604674
 42
-1.30322619
 10
37211.18130233
 20
-24362.50480791
 10
37182.16162946
 20
-24354.73938007
 42
0.64325465
 10
37172.5151881
 20
-24366.44254904
  0
LINE
  5
59A
100
AcDbEntity
  8
Ech.1_5
 62
   190
  6
CONTINUOUS
370
    -3
100
AcDbLine
 10
36627.78852729
 20
-24030.98186746
 30
0.0
 11
36351.81602346
 21
-24310.16140564
 31
0.0
  0
LINE
  5
59B
100
AcDbEntity
  8
Ech.1_5
 62
   190
  6
CONTINUOUS
370
    -3
100
AcDbLine
 10
36634.61762824
 20
-24037.7325201
 30
0.0
 11
36358.64512441
 21
-24316.91205828
 31
0.0
  0
LWPOLYLINE
  5
59C
100
AcDbEntity
  8
Ech.1_5
 62
   190
100
AcDbPolyline
 90
        5
 70
     0
 43
0.0
 10
36471.30835648
 20
-24359.17754584
 10
36605.73713546
 20
-24359.17754584
 10
36605.73713546
 20
-24415.90050465
 10
36471.30835648
 20
-24415.90050465
 10
36471.30835648
 20
-24359.17754584
  0
HATCH
  5
59D
100
AcDbEntity
  8
Ech.1_5
 62
   190
100
AcDbHatch
 10
0.0
 20
0.0
 30
0.0
210
0.0
220
0.0
230
1.0
  2
SOLID
 70
     1
 71
     0
 91
        1
 92
        7
 72
     0
 73
     1
 93
        4
 10
36489.58840226
 20
-24392.83435697
 10
36539.58840226
 20
-24392.83435697
 10
36539.58840226
 20
-24385.41921943
 10
36489.58840226
 20
-24385.41921943
 97
        0
 75
     0
 76
     2
 47
0.775229
 98
        1
 10
0.0
 20
0.0
  0
LWPOLYLINE
  5
59E
100
AcDbEntity
  8
Ech.1_5
 62
   190
100
AcDbPolyline
 90
        5
 70
     0
 43
0.0
 10
36489.58840226
 20
-24392.83435697
 10
36539.58840226
 20
-24392.83435697
 10
36539.58840226
 20
-24385.41921943
 10
36489.58840226
 20
-24385.41921943
 10
36489.58840226
 20
-24392.83435697
  0
LWPOLYLINE
  5
59F
100
AcDbEntity
  8
Ech.1_5
 62
   190
100
AcDbPolyline
 90
        5
 70
     0
 43
0.0
 10
36539.58840226
 20
-24392.83435697
 10
36589.58840226
 20
-24392.83435697
 10
36589.58840226
 20
-24385.41921943
 10
36539.58840226
 20
-24385.41921943
 10
36539.58840226
 20
-24392.83435697
  0
TEXT
  5
5A0
100
AcDbEntity
  8
Ech.1_5
 62
   190
100
AcDbText
 10
36500.88269489
 20
-24375.83321635
 30
0.0
 40
8.00000012
  1
Echelle en mm
  7
ARIAL
 50
0.0
 41
1.0
 51
0.0
100
AcDbText
  0
TEXT
  5
5A1
100
AcDbEntity
  8
Ech.1_5
 62
   190
100
AcDbText
 10
36486.90211014
 20
-24404.04305188
 30
0.0
 40
8.00000012
  1
0
  7
ARIAL
 50
0.0
 41
1.0
 51
0.0
100
AcDbText
  0
TEXT
  5
5A2
100
AcDbEntity
  8
Ech.1_5
 62
   190
100
AcDbText
 10
36573.49916803
 20
-24404.04305188
 30
0.0
 40
8.00000012
  1
100
  7
ARIAL
 50
0.0
 41
1.0
 51
0.0
100
AcDbText
  0
TEXT
  5
5A3
100
AcDbEntity
  8
Ech.1_5
 62
   190
100
AcDbText
 10
36534.75873647
 20
-24404.04305188
 30
0.0
 40
8.00000012
  1
50
  7
ARIAL
 50
0.0
 41
1.0
 51
0.0
100
AcDbText
  0
ENDSEC
  0
SECTION
  2
OBJECTS
  0
DICTIONARY
  5
1
100
AcDbDictionary
  3
ACAD_GROUP
350
2
  3
ACAD_MLINESTYLE
350
3
  0
DICTIONARY
  5
2
102
{CDWK_REACTORS
330
1
102
}
100
AcDbDictionary
  0
DICTIONARY
  5
3
102
{CDWK_REACTORS
330
1
102
}
100
AcDbDictionary
  3
STANDARD
350
4
  0
MLINESTYLE
  5
4
102
{CDWK_REACTORS
330
3
102
}
100
AcDbMlineStyle
  2
STANDARD
 70
     0
  3

 62
     0
 51
90.0
 52
90.0
 71
     2
 49
0.5
 62
   256
  6
BYLAYER
 49
-0.5
 62
   256
  6
BYLAYER
  0
ENDSEC
  0
EOF
