  0
SECTION
  2
HEADER
  9
$ACADVER
  1
AC1014
  9
$DWGCODEPAGE
  3
ANSI_1252
  9
$INSBASE
 10
0.0
 20
0.0
 30
0.0
  9
$EXTMIN
 10
442.48441711
 20
-1565.06505449
  9
$EXTMAX
 10
14162.16676922
 20
4877.93302528
  9
$LIMMIN
 10
442.48441711
 20
-1565.06505449
  9
$LIMMAX
 10
14162.16676922
 20
4877.93302528
  9
$ORTHOMODE
 70
     0
  9
$REGENMODE
 70
     1
  9
$FILLMODE
 70
     1
  9
$QTEXTMODE
 70
     0
  9
$MIRRTEXT
 70
     1
  9
$DRAGMODE
 70
     2
  9
$LTSCALE
 40
5.0
  9
$OSMODE
 70
     0
  9
$ATTMODE
 70
     1
  9
$TEXTSIZE
 40
3.5
  9
$TRACEWID
 40
1.0
  9
$TEXTSTYLE
  7
STANDARD
  9
$CLAYER
  8
0
  9
$CELTYPE
  6
BYLAYER
  9
$CECOLOR
 62
   256
  9
$DIMSCALE
 40
1.0
  9
$DIMASZ
 40
2.0
  9
$DIMEXO
 40
5.0
  9
$DIMDLI
 40
10.0
  9
$DIMRND
 40
0.0
  9
$DIMDLE
 40
2.0
  9
$DIMEXE
 40
2.0
  9
$DIMTP
 40
0.0
  9
$DIMTM
 40
0.0
  9
$DIMTXT
 40
2.5
  9
$DIMCEN
 40
1.5
  9
$DIMTSZ
 40
0.0
  9
$DIMTOL
 70
     0
  9
$DIMLIM
 70
     0
  9
$DIMTIH
 70
     1
  9
$DIMTOH
 70
     0
  9
$DIMSE1
 70
     0
  9
$DIMSE2
 70
     0
  9
$DIMTAD
 70
     1
  9
$DIMZIN
 70
     8
  9
$DIMBLK
  1

  9
$DIMASO
 70
     1
  9
$DIMSHO
 70
     1
  9
$DIMPOST
  1

  9
$DIMAPOST
  1

  9
$DIMALT
 70
     0
  9
$DIMALTD
 70
     2
  9
$DIMALTF
 40
25.4
  9
$DIMLFAC
 40
1.0
  9
$DIMTOFL
 70
     0
  9
$DIMTVP
 40
0.0
  9
$DIMTIX
 70
     0
  9
$DIMSOXD
 70
     0
  9
$DIMSAH
 70
     0
  9
$DIMBLK1
  1

  9
$DIMBLK2
  1

  9
$DIMSTYLE
  2
*UNNAMED
  9
$DIMCLRD
 70
   190
  9
$DIMCLRE
 70
   190
  9
$DIMCLRT
 70
   190
  9
$DIMTFAC
 40
1.0
  9
$DIMGAP
 40
0.09
  9
$DIMUNIT
 70
     2
  9
$LUNITS
 70
     2
  9
$LUPREC
 70
     6
  9
$AXISMODE
 70
     0
  9
$AXISUNIT
 10
0.0
 20
0.0
  9
$SKETCHINC
 40
0.1
  9
$FILLETRAD
 40
0.0
  9
$AUNITS
 70
     0
  9
$AUPREC
 70
     0
  9
$MENU
  1
ACAD
  9
$ELEVATION
 40
0.0
  9
$PELEVATION
 40
0.0
  9
$THICKNESS
 40
0.0
  9
$LIMCHECK
 70
     0
  9
$BLIPMODE
 70
     1
  9
$CHAMFERA
 40
0.0
  9
$CHAMFERB
 40
0.0
  9
$SKPOLY
 70
     1
  9
$TDCREATE
 40
2456751.0000000000
  9
$TDUPDATE
 40
2456751.0000000000
  9
$TDINDWG
 40
0.0
  9
$TDUSRTIMER
 40
0.0
  9
$USRTIMER
 70
     1
  9
$ANGBASE
 50
0.0
  9
$ANGDIR
 70
     0
  9
$PDMODE
 70
     0
  9
$PDSIZE
 40
0.0
  9
$PLINEWID
 40
0.0
  9
$COORDS
 70
     2
  9
$SPLFRAME
 70
     0
  9
$SPLINETYPE
 70
     6
  9
$SPLINESEGS
 70
     8
  9
$ATTDIA
 70
     1
  9
$ATTREQ
 70
     1
  9
$HANDLING
 70
     1
  9
$HANDSEED
  5
     1D7
  9
$SURFTAB1
 70
     6
  9
$SURFTAB2
 70
     6
  9
$SURFTYPE
 70
     6
  9
$SURFU
 70
     6
  9
$SURFV
 70
     6
  9
$UCSNAME
  2

  9
$UCSORG
 10
0.0
 20
0.0
 30
0.0
  9
$UCSXDIR
 10
1.0
 20
0.0
 30
0.0
  9
$UCSYDIR
 10
0.0
 20
1.0
 30
0.0
  9
$PUCSNAME
  2

  9
$PUCSORG
 10
0.0
 20
0.0
 30
0.0
  9
$PUCSXDIR
 10
1.0
 20
0.0
 30
0.0
  9
$PUCSYDIR
 10
0.0
 20
1.0
 30
0.0
  9
$USERI1
 70
     0
  9
$USERI2
 70
     0
  9
$USERI3
 70
     0
  9
$USERI4
 70
     0
  9
$USERI5
 70
     0
  9
$USERR1
 40
0.0
  9
$USERR2
 40
0.0
  9
$USERR3
 40
0.0
  9
$USERR4
 40
0.0
  9
$USERR5
 40
0.0
  9
$WORLDVIEW
 70
     1
  9
$SHADEDGE
 70
     3
  9
$SHADEDIF
 70
    70
  9
$TILEMODE
 70
     1
  9
$MAXACTVP
 70
    16
  9
$PINSBASE
 10
0.0
 20
0.0
 30
0.0
  9
$PLIMCHECK
 70
     0
  9
$PEXTMIN
 10
1.0000000000000E+20
 20
1.0000000000000E+20
 30
1.0000000000000E+20
  9
$PEXTMAX
 10
-1.0000000000000E+20
 20
-1.0000000000000E+20
 30
-1.0000000000000E+20
  9
$PLIMMIN
 10
0.0
 20
0.0
  9
$UNITMODE
 70
     0
  9
$VISRETAIN
 70
     0
  9
$MEASUREMENT
 70
     1
  0
ENDSEC
  0
SECTION
  2
TABLES
  0
TABLE
  2
VPORT
  5
13
100
AcDbSymbolTable
 70
     1
  0
ENDTAB
  0
TABLE
  2
STYLE
  5
14
100
AcDbSymbolTable
 70
     3
  0
STYLE
  5
15
100
AcDbSymbolTableRecord
100
AcDbTextStyleTableRecord
  2
STANDARD
 70
     0
 40
0.0
 41
1.0
 50
0.0
 71
     0
 42
3.5
  3
MONOTXT
  4

  0
STYLE
  5
16
100
AcDbSymbolTableRecord
100
AcDbTextStyleTableRecord
  2
CADWORK1
 70
     0
 40
0.0
 41
1.0
 50
0.0
 71
     0
 42
3.5
  3
MONOTXT
  4

  0
STYLE
  5
17
100
AcDbSymbolTableRecord
100
AcDbTextStyleTableRecord
  2
MONOTXT
 70
     0
 40
0.0
 41
1.0
 50
0.0
 71
     0
 42
3.5
  3
MONOTXT
  4

  0
STYLE
  5
18
100
AcDbSymbolTableRecord
100
AcDbTextStyleTableRecord
  2
ARIAL
 70
     0
 40
0.0
 41
1.0
 50
0.0
 71
     0
 42
3.5
  3

  4

1001
ACAD
1000
Arial
1071
        0
  0
ENDTAB
  0
TABLE
  2
LTYPE
  5
19
100
AcDbSymbolTable
 70
    13
  0
LTYPE
  5
1A
100
AcDbSymbolTableRecord
100
AcDbLinetypeTableRecord
  2
BYBLOCK
 70
    64
  3

 72
    65
 73
     0
 40
0.0
  0
LTYPE
  5
1B
100
AcDbSymbolTableRecord
100
AcDbLinetypeTableRecord
  2
BYLAYER
 70
    64
  3

 72
    65
 73
     0
 40
0.0
  0
LTYPE
  5
1C
100
AcDbSymbolTableRecord
100
AcDbLinetypeTableRecord
  2
CONTINUOUS
 70
    64
  3
Solid line
 72
    65
 73
     0
 40
0.0
  0
LTYPE
  5
1D
100
AcDbSymbolTableRecord
100
AcDbLinetypeTableRecord
  2
DOT
 70
    64
  3
. . . . . . . . . . . . . . . . . . . . . . . .
 72
    65
 73
     2
 40
2.5
 49
0.0
 74
     0
 49
-2.5
 74
     0
  0
LTYPE
  5
1E
100
AcDbSymbolTableRecord
100
AcDbLinetypeTableRecord
  2
HIDDEN
 70
    64
  3
__ __ __ __ __ __ __ __ __ __ __ __ __ __ __ __
 72
    65
 73
     2
 40
1.875
 49
1.25
 74
     0
 49
-0.625
 74
     0
  0
LTYPE
  5
1F
100
AcDbSymbolTableRecord
100
AcDbLinetypeTableRecord
  2
DASHDOT
 70
    64
  3
 __ . __ . __ . __ . __ . __ . __ . __ . __ . __
 72
    65
 73
     4
 40
10.0
 49
5.0
 74
     0
 49
-2.5
 74
     0
 49
0.0
 74
     0
 49
-2.5
 74
     0
  0
LTYPE
  5
20
100
AcDbSymbolTableRecord
100
AcDbLinetypeTableRecord
  2
CADWORK_22
 70
    64
  3
22 =======================================
 72
    65
 73
     0
 40
0.0
  0
LTYPE
  5
21
100
AcDbSymbolTableRecord
100
AcDbLinetypeTableRecord
  2
DAL
 70
    64
  3
Solid line (for MAPS)
 72
    65
 73
     0
 40
0.0
  0
LTYPE
  5
22
100
AcDbSymbolTableRecord
100
AcDbLinetypeTableRecord
  2
MUR
 70
    64
  3
Solid line (for MAPS)
 72
    65
 73
     0
 40
0.0
  0
LTYPE
  5
23
100
AcDbSymbolTableRecord
100
AcDbLinetypeTableRecord
  2
SOM
 70
    64
  3
Solid line (for MAPS)
 72
    65
 73
     0
 40
0.0
  0
LTYPE
  5
24
100
AcDbSymbolTableRecord
100
AcDbLinetypeTableRecord
  2
COL
 70
    64
  3
Solid line (for MAPS)
 72
    65
 73
     0
 40
0.0
  0
LTYPE
  5
25
100
AcDbSymbolTableRecord
100
AcDbLinetypeTableRecord
  2
LGN
 70
    64
  3
Solid line (for MAPS)
 72
    65
 73
     0
 40
0.0
  0
LTYPE
  5
26
100
AcDbSymbolTableRecord
100
AcDbLinetypeTableRecord
  2
PNT
 70
    64
  3
Solid line (for MAPS)
 72
    65
 73
     0
 40
0.0
  0
ENDTAB
  0
TABLE
  2
LAYER
  5
27
100
AcDbSymbolTable
 70
    32
  0
LAYER
  5
28
100
AcDbSymbolTableRecord
100
AcDbLayerTableRecord
  2
Standard
 70
     0
 62
     7
  6
CONTINUOUS
370
    -3
  0
LAYER
  5
29
100
AcDbSymbolTableRecord
100
AcDbLayerTableRecord
  2
Ech.1_1
 70
     0
 62
     7
  6
CONTINUOUS
370
    -3
  0
LAYER
  5
2A
100
AcDbSymbolTableRecord
100
AcDbLayerTableRecord
  2
Ech.1_2
 70
     0
 62
     7
  6
CONTINUOUS
370
    -3
  0
LAYER
  5
2B
100
AcDbSymbolTableRecord
100
AcDbLayerTableRecord
  2
Ech.1_5
 70
     0
 62
     7
  6
CONTINUOUS
370
    -3
  0
LAYER
  5
2C
100
AcDbSymbolTableRecord
100
AcDbLayerTableRecord
  2
Ech.1_10
 70
     0
 62
     7
  6
CONTINUOUS
370
    -3
  0
LAYER
  5
2D
100
AcDbSymbolTableRecord
100
AcDbLayerTableRecord
  2
Ech.1_20
 70
     0
 62
     7
  6
CONTINUOUS
370
    -3
  0
LAYER
  5
2E
100
AcDbSymbolTableRecord
100
AcDbLayerTableRecord
  2
Ech.1_25
 70
     0
 62
     7
  6
CONTINUOUS
370
    -3
  0
LAYER
  5
2F
100
AcDbSymbolTableRecord
100
AcDbLayerTableRecord
  2
Ech.1_33
 70
     0
 62
     7
  6
CONTINUOUS
370
    -3
  0
LAYER
  5
30
100
AcDbSymbolTableRecord
100
AcDbLayerTableRecord
  2
Ech.1_50
 70
     0
 62
     7
  6
CONTINUOUS
370
    -3
  0
LAYER
  5
31
100
AcDbSymbolTableRecord
100
AcDbLayerTableRecord
  2
Ech.1_75
 70
     0
 62
     7
  6
CONTINUOUS
370
    -3
  0
LAYER
  5
32
100
AcDbSymbolTableRecord
100
AcDbLayerTableRecord
  2
Ech.1_100
 70
     0
 62
     7
  6
CONTINUOUS
370
    -3
  0
LAYER
  5
33
100
AcDbSymbolTableRecord
100
AcDbLayerTableRecord
  2
Ech.1_200
 70
     0
 62
     7
  6
CONTINUOUS
370
    -3
  0
LAYER
  5
34
100
AcDbSymbolTableRecord
100
AcDbLayerTableRecord
  2
Ech.1_500
 70
     0
 62
     7
  6
CONTINUOUS
370
    -3
  0
LAYER
  5
35
100
AcDbSymbolTableRecord
100
AcDbLayerTableRecord
  2
Ech.1_1000
 70
     0
 62
     7
  6
CONTINUOUS
370
    -3
  0
LAYER
  5
36
100
AcDbSymbolTableRecord
100
AcDbLayerTableRecord
  2
Cadres traceur
 70
     0
 62
     7
  6
CONTINUOUS
370
    18
  0
LAYER
  5
37
100
AcDbSymbolTableRecord
100
AcDbLayerTableRecord
  2
Cadres laser
 70
     0
 62
     7
  6
CONTINUOUS
370
    18
  0
LAYER
  5
38
100
AcDbSymbolTableRecord
100
AcDbLayerTableRecord
  2
Légende d_aide
 70
     0
 62
     7
  6
CONTINUOUS
370
    18
  0
LAYER
  5
39
100
AcDbSymbolTableRecord
100
AcDbLayerTableRecord
  2
hachures ok
 70
     0
 62
     7
  6
CONTINUOUS
370
    18
  0
LAYER
  5
3A
100
AcDbSymbolTableRecord
100
AcDbLayerTableRecord
  2
ossature bois
 70
     0
 62
     7
  6
CONTINUOUS
370
    18
  0
LAYER
  5
3B
100
AcDbSymbolTableRecord
100
AcDbLayerTableRecord
  2
VR
 70
     0
 62
     7
  6
CONTINUOUS
370
    25
  0
LAYER
  5
3C
100
AcDbSymbolTableRecord
100
AcDbLayerTableRecord
  2
Calque1
 70
     0
 62
     7
  6
CONTINUOUS
370
     9
  0
LAYER
  5
3D
100
AcDbSymbolTableRecord
100
AcDbLayerTableRecord
  2
0
 70
     0
 62
     7
  6
CONTINUOUS
370
    -3
  0
LAYER
  5
3E
100
AcDbSymbolTableRecord
100
AcDbLayerTableRecord
  2
menuiserie
 70
     0
 62
     7
  6
CONTINUOUS
370
    -3
  0
LAYER
  5
3F
100
AcDbSymbolTableRecord
100
AcDbLayerTableRecord
  2
cotation
 70
     0
 62
   250
  6
CONTINUOUS
370
     9
  0
LAYER
  5
40
100
AcDbSymbolTableRecord
100
AcDbLayerTableRecord
  2
Defpoints
 70
     0
 62
    10
  6
CONTINUOUS
370
    -3
  0
LAYER
  5
41
100
AcDbSymbolTableRecord
100
AcDbLayerTableRecord
  2
HACHURE
 70
     0
 62
   254
  6
CONTINUOUS
370
    25
  0
LAYER
  5
42
100
AcDbSymbolTableRecord
100
AcDbLayerTableRecord
  2
mat1
 70
     0
 62
     7
  6
CONTINUOUS
370
    30
  0
LAYER
  5
43
100
AcDbSymbolTableRecord
100
AcDbLayerTableRecord
  2
mat2
 70
     0
 62
     7
  6
CONTINUOUS
370
     5
  0
LAYER
  5
44
100
AcDbSymbolTableRecord
100
AcDbLayerTableRecord
  2
hach
 70
     0
 62
     8
  6
CONTINUOUS
370
     5
  0
LAYER
  5
45
100
AcDbSymbolTableRecord
100
AcDbLayerTableRecord
  2
menuiseries
 70
     0
 62
     7
  6
CONTINUOUS
370
     9
  0
LAYER
  5
46
100
AcDbSymbolTableRecord
100
AcDbLayerTableRecord
  2
BétonMétal
 70
     0
 62
     7
  6
CONTINUOUS
370
    80
  0
LAYER
  5
47
100
AcDbSymbolTableRecord
100
AcDbLayerTableRecord
  2
bois
 70
     0
 62
     7
  6
CONTINUOUS
370
    60
  0
ENDTAB
  0
TABLE
  2
VIEW
  5
48
100
AcDbSymbolTable
 70
     0
  0
ENDTAB
  0
TABLE
  2
UCS
  5
49
100
AcDbSymbolTable
 70
     0
  0
ENDTAB
  0
TABLE
  2
APPID
  5
4A
100
AcDbSymbolTable
 70
     1
  0
APPID
  5
4B
100
AcDbSymbolTableRecord
100
AcDbRegAppTableRecord
  2
ACAD
 70
     0
  0
ENDTAB
  0
TABLE
  2
DIMSTYLE
  5
4C
100
AcDbSymbolTable
 70
     0
  0
ENDTAB
  0
TABLE
  2
BLOCK_RECORD
  5
4D
100
AcDbSymbolTable
 70
     0
  0
BLOCK_RECORD
  5
4E
100
AcDbSymbolTableRecord
100
AcDbBlockTableRecord
  2
*MODEL_SPACE
  0
BLOCK_RECORD
  5
4F
100
AcDbSymbolTableRecord
100
AcDbBlockTableRecord
  2
*PAPER_SPACE
  0
BLOCK_RECORD
  5
50
100
AcDbSymbolTableRecord
100
AcDbBlockTableRecord
  2
CDWK_EXTR_0
  0
BLOCK_RECORD
  5
51
100
AcDbSymbolTableRecord
100
AcDbBlockTableRecord
  2
CDWK_EXTR_1D
  0
BLOCK_RECORD
  5
52
100
AcDbSymbolTableRecord
100
AcDbBlockTableRecord
  2
CDWK_EXTR_1G
  0
BLOCK_RECORD
  5
53
100
AcDbSymbolTableRecord
100
AcDbBlockTableRecord
  2
CDWK_EXTR_2
  0
BLOCK_RECORD
  5
54
100
AcDbSymbolTableRecord
100
AcDbBlockTableRecord
  2
CDWK_EXTR_3
  0
BLOCK_RECORD
  5
55
100
AcDbSymbolTableRecord
100
AcDbBlockTableRecord
  2
CDWK_EXTR_4
  0
BLOCK_RECORD
  5
56
100
AcDbSymbolTableRecord
100
AcDbBlockTableRecord
  2
CDWK_PTTYP0
  0
BLOCK_RECORD
  5
57
100
AcDbSymbolTableRecord
100
AcDbBlockTableRecord
  2
*X1
  0
BLOCK_RECORD
  5
58
100
AcDbSymbolTableRecord
100
AcDbBlockTableRecord
  2
*X2
  0
BLOCK_RECORD
  5
59
100
AcDbSymbolTableRecord
100
AcDbBlockTableRecord
  2
*X3
  0
BLOCK_RECORD
  5
5A
100
AcDbSymbolTableRecord
100
AcDbBlockTableRecord
  2
*X4
  0
BLOCK_RECORD
  5
5B
100
AcDbSymbolTableRecord
100
AcDbBlockTableRecord
  2
*X5
  0
BLOCK_RECORD
  5
5C
100
AcDbSymbolTableRecord
100
AcDbBlockTableRecord
  2
*X6
  0
ENDTAB
  0
ENDSEC
  0
SECTION
  2
BLOCKS
  0
BLOCK
  5
5D
100
AcDbEntity
  8
0
100
AcDbBlockBegin
  2
*MODEL_SPACE
 70
     0
 10
0.0
 20
0.0
 30
0.0
  3
*MODEL_SPACE
  1

  0
ENDBLK
  5
5E
100
AcDbEntity
100
AcDbBlockEnd
  0
BLOCK
  5
5F
100
AcDbEntity
  8
0
100
AcDbBlockBegin
  2
*PAPER_SPACE
 70
     0
 10
0.0
 20
0.0
 30
0.0
  3
*PAPER_SPACE
  1

  0
ENDBLK
  5
60
100
AcDbEntity
100
AcDbBlockEnd
  0
BLOCK
  5
61
100
AcDbEntity
  8
0
100
AcDbBlockBegin
  2
CDWK_EXTR_0
 70
     0
 10
0.0
 20
0.0
 30
0.0
  3
CDWK_EXTR_0
  1

  4
Cadwork line-extremity
  0
LINE
  5
62
100
AcDbEntity
  8
0
 62
     0
370
    -2
100
AcDbLine
 10
0.0
 20
0.0
 30
0.0
 11
2.0
 21
0.5
 31
0.0
  0
LINE
  5
63
100
AcDbEntity
  8
0
 62
     0
370
    -2
100
AcDbLine
 10
0.0
 20
0.0
 30
0.0
 11
2.0
 21
-0.5
 31
0.0
  0
LINE
  5
64
100
AcDbEntity
  8
0
 62
     0
370
    -2
100
AcDbLine
 10
2.0
 20
0.5
 30
0.0
 11
2.0
 21
-0.5
 31
0.0
  0
ENDBLK
  5
65
100
AcDbEntity
100
AcDbBlockEnd
  0
BLOCK
  5
66
100
AcDbEntity
  8
0
100
AcDbBlockBegin
  2
CDWK_EXTR_1D
 70
     0
 10
0.0
 20
0.0
 30
0.0
  3
CDWK_EXTR_1D
  1

  4
Cadwork line-extremity
  0
LINE
  5
67
100
AcDbEntity
  8
0
 62
     0
370
    -2
100
AcDbLine
 10
0.0
 20
0.0
 30
0.0
 11
0.0
 21
1.0
 31
0.0
  0
LINE
  5
68
100
AcDbEntity
  8
0
 62
     0
370
    -2
100
AcDbLine
 10
0.0
 20
1.0
 30
0.0
 11
0.5
 21
1.5
 31
0.0
  0
LINE
  5
69
100
AcDbEntity
  8
0
 62
     0
370
    -2
100
AcDbLine
 10
0.5
 20
1.5
 30
0.0
 11
1.5
 21
1.5
 31
0.0
  0
ENDBLK
  5
6A
100
AcDbEntity
100
AcDbBlockEnd
  0
BLOCK
  5
6B
100
AcDbEntity
  8
0
100
AcDbBlockBegin
  2
CDWK_EXTR_1G
 70
     0
 10
0.0
 20
0.0
 30
0.0
  3
CDWK_EXTR_1G
  1

  4
Cadwork line-extremity
  0
LINE
  5
6C
100
AcDbEntity
  8
0
 62
     0
370
    -2
100
AcDbLine
 10
0.0
 20
0.0
 30
0.0
 11
0.0
 21
-1.0
 31
0.0
  0
LINE
  5
6D
100
AcDbEntity
  8
0
 62
     0
370
    -2
100
AcDbLine
 10
0.0
 20
-1.0
 30
0.0
 11
0.5
 21
-1.5
 31
0.0
  0
LINE
  5
6E
100
AcDbEntity
  8
0
 62
     0
370
    -2
100
AcDbLine
 10
0.5
 20
-1.5
 30
0.0
 11
1.5
 21
-1.5
 31
0.0
  0
ENDBLK
  5
6F
100
AcDbEntity
100
AcDbBlockEnd
  0
BLOCK
  5
70
100
AcDbEntity
  8
0
100
AcDbBlockBegin
  2
CDWK_EXTR_2
 70
     0
 10
0.0
 20
0.0
 30
0.0
  3
CDWK_EXTR_2
  1

  4
Cadwork line-extremity
  0
SOLID
  5
71
100
AcDbEntity
  8
0
 62
     0
100
AcDbTrace
 10
0.0
 20
0.0
 11
2.0
 21
0.5
 12
2.0
 22
-0.5
 13
2.0
 23
-0.5
  0
ENDBLK
  5
72
100
AcDbEntity
100
AcDbBlockEnd
  0
BLOCK
  5
73
100
AcDbEntity
  8
0
100
AcDbBlockBegin
  2
CDWK_EXTR_3
 70
     0
 10
0.0
 20
0.0
 30
0.0
  3
CDWK_EXTR_3
  1

  4
Cadwork line-extremity
  0
SOLID
  5
74
100
AcDbEntity
  8
0
 62
     0
100
AcDbTrace
 10
0.0
 20
0.0
 11
2.0
 21
0.5
 12
2.0
 22
-0.5
 13
2.0
 23
-0.5
  0
LINE
  5
75
100
AcDbEntity
  8
0
 62
     0
370
    -2
100
AcDbLine
 10
0.0
 20
1.0
 30
0.0
 11
0.0
 21
-1.0
 31
0.0
  0
ENDBLK
  5
76
100
AcDbEntity
100
AcDbBlockEnd
  0
BLOCK
  5
77
100
AcDbEntity
  8
0
100
AcDbBlockBegin
  2
CDWK_EXTR_4
 70
     0
 10
0.0
 20
0.0
 30
0.0
  3
CDWK_EXTR_4
  1

  4
Cadwork line-extremity
  0
HATCH
  5
78
100
AcDbEntity
  8
0
 62
     0
370
    20
100
AcDbHatch
 10
0.0
 20
0.0
 30
0.0
210
0.0
220
0.0
230
1.0
  2
SOLID
 70
     1
 71
     0
 91
        1
 92
        1
 93
        1
 72
     2
 10
0.0
 20
0.0
 40
0.5
 50
0.0
 51
360.0
 73
     1
 97
        0
 75
     0
 76
     1
 98
        1
 10
0.0
 20
0.0
  0
ENDBLK
  5
79
100
AcDbEntity
100
AcDbBlockEnd
  0
BLOCK
  5
7A
100
AcDbEntity
  8
0
100
AcDbBlockBegin
  2
CDWK_PTTYP0
 70
     0
 10
0.0
 20
0.0
 30
0.0
  3
CDWK_PTTYP0
  1

  4
Cadwork point
  0
POINT
  5
7B
100
AcDbEntity
  8
0
 62
     0
100
AcDbPoint
 10
0.0
 20
0.0
 30
0.0
  0
ENDBLK
  5
7C
100
AcDbEntity
100
AcDbBlockEnd
  0
BLOCK
  5
7D
100
AcDbEntity
  8
Ech.1_5
100
AcDbBlockBegin
  2
*X1
 70
     1
 10
0.0
 20
0.0
 30
0.0
  3
*X1
  1

  4
Cadwork hatch
  0
LINE
  5
7E
100
AcDbEntity
  8
Ech.1_5
 62
     7
  6
CONTINUOUS
370
    -2
100
AcDbLine
 10
13857.18150078
 20
-852.41877393
 30
0.0
 11
13677.18270946
 21
-807.41880611
 31
0.0
  0
LINE
  5
7F
100
AcDbEntity
  8
Ech.1_5
 62
     7
  6
CONTINUOUS
370
    -2
100
AcDbLine
 10
13857.18150078
 20
-807.41880611
 30
0.0
 11
13677.18270946
 21
-852.41877393
 31
0.0
  0
ENDBLK
  5
80
100
AcDbEntity
100
AcDbBlockEnd
  0
BLOCK
  5
81
100
AcDbEntity
  8
Ech.1_5
100
AcDbBlockBegin
  2
*X2
 70
     1
 10
0.0
 20
0.0
 30
0.0
  3
*X2
  1

  4
Cadwork hatch
  0
LINE
  5
82
100
AcDbEntity
  8
Ech.1_5
 62
     7
  6
CONTINUOUS
370
    -2
100
AcDbLine
 10
13857.18150078
 20
-897.41887674
 30
0.0
 11
13677.18270946
 21
-852.41877393
 31
0.0
  0
LINE
  5
83
100
AcDbEntity
  8
Ech.1_5
 62
     7
  6
CONTINUOUS
370
    -2
100
AcDbLine
 10
13857.18150078
 20
-852.41877393
 30
0.0
 11
13677.18270946
 21
-897.41887674
 31
0.0
  0
ENDBLK
  5
84
100
AcDbEntity
100
AcDbBlockEnd
  0
BLOCK
  5
85
100
AcDbEntity
  8
Ech.1_5
100
AcDbBlockBegin
  2
*X3
 70
     1
 10
0.0
 20
0.0
 30
0.0
  3
*X3
  1

  4
Cadwork hatch
  0
LINE
  5
86
100
AcDbEntity
  8
Ech.1_5
 62
     7
  6
CONTINUOUS
370
    -2
100
AcDbLine
 10
13857.18150078
 20
-1027.41992373
 30
0.0
 11
13902.18227857
 21
-807.41880611
 31
0.0
  0
LINE
  5
87
100
AcDbEntity
  8
Ech.1_5
 62
     7
  6
CONTINUOUS
370
    -2
100
AcDbLine
 10
13902.18227857
 20
-1027.41992373
 30
0.0
 11
13857.18150078
 21
-807.41880611
 31
0.0
  0
ENDBLK
  5
88
100
AcDbEntity
100
AcDbBlockEnd
  0
BLOCK
  5
89
100
AcDbEntity
  8
Ech.1_5
100
AcDbBlockBegin
  2
*X4
 70
     1
 10
0.0
 20
0.0
 30
0.0
  3
*X4
  1

  4
Cadwork hatch
  0
LINE
  5
8A
100
AcDbEntity
  8
Ech.1_5
 62
     7
  6
CONTINUOUS
370
    -2
100
AcDbLine
 10
13601.18173186
 20
-956.67658757
 30
0.0
 11
13501.18192337
 21
-736.67654991
 31
0.0
  0
LINE
  5
8B
100
AcDbEntity
  8
Ech.1_5
 62
     7
  6
CONTINUOUS
370
    -2
100
AcDbLine
 10
13501.18192337
 20
-956.67658757
 30
0.0
 11
13601.18173186
 21
-736.67654991
 31
0.0
  0
ENDBLK
  5
8C
100
AcDbEntity
100
AcDbBlockEnd
  0
BLOCK
  5
8D
100
AcDbEntity
  8
Ech.1_5
100
AcDbBlockBegin
  2
*X5
 70
     1
 10
0.0
 20
0.0
 30
0.0
  3
*X5
  1

  4
Cadwork hatch
  0
LINE
  5
8E
100
AcDbEntity
  8
Ech.1_5
 62
     7
  6
CONTINUOUS
370
    -2
100
AcDbLine
 10
13668.18233792
 20
-897.05236593
 30
0.0
 11
13643.18238579
 21
-841.44815366
 31
0.0
  0
LINE
  5
8F
100
AcDbEntity
  8
Ech.1_5
 62
     7
  6
CONTINUOUS
370
    -2
100
AcDbLine
 10
13668.18233792
 20
-841.44815366
 30
0.0
 11
13643.18238579
 21
-897.05236593
 31
0.0
  0
ENDBLK
  5
90
100
AcDbEntity
100
AcDbBlockEnd
  0
BLOCK
  5
91
100
AcDbEntity
  8
Ech.1_5
100
AcDbBlockBegin
  2
*X6
 70
     1
 10
0.0
 20
0.0
 30
0.0
  3
*X6
  1

  4
Cadwork hatch
  0
LINE
  5
92
100
AcDbEntity
  8
Ech.1_5
 62
     7
  6
CONTINUOUS
370
    -2
100
AcDbLine
 10
13668.18233792
 20
-1015.71412192
 30
0.0
 11
13643.18238579
 21
-960.11004464
 31
0.0
  0
LINE
  5
93
100
AcDbEntity
  8
Ech.1_5
 62
     7
  6
CONTINUOUS
370
    -2
100
AcDbLine
 10
13668.18233792
 20
-960.11004464
 30
0.0
 11
13643.18238579
 21
-1015.71412192
 31
0.0
  0
ENDBLK
  5
94
100
AcDbEntity
100
AcDbBlockEnd
  0
ENDSEC
  0
SECTION
  2
ENTITIES
  0
INSERT
  5
95
100
AcDbEntity
  8
Ech.1_5
 62
     0
370
    -3
100
AcDbBlockReference
  2
*X1
 10
0.0
 20
0.0
 30
0.0
  0
INSERT
  5
96
100
AcDbEntity
  8
Ech.1_5
 62
     0
370
    -3
100
AcDbBlockReference
  2
*X2
 10
0.0
 20
0.0
 30
0.0
  0
INSERT
  5
97
100
AcDbEntity
  8
Ech.1_5
 62
     0
370
    -3
100
AcDbBlockReference
  2
*X3
 10
0.0
 20
0.0
 30
0.0
  0
INSERT
  5
98
100
AcDbEntity
  8
Ech.1_5
 62
     0
370
    -3
100
AcDbBlockReference
  2
*X4
 10
0.0
 20
0.0
 30
0.0
  0
INSERT
  5
99
100
AcDbEntity
  8
Ech.1_5
 62
     0
370
    -3
100
AcDbBlockReference
  2
*X5
 10
0.0
 20
0.0
 30
0.0
  0
INSERT
  5
9A
100
AcDbEntity
  8
Ech.1_5
 62
     0
370
    -3
100
AcDbBlockReference
  2
*X6
 10
0.0
 20
0.0
 30
0.0
  0
HATCH
  5
9B
100
AcDbEntity
  8
Ech.1_5
 62
     7
100
AcDbHatch
 10
0.0
 20
0.0
 30
0.0
210
0.0
220
0.0
230
1.0
  2
ANSI37
 70
     0
 71
     0
 91
        1
 92
        7
 72
     0
 73
     1
 93
        4
 10
13899.12514584
 20
-719.19503735
 10
13914.00216097
 20
-719.19503735
 10
13914.00216097
 20
-711.67659229
 10
13899.12514584
 20
-711.67659229
 97
        0
 75
     0
 76
     2
 52
0.0
 41
1.87498831
 77
     0
 78
     2
 53
45.0
 43
0.0
 44
0.0
 45
4.20946876
 46
-4.20946876
 79
     0
 53
-45.0
 43
0.0
 44
0.0
 45
4.20946876
 46
4.20946876
 79
     0
 47
0.775229
 98
        1
 10
0.0
 20
0.0
  0
LWPOLYLINE
  5
9C
100
AcDbEntity
  8
Ech.1_5
 62
     7
  6
CONTINUOUS
370
    -3
100
AcDbPolyline
 90
       32
 70
     0
 43
0.0
 10
14136.50039795
 20
-986.34354927
 42
1.14028181
 10
14103.73502336
 20
-990.65720272
 10
14119.26585379
 20
-1048.69645414
 42
-1.30322619
 10
14087.06838377
 20
-1048.69645414
 10
14102.59921421
 20
-990.65720272
 42
1.30322619
 10
14070.40174419
 20
-990.65720272
 10
14085.93257462
 20
-1048.69645414
 42
-1.30322619
 10
14053.73510461
 20
-1048.69645414
 10
14069.26593504
 20
-990.65720272
 42
1.30322619
 10
14037.06846502
 20
-990.65720272
 10
14052.59929546
 20
-1048.69645414
 42
-1.30322619
 10
14020.40182544
 20
-1048.69645414
 10
14035.93265588
 20
-990.65720272
 42
1.30322619
 10
14003.73518586
 20
-990.65720272
 10
14019.26601629
 20
-1048.69645414
 42
-1.30322619
 10
13987.06854628
 20
-1048.69645414
 10
14002.59937671
 20
-990.65720272
 42
1.30322619
 10
13970.40190669
 20
-990.65720272
 10
13985.93273713
 20
-1048.69645414
 42
-1.30322619
 10
13953.73526711
 20
-1048.69645414
 10
13969.26609754
 20
-990.65720272
 42
1.30322619
 10
13937.06862753
 20
-990.65720272
 10
13952.59945796
 20
-1048.69645414
 42
-1.30322619
 10
13920.40198794
 20
-1048.69645414
 10
13935.93281838
 20
-990.65720272
 42
1.30322619
 10
13903.73534836
 20
-990.65720272
 10
13919.26617879
 20
-1048.69645414
 42
-1.30322619
 10
13887.06870878
 20
-1048.69645414
 10
13902.59953921
 20
-990.65720272
 42
1.30322619
 10
13870.40206919
 20
-990.65720272
 10
13885.93289963
 20
-1048.69645414
 42
-0.79819501
 10
13857.18217442
 20
-1063.85925591
  0
LINE
  5
9D
100
AcDbEntity
  8
Ech.1_5
 62
     7
  6
CONTINUOUS
370
    -3
100
AcDbLine
 10
13840.25367024
 20
-749.88032504
 30
0.0
 11
13840.25367024
 21
-797.92690458
 31
0.0
  0
LWPOLYLINE
  5
9E
100
AcDbEntity
  8
Ech.1_5
 62
     7
  6
CONTINUOUS
370
    -3
100
AcDbPolyline
 90
        8
 70
     0
 43
0.0
 10
13840.25367024
 20
-797.98608794
 10
13911.7618904
 20
-797.98612151
 10
13911.7618904
 20
-721.65124983
 10
13840.25367024
 20
-721.65124983
 10
13840.25367024
 20
-749.88032504
 10
13615.33600417
 20
-772.27523271
 10
13615.33692662
 20
-797.27523271
 10
13840.25367024
 20
-797.98608794
  0
LWPOLYLINE
  5
9F
100
AcDbEntity
  8
Ech.1_5
 62
     7
  6
CONTINUOUS
370
    -3
100
AcDbPolyline
 90
        4
 70
     1
 43
0.0
 10
13601.18217442
 20
-956.67659229
 10
13501.18217442
 20
-956.67659229
 10
13501.18217442
 20
-736.67659229
 10
13601.18217442
 20
-736.67659229
  0
LWPOLYLINE
  5
A0
100
AcDbEntity
  8
Ech.1_5
 62
     7
  6
CONTINUOUS
370
    -3
100
AcDbPolyline
 90
        5
 70
     0
 43
0.0
 10
13601.18217442
 20
-736.67659229
 10
13501.18217442
 20
-736.67659229
 10
13501.18217442
 20
-956.67659229
 10
13601.18217442
 20
-956.67659229
 10
13601.18217442
 20
-736.67659229
  0
MTEXT
  5
A1
100
AcDbEntity
  8
Ech.1_5
 62
     4
100
AcDbMText
 10
13236.66447421
 20
-336.60118768
 30
0.0
 11
1.0
 21
0.0
 31
0.0
 40
13.50000024
 41
249.4354307
 71
     1
 72
     1
  1
\fArial|b1|i0|c0|p18;\H13.75;\W1;\C7;COMPLEMENT LEGENDE
  0
MTEXT
  5
A2
100
AcDbEntity
  8
Ech.1_5
 62
     4
100
AcDbMText
 10
13236.66447421
 20
-364.10118768
 30
0.0
 11
1.0
 21
0.0
 31
0.0
 40
13.50000024
 41
195.59876666
 71
     1
 72
     1
  1
\fArial|b0|i0|c0|p18;\H13.75;\W1;\C7;Bande adhésive
  0
LWPOLYLINE
  5
A3
100
AcDbEntity
  8
Ech.1_5
 62
     7
370
    70
100
AcDbPolyline
 90
        4
 70
     0
 43
0.0
 10
13225.37430939
 20
-372.5227916
 10
13212.38517597
 20
-372.5227916
 10
13208.45044383
 20
-366.84217864
 10
13194.97201383
 20
-366.84217864
  0
LWPOLYLINE
  5
A4
100
AcDbEntity
  8
Ech.1_5
 62
     7
  6
CONTINUOUS
370
    -3
100
AcDbPolyline
 90
        6
 70
     0
 43
0.0
 10
14136.49974442
 20
-665.67690968
 10
14136.50122023
 20
-876.78440912
 10
14154.47856864
 20
-893.26991227
 10
14118.52286863
 20
-879.15997225
 10
14136.50122023
 20
-895.64632634
 10
14136.50039795
 20
-1102.67682302
  0
LWPOLYLINE
  5
A5
102
{ACAD_REACTORS
330
A6
102
}
100
AcDbEntity
  8
Ech.1_5
 62
     7
  6
CONTINUOUS
370
    -3
100
AcDbPolyline
 90
        4
 70
     1
 43
0.0
 10
13897.18217442
 20
-1251.49724936
 10
13910.18217442
 20
-1251.49724936
 10
13910.18217442
 20
-1083.67690773
 10
13897.18217442
 20
-1083.67690773
  0
HATCH
  5
A6
100
AcDbEntity
  8
Ech.1_5
 62
     7
  6
CONTINUOUS
100
AcDbHatch
 10
0.0
 20
0.0
 30
0.0
210
0.0
220
0.0
230
1.0
  2
DOTS2
 70
     0
 71
     1
 91
        1
 92
        7
 72
     0
 73
     1
 93
        4
 10
13897.18217442
 20
-1251.49724936
 10
13910.18217442
 20
-1251.49724936
 10
13910.18217442
 20
-1083.67690773
 10
13897.18217442
 20
-1083.67690773
 97
        1
330
A5
 75
     0
 76
     2
 52
0.0
 41
4.72440952
 77
     0
 78
     1
 53
0.0
 43
0.0
 44
0.0
 45
3.75
 46
3.535
 79
     2
 49
0.0
 49
-3.535
 47
0.775229
 98
        1
 10
0.0
 20
0.0
  0
LWPOLYLINE
  5
A7
100
AcDbEntity
  8
Ech.1_5
 62
     7
  6
CONTINUOUS
370
    -3
100
AcDbPolyline
 90
        4
 70
     1
 43
0.0
 10
13857.18217442
 20
-852.41878157
 10
13857.18217442
 20
-807.41878157
 10
13677.18217442
 20
-807.41878157
 10
13677.18217442
 20
-852.41878157
  0
LWPOLYLINE
  5
A8
102
{ACAD_REACTORS
330
A9
102
}
100
AcDbEntity
  8
Ech.1_5
 62
     7
  6
CONTINUOUS
370
    -3
100
AcDbPolyline
 90
        4
 70
     1
 43
0.0
 10
13914.00746639
 20
-744.67690968
 10
13914.00746639
 20
-725.67690968
 10
14136.50070856
 20
-725.67690968
 10
14136.50070856
 20
-744.67690968
  0
HATCH
  5
A9
100
AcDbEntity
  8
Ech.1_5
 62
     7
  6
CONTINUOUS
100
AcDbHatch
 10
0.0
 20
0.0
 30
0.0
210
0.0
220
0.0
230
1.0
  2
ANSI38
 70
     0
 71
     1
 91
        1
 92
        7
 72
     0
 73
     1
 93
        4
 10
13914.00746639
 20
-744.67690968
 10
13914.00746639
 20
-725.67690968
 10
14136.50070856
 20
-725.67690968
 10
14136.50070856
 20
-744.67690968
 97
        1
330
A8
 75
     0
 76
     2
 52
0.0
 41
1.0
 77
     0
 78
     2
 53
45.0
 43
0.0
 44
0.0
 45
-8.48528171
 46
8.48528171
 79
     2
 49
960.00003815
 49
0.0
 53
135.0
 43
0.0
 44
0.0
 45
-25.45584513
 46
8.48528171
 79
     2
 49
30.00000119
 49
-18.00000072
 47
0.775229
 98
        1
 10
0.0
 20
0.0
  0
LWPOLYLINE
  5
AA
102
{ACAD_REACTORS
330
AB
102
}
100
AcDbEntity
  8
Ech.1_5
 62
     7
  6
CONTINUOUS
370
    -3
100
AcDbPolyline
 90
        4
 70
     1
 43
0.0
 10
14136.50039795
 20
-1082.67682302
 10
14136.50039795
 20
-1069.67682302
 10
13857.18217442
 20
-1069.67690968
 10
13857.18217442
 20
-1082.67690968
  0
HATCH
  5
AB
100
AcDbEntity
  8
Ech.1_5
 62
     7
  6
CONTINUOUS
100
AcDbHatch
 10
0.0
 20
0.0
 30
0.0
210
0.0
220
0.0
230
1.0
  2
DOTS2
 70
     0
 71
     1
 91
        1
 92
        7
 72
     0
 73
     1
 93
        4
 10
14136.50039795
 20
-1082.67682302
 10
14136.50039795
 20
-1069.67682302
 10
13857.18217442
 20
-1069.67690968
 10
13857.18217442
 20
-1082.67690968
 97
        1
330
AA
 75
     0
 76
     2
 52
0.0
 41
4.72440952
 77
     0
 78
     1
 53
0.0
 43
0.0
 44
0.0
 45
3.75
 46
3.535
 79
     2
 49
0.0
 49
-3.535
 47
0.775229
 98
        1
 10
0.0
 20
0.0
  0
LWPOLYLINE
  5
AC
100
AcDbEntity
  8
Ech.1_5
 62
     7
  6
CONTINUOUS
370
    -3
100
AcDbPolyline
 90
        4
 70
     0
 43
0.0
 10
14136.50039795
 20
-1069.67690968
 10
13955.39045665
 20
-1069.67690968
 10
13955.39045665
 20
-969.67690968
 10
14136.50039795
 20
-969.67690968
  0
LWPOLYLINE
  5
AD
100
AcDbEntity
  8
Ech.1_5
 62
     7
  6
CONTINUOUS
370
    -3
100
AcDbPolyline
 90
        4
 70
     1
 43
0.0
 10
13857.18217442
 20
-897.41878157
 10
13857.18217442
 20
-852.41878157
 10
13677.18217442
 20
-852.41878157
 10
13677.18217442
 20
-897.41878157
  0
LINE
  5
AE
100
AcDbEntity
  8
Ech.1_5
 62
     7
  6
CONTINUOUS
370
    -3
100
AcDbLine
 10
13857.18217442
 20
-1054.67690968
 30
0.0
 11
13857.18217442
 21
-1251.49724936
 31
0.0
  0
LWPOLYLINE
  5
AF
100
AcDbEntity
  8
Ech.1_5
 62
     7
370
    18
100
AcDbPolyline
 90
        4
 70
     0
 43
0.0
 10
13857.18217442
 20
-1103.67690773
 10
13897.18217442
 20
-1148.67690773
 10
13897.18217442
 20
-1103.67690773
 10
13857.18217442
 20
-1148.67690773
  0
LWPOLYLINE
  5
B0
102
{ACAD_REACTORS
330
B1
102
}
100
AcDbEntity
  8
Ech.1_5
 62
     7
  6
CONTINUOUS
370
    -3
100
AcDbPolyline
 90
        4
 70
     1
 43
0.0
 10
13668.18217442
 20
-1251.49809317
 10
13677.18217442
 20
-1251.49809317
 10
13677.18217442
 20
-822.41878157
 10
13668.18217442
 20
-822.41878157
  0
HATCH
  5
B1
100
AcDbEntity
  8
Ech.1_5
 62
     7
  6
CONTINUOUS
100
AcDbHatch
 10
0.0
 20
0.0
 30
0.0
210
0.0
220
0.0
230
1.0
  2
CDWK10A
 70
     0
 71
     1
 91
        1
 92
        7
 72
     0
 73
     1
 93
        4
 10
13668.18217442
 20
-1251.49809317
 10
13677.18217442
 20
-1251.49809317
 10
13677.18217442
 20
-822.41878157
 10
13668.18217442
 20
-822.41878157
 97
        1
330
B0
 75
     0
 76
     2
 52
0.0
 41
1.0
 77
     0
 78
     3
 53
45.0
 43
0.0
 44
0.0
 45
0.0
 46
42.00000167
 79
     0
 53
45.0
 43
0.0
 44
10.80000043
 45
0.0
 46
42.00000167
 79
     0
 53
45.0
 43
0.0
 44
21.60000086
 45
0.0
 46
42.00000167
 79
     0
 47
0.775229
 98
        1
 10
0.0
 20
0.0
  0
LWPOLYLINE
  5
B2
100
AcDbEntity
  8
Ech.1_5
 62
     7
370
    50
100
AcDbPolyline
 90
        3
 70
     0
 43
0.0
 10
13857.36881472
 20
-1046.36080139
 10
13857.36881472
 20
-1069.4393183
 10
13887.86934444
 20
-1069.4393183
  0
LWPOLYLINE
  5
B3
100
AcDbEntity
  8
Ech.1_5
 62
     7
  6
CONTINUOUS
370
    -3
100
AcDbPolyline
 90
        5
 70
     0
 43
0.0
 10
13677.18217442
 20
-852.41878157
 10
13677.18217442
 20
-807.41878157
 10
13857.18217442
 20
-807.41878157
 10
13857.18217442
 20
-852.41878157
 10
13677.18217442
 20
-852.41878157
  0
LWPOLYLINE
  5
B4
100
AcDbEntity
  8
Ech.1_5
 62
     7
  6
CONTINUOUS
370
    -3
100
AcDbPolyline
 90
        5
 70
     0
 43
0.0
 10
13677.18217442
 20
-897.41878157
 10
13677.18217442
 20
-852.41878157
 10
13857.18217442
 20
-852.41878157
 10
13857.18217442
 20
-897.41878157
 10
13677.18217442
 20
-897.41878157
  0
LWPOLYLINE
  5
B5
100
AcDbEntity
  8
Ech.1_5
 62
     7
100
AcDbPolyline
 90
        5
 70
     0
 43
0.0
 10
13857.18217442
 20
-1148.67690773
 10
13897.18217442
 20
-1148.67690773
 10
13897.18217442
 20
-1103.67690773
 10
13857.18217442
 20
-1103.67690773
 10
13857.18217442
 20
-1148.67690773
  0
LWPOLYLINE
  5
B6
100
AcDbEntity
  8
Ech.1_5
 62
     7
  6
CONTINUOUS
370
    -3
100
AcDbPolyline
 90
        4
 70
     1
 43
0.0
 10
13857.18217442
 20
-1027.41995009
 10
13902.18217442
 20
-1027.41995009
 10
13902.18217442
 20
-807.41878157
 10
13857.18217442
 20
-807.41878157
  0
LWPOLYLINE
  5
B7
100
AcDbEntity
  8
Ech.1_5
 62
     7
  6
CONTINUOUS
370
    -3
100
AcDbPolyline
 90
        5
 70
     0
 43
0.0
 10
13857.18217442
 20
-807.41878157
 10
13902.18217442
 20
-807.41878157
 10
13902.18217442
 20
-1027.41995009
 10
13857.18217442
 20
-1027.41995009
 10
13857.18217442
 20
-807.41878157
  0
LWPOLYLINE
  5
B8
102
{ACAD_REACTORS
330
B9
102
}
100
AcDbEntity
  8
Ech.1_5
 62
     7
  6
CONTINUOUS
370
    -3
100
AcDbPolyline
 90
        4
 70
     1
 43
0.0
 10
14136.50020117
 20
-725.67690968
 10
14136.50018946
 20
-711.67690968
 10
13920.18217442
 20
-711.67690968
 10
13920.18217442
 20
-725.67690968
  0
HATCH
  5
B9
100
AcDbEntity
  8
Ech.1_5
 62
     7
  6
CONTINUOUS
100
AcDbHatch
 10
0.0
 20
0.0
 30
0.0
210
0.0
220
0.0
230
1.0
  2
ANSI31
 70
     0
 71
     1
 91
        1
 92
        7
 72
     0
 73
     1
 93
        4
 10
14136.50020117
 20
-725.67690968
 10
14136.50018946
 20
-711.67690968
 10
13920.18217442
 20
-711.67690968
 10
13920.18217442
 20
-725.67690968
 97
        1
330
B8
 75
     0
 76
     2
 52
90.0
 41
3.14962605
 77
     0
 78
     1
 53
-45.0
 43
0.0
 44
0.0
 45
7.07106781
 46
7.07106781
 79
     0
 47
0.775229
 98
        1
 10
0.0
 20
0.0
  0
LWPOLYLINE
  5
BA
100
AcDbEntity
  8
Ech.1_5
 62
     7
  6
CONTINUOUS
370
    -3
100
AcDbPolyline
 90
        5
 70
     0
 43
0.0
 10
14162.16676922
 20
-1565.06505449
 10
14162.16676922
 20
-210.06505449
 10
13177.16676922
 20
-210.06505449
 10
13177.16676922
 20
-1565.06505449
 10
14162.16676922
 20
-1565.06505449
  0
LWPOLYLINE
  5
BB
100
AcDbEntity
  8
Ech.1_5
 62
     7
100
AcDbPolyline
 90
        5
 70
     0
 43
0.0
 10
13265.70063822
 20
-227.94470412
 10
13400.12941721
 20
-227.94470412
 10
13400.12941721
 20
-284.66766293
 10
13265.70063822
 20
-284.66766293
 10
13265.70063822
 20
-227.94470412
  0
LWPOLYLINE
  5
BC
100
AcDbEntity
  8
Ech.1_5
 62
     7
100
AcDbPolyline
 90
        5
 70
     0
 43
0.0
 10
13283.980684
 20
-261.60151525
 10
13333.980684
 20
-261.60151525
 10
13333.980684
 20
-254.18637772
 10
13283.980684
 20
-254.18637772
 10
13283.980684
 20
-261.60151525
  0
LWPOLYLINE
  5
BD
100
AcDbEntity
  8
Ech.1_5
 62
     7
100
AcDbPolyline
 90
        5
 70
     0
 43
0.0
 10
13333.980684
 20
-261.60151525
 10
13383.980684
 20
-261.60151525
 10
13383.980684
 20
-254.18637772
 10
13333.980684
 20
-254.18637772
 10
13333.980684
 20
-261.60151525
  0
CIRCLE
  5
BE
100
AcDbEntity
  8
Ech.1_5
 62
     7
  6
CONTINUOUS
370
    -3
100
AcDbCircle
 10
13958.00162378
 20
-1023.73776819
 30
0.0
 40
2.51802373
  0
LINE
  5
BF
100
AcDbEntity
  8
Ech.1_5
 62
     7
  6
CONTINUOUS
370
    -3
100
AcDbLine
 10
13971.50172564
 20
-916.9906877
 30
0.0
 11
13971.50160172
 21
-1042.67695435
 31
0.0
  0
CIRCLE
  5
C0
100
AcDbEntity
  8
Ech.1_5
 62
     7
  6
CONTINUOUS
370
    -3
100
AcDbCircle
 10
13958.00167617
 20
-978.73776819
 30
0.0
 40
2.51802373
  0
ARC
  5
C1
100
AcDbEntity
  8
Ech.1_5
 62
     7
  6
CONTINUOUS
370
    -3
100
AcDbCircle
 10
13939.50160172
 20
-1042.67691709
 30
0.0
 40
5.0
100
AcDbArc
 50
269.9999433
 51
359.99994331
  0
LINE
  5
C2
100
AcDbEntity
  8
Ech.1_5
 62
     7
  6
CONTINUOUS
370
    -3
100
AcDbLine
 10
13939.27148302
 20
-1056.75721319
 30
0.0
 11
13939.27148535
 21
-1054.75721319
 31
0.0
  0
LINE
  5
C3
100
AcDbEntity
  8
Ech.1_5
 62
     7
  6
CONTINUOUS
370
    -3
100
AcDbLine
 10
13935.5015959
 20
-1047.67691243
 30
0.0
 11
13939.5015959
 21
-1047.67691709
 31
0.0
  0
ARC
  5
C4
100
AcDbEntity
  8
Ech.1_5
 62
     7
  6
CONTINUOUS
370
    -3
100
AcDbCircle
 10
13949.26788161
 20
-1042.17243405
 30
0.0
 40
14.82598747
100
AcDbArc
 50
201.79411438
 51
238.13510166
  0
ARC
  5
C5
100
AcDbEntity
  8
Ech.1_5
 62
     7
  6
CONTINUOUS
370
    -3
100
AcDbCircle
 10
13947.81236742
 20
-1055.64722405
 30
0.0
 40
12.47697948
100
AcDbArc
 50
189.36218726
 51
254.61212434
  0
LINE
  5
C6
100
AcDbEntity
  8
Ech.1_5
 62
     7
  6
CONTINUOUS
370
    -3
100
AcDbLine
 10
13939.27148302
 20
-1056.75721319
 30
0.0
 11
13935.14106908
 21
-1056.75720838
 31
0.0
  0
LINE
  5
C7
100
AcDbEntity
  8
Ech.1_5
 62
     7
  6
CONTINUOUS
370
    -3
100
AcDbLine
 10
13935.14106908
 20
-1056.75720838
 30
0.0
 11
13935.14105637
 21
-1067.67691201
 31
0.0
  0
LINE
  5
C8
100
AcDbEntity
  8
Ech.1_5
 62
     7
  6
CONTINUOUS
370
    -3
100
AcDbLine
 10
13939.27148535
 20
-1054.75721319
 30
0.0
 11
13933.14107141
 21
-1054.75720605
 31
0.0
  0
LINE
  5
C9
100
AcDbEntity
  8
Ech.1_5
 62
     7
  6
CONTINUOUS
370
    -3
100
AcDbLine
 10
13933.14107141
 20
-1054.75720605
 30
0.0
 11
13933.14105404
 21
-1069.67690968
 31
0.0
  0
CIRCLE
  5
CA
100
AcDbEntity
  8
Ech.1_5
 62
     7
  6
CONTINUOUS
370
    -3
100
AcDbCircle
 10
13958.00164124
 20
-1008.73776819
 30
0.0
 40
2.51802373
  0
CIRCLE
  5
CB
100
AcDbEntity
  8
Ech.1_5
 62
     7
  6
CONTINUOUS
370
    -3
100
AcDbCircle
 10
13958.00160631
 20
-1038.73776819
 30
0.0
 40
2.51802373
  0
CIRCLE
  5
CC
100
AcDbEntity
  8
Ech.1_5
 62
     7
  6
CONTINUOUS
370
    -3
100
AcDbCircle
 10
13958.00165871
 20
-993.73776819
 30
0.0
 40
2.51802373
  0
ARC
  5
CD
100
AcDbEntity
  8
Ech.1_5
 62
     7
  6
CONTINUOUS
370
    -3
100
AcDbCircle
 10
13966.73532301
 20
-1042.17245439
 30
0.0
 40
14.82598747
100
AcDbArc
 50
301.86478495
 51
338.20577222
  0
ARC
  5
CE
100
AcDbEntity
  8
Ech.1_5
 62
     7
  6
CONTINUOUS
370
    -3
100
AcDbCircle
 10
13978.35997986
 20
-1054.53204989
 30
0.0
 40
3.80485997
100
AcDbArc
 50
183.49670991
 51
304.25384411
  0
ARC
  5
CF
100
AcDbEntity
  8
Ech.1_5
 62
     7
  6
CONTINUOUS
370
    -3
100
AcDbCircle
 10
13968.19080582
 20
-1055.64724778
 30
0.0
 40
12.47697948
100
AcDbArc
 50
285.38776227
 51
350.63769935
  0
LINE
  5
D0
100
AcDbEntity
  8
Ech.1_5
 62
     7
  6
CONTINUOUS
370
    -3
100
AcDbLine
 10
13980.5015959
 20
-1047.67696483
 30
0.0
 11
13976.5015959
 21
-1047.67696017
 31
0.0
  0
ARC
  5
D1
100
AcDbEntity
  8
Ech.1_5
 62
     7
  6
CONTINUOUS
370
    -3
100
AcDbCircle
 10
13976.50160172
 20
-1042.67696017
 30
0.0
 40
5.0
100
AcDbArc
 50
179.99993329
 51
269.9999433
  0
LINE
  5
D2
100
AcDbEntity
  8
Ech.1_5
 62
     7
  6
CONTINUOUS
370
    -3
100
AcDbLine
 10
13976.73168764
 20
-1056.75725681
 30
0.0
 11
13976.73168997
 21
-1054.75725681
 31
0.0
  0
LINE
  5
D3
100
AcDbEntity
  8
Ech.1_5
 62
     7
  6
CONTINUOUS
370
    -3
100
AcDbLine
 10
13976.73168764
 20
-1056.75725681
 30
0.0
 11
13980.86210157
 21
-1056.75726162
 31
0.0
  0
LINE
  5
D4
100
AcDbEntity
  8
Ech.1_5
 62
     7
  6
CONTINUOUS
370
    -3
100
AcDbLine
 10
13980.86210157
 20
-1056.75726162
 30
0.0
 11
13980.86208886
 21
-1067.67696525
 31
0.0
  0
LINE
  5
D5
100
AcDbEntity
  8
Ech.1_5
 62
     7
  6
CONTINUOUS
370
    -3
100
AcDbLine
 10
13976.73168997
 20
-1054.75725681
 30
0.0
 11
13982.8621039
 21
-1054.75726395
 31
0.0
  0
LINE
  5
D6
100
AcDbEntity
  8
Ech.1_5
 62
     7
  6
CONTINUOUS
370
    -3
100
AcDbLine
 10
13982.8621039
 20
-1054.75726395
 30
0.0
 11
13982.86208653
 21
-1069.67696758
 31
0.0
  0
CIRCLE
  5
D7
100
AcDbEntity
  8
Ech.1_5
 62
     7
  6
CONTINUOUS
370
    -3
100
AcDbCircle
 10
13958.00169364
 20
-963.73776819
 30
0.0
 40
2.51802373
  0
LINE
  5
D8
100
AcDbEntity
  8
Ech.1_5
 62
     7
  6
CONTINUOUS
370
    -3
100
AcDbLine
 10
13944.50172564
 20
-916.99065627
 30
0.0
 11
13944.50160172
 21
-1042.67692291
 31
0.0
  0
CIRCLE
  5
D9
100
AcDbEntity
  8
Ech.1_5
 62
     7
  6
CONTINUOUS
370
    -3
100
AcDbCircle
 10
13958.0017111
 20
-948.73776819
 30
0.0
 40
2.51802373
  0
LINE
  5
DA
100
AcDbEntity
  8
Ech.1_5
 62
     7
  6
CONTINUOUS
370
    -3
100
AcDbLine
 10
13944.50172564
 20
-916.99065627
 30
0.0
 11
13971.50172564
 21
-916.9906877
 31
0.0
  0
LINE
  5
DB
100
AcDbEntity
  8
Ech.1_5
 62
     7
  6
CONTINUOUS
370
    -3
100
AcDbLine
 10
13980.86208886
 20
-1067.67696525
 30
0.0
 11
13935.14105637
 21
-1067.67691201
 31
0.0
  0
LINE
  5
DC
100
AcDbEntity
  8
Ech.1_5
 62
     7
  6
CONTINUOUS
370
    -3
100
AcDbLine
 10
13933.14105404
 20
-1069.67690968
 30
0.0
 11
13982.86208653
 21
-1069.67696758
 31
0.0
  0
ARC
  5
DD
100
AcDbEntity
  8
Ech.1_5
 62
     7
  6
CONTINUOUS
370
    -3
100
AcDbCircle
 10
13937.64319598
 20
-1054.53200248
 30
0.0
 40
3.80485997
100
AcDbArc
 50
235.7460425
 51
356.5031767
  0
LINE
  5
DE
100
AcDbEntity
  8
Ech.1_5
 62
     7
  6
CONTINUOUS
370
    -3
100
AcDbLine
 10
13956.10931189
 20
-928.52802428
 30
0.0
 11
13956.10931189
 21
-928.52802428
 31
0.0
  0
CIRCLE
  5
DF
100
AcDbEntity
  8
Ech.1_5
 62
     7
  6
CONTINUOUS
370
    -3
100
AcDbCircle
 10
13958.0017111
 20
-933.82935676
 30
0.0
 40
2.51802373
  0
LWPOLYLINE
  5
E0
100
AcDbEntity
  8
Ech.1_5
 62
     7
  6
CONTINUOUS
370
    -3
100
AcDbPolyline
 90
        6
 70
     0
 43
0.0
 10
13930.18217442
 20
-1251.49724936
 10
13785.7922566
 20
-1251.49887891
 10
13769.30675345
 20
-1269.47622732
 10
13783.41669347
 20
-1233.52052731
 10
13766.93033938
 20
-1251.49887891
 10
13377.50793812
 20
-1251.49809317
  0
LINE
  5
E1
100
AcDbEntity
  8
Ech.1_5
 62
     7
  6
CONTINUOUS
370
    -3
100
AcDbLine
 10
13910.18218388
 20
-691.67659229
 30
-647.52014013
 11
13910.18218388
 21
-541.67659229
 31
-497.52014013
  0
LINE
  5
E2
100
AcDbEntity
  8
Ech.1_5
 62
     7
  6
CONTINUOUS
370
    -3
100
AcDbLine
 10
13870.18218388
 20
-691.67659229
 30
-647.52014013
 11
13870.18218388
 21
-541.67659229
 31
-497.52014013
  0
LINE
  5
E3
100
AcDbEntity
  8
Ech.1_5
 62
     7
  6
CONTINUOUS
370
    -3
100
AcDbLine
 10
13910.18218388
 20
-691.67659229
 30
-647.52014013
 11
13870.18218388
 21
-691.67659229
 31
-647.52014013
  0
LINE
  5
E4
100
AcDbEntity
  8
Ech.1_5
 62
     7
  6
CONTINUOUS
370
    -3
100
AcDbLine
 10
13910.18218388
 20
-135.84325896
 30
-91.6868068
 11
13870.18218388
 21
-135.84325896
 31
-91.6868068
  0
LINE
  5
E5
100
AcDbEntity
  8
Ech.1_5
 62
     7
  6
CONTINUOUS
370
    -3
100
AcDbLine
 10
13910.18218388
 20
-135.84325896
 30
-91.6868068
 11
13910.18218388
 21
-246.34325896
 31
-202.1868068
  0
LINE
  5
E6
100
AcDbEntity
  8
Ech.1_5
 62
     7
  6
CONTINUOUS
370
    -3
100
AcDbLine
 10
13870.18218388
 20
-135.84325896
 30
-91.6868068
 11
13870.18218388
 21
-246.34325896
 31
-202.1868068
  0
LINE
  5
E7
100
AcDbEntity
  8
Ech.1_5
 62
     7
  6
CONTINUOUS
370
    -3
100
AcDbLine
 10
13910.18218388
 20
-246.34325896
 30
-202.1868068
 11
13870.18218388
 21
-246.34325896
 31
-202.1868068
  0
LINE
  5
E8
100
AcDbEntity
  8
Ech.1_5
 62
     7
  6
CONTINUOUS
370
    -3
100
AcDbLine
 10
13910.18218388
 20
-301.59325896
 30
-257.4368068
 11
13870.18218388
 21
-301.59325896
 31
-257.4368068
  0
LINE
  5
E9
100
AcDbEntity
  8
Ech.1_5
 62
     7
  6
CONTINUOUS
370
    -3
100
AcDbLine
 10
13910.18218388
 20
-486.42659229
 30
-442.27014013
 11
13910.18218388
 21
-301.59325896
 31
-257.4368068
  0
LINE
  5
EA
100
AcDbEntity
  8
Ech.1_5
 62
     7
  6
CONTINUOUS
370
    -3
100
AcDbLine
 10
13910.18218388
 20
-541.67659229
 30
-497.52014013
 11
13870.18218388
 21
-541.67659229
 31
-497.52014013
  0
LINE
  5
EB
100
AcDbEntity
  8
Ech.1_5
 62
     7
  6
CONTINUOUS
370
    -3
100
AcDbLine
 10
13870.18218388
 20
-301.59325896
 30
-257.4368068
 11
13870.18218388
 21
-486.42659229
 31
-442.27014013
  0
LINE
  5
EC
100
AcDbEntity
  8
Ech.1_5
 62
     7
  6
CONTINUOUS
370
    -3
100
AcDbLine
 10
13910.18218388
 20
-486.42659229
 30
-442.27014013
 11
13870.18218388
 21
-486.42659229
 31
-442.27014013
  0
LINE
  5
ED
100
AcDbEntity
  8
Ech.1_5
 62
     7
  6
CONTINUOUS
370
    -3
100
AcDbLine
 10
13900.18218388
 20
-486.42659229
 30
-442.27014013
 11
13880.18218388
 21
-486.42659229
 31
-442.27014013
  0
LINE
  5
EE
100
AcDbEntity
  8
Ech.1_5
 62
     7
  6
CONTINUOUS
370
    -3
100
AcDbLine
 10
13900.18218388
 20
-486.42659229
 30
-442.27014013
 11
13900.18218388
 21
-541.67659229
 31
-497.52014013
  0
LINE
  5
EF
100
AcDbEntity
  8
Ech.1_5
 62
     7
  6
CONTINUOUS
370
    -3
100
AcDbLine
 10
13880.18218388
 20
-541.67659229
 30
-497.52014013
 11
13880.18218388
 21
-486.42659229
 31
-442.27014013
  0
LINE
  5
F0
100
AcDbEntity
  8
Ech.1_5
 62
     7
  6
CONTINUOUS
370
    -3
100
AcDbLine
 10
13900.18218388
 20
-541.67659229
 30
-497.52014013
 11
13880.18218388
 21
-541.67659229
 31
-497.52014013
  0
LINE
  5
F1
100
AcDbEntity
  8
Ech.1_5
 62
     7
  6
CONTINUOUS
370
    -3
100
AcDbLine
 10
13900.18218388
 20
-246.34325896
 30
-202.1868068
 11
13880.18218388
 21
-246.34325896
 31
-202.1868068
  0
LINE
  5
F2
100
AcDbEntity
  8
Ech.1_5
 62
     7
  6
CONTINUOUS
370
    -3
100
AcDbLine
 10
13900.18218388
 20
-246.34325896
 30
-202.1868068
 11
13900.18218388
 21
-301.59325896
 31
-257.4368068
  0
LINE
  5
F3
100
AcDbEntity
  8
Ech.1_5
 62
     7
  6
CONTINUOUS
370
    -3
100
AcDbLine
 10
13880.18218388
 20
-246.34325896
 30
-202.1868068
 11
13880.18218388
 21
-301.59325896
 31
-257.4368068
  0
LINE
  5
F4
100
AcDbEntity
  8
Ech.1_5
 62
     7
  6
CONTINUOUS
370
    -3
100
AcDbLine
 10
13900.18218388
 20
-301.59325896
 30
-257.4368068
 11
13880.18218388
 21
-301.59325896
 31
-257.4368068
  0
LINE
  5
F5
100
AcDbEntity
  8
Ech.1_5
 62
     7
  6
CONTINUOUS
370
    -3
100
AcDbLine
 10
13893.18218388
 20
-135.84325896
 30
-91.6868068
 11
13893.18218388
 21
-66.45200799
 31
-22.29555582
  0
LINE
  5
F6
100
AcDbEntity
  8
Ech.1_5
 62
     7
  6
CONTINUOUS
370
    -3
100
AcDbLine
 10
13887.18218388
 20
-66.45200799
 30
-22.29555582
 11
13887.18218388
 21
-135.84325896
 31
-91.6868068
  0
LINE
  5
F7
100
AcDbEntity
  8
Ech.1_5
 62
     7
  6
CONTINUOUS
370
    -3
100
AcDbLine
 10
13893.18218388
 20
-135.84325896
 30
-91.6868068
 11
13887.18218388
 21
-135.84325896
 31
-91.6868068
  0
LINE
  5
F8
100
AcDbEntity
  8
Ech.1_5
 62
     7
  6
CONTINUOUS
370
    -3
100
AcDbLine
 10
13912.40216097
 20
-709.17659229
 30
-665.02014013
 11
13905.90902802
 21
-709.17659229
 31
-665.02014013
  0
LINE
  5
F9
100
AcDbEntity
  8
Ech.1_5
 62
     7
  6
CONTINUOUS
370
    -3
100
AcDbLine
 10
13912.40216097
 20
-711.67659229
 30
-667.52014013
 11
13912.40216097
 21
-709.17659229
 31
-665.02014013
  0
LINE
  5
FA
100
AcDbEntity
  8
Ech.1_5
 62
     7
  6
CONTINUOUS
370
    -3
100
AcDbLine
 10
13914.00216097
 20
-711.67659229
 30
-667.52014013
 11
13912.40216097
 21
-711.67659229
 31
-667.52014013
  0
LINE
  5
FB
100
AcDbEntity
  8
Ech.1_5
 62
     7
  6
CONTINUOUS
370
    -3
100
AcDbLine
 10
13914.00216097
 20
-708.67659229
 30
-664.52014013
 11
13914.00216097
 21
-711.67659229
 31
-667.52014013
  0
LINE
  5
FC
100
AcDbEntity
  8
Ech.1_5
 62
     7
  6
CONTINUOUS
370
    -3
100
AcDbLine
 10
13914.00216097
 20
-708.67659229
 30
-664.52014013
 11
13913.9260405
 21
-708.29390886
 31
-664.1374567
  0
LINE
  5
FD
100
AcDbEntity
  8
Ech.1_5
 62
     7
  6
CONTINUOUS
370
    -3
100
AcDbLine
 10
13913.9260405
 20
-708.29390886
 30
-664.1374567
 11
13913.70926775
 21
-707.96948551
 31
-663.81303335
  0
LINE
  5
FE
100
AcDbEntity
  8
Ech.1_5
 62
     7
  6
CONTINUOUS
370
    -3
100
AcDbLine
 10
13913.70926775
 20
-707.96948551
 30
-663.81303335
 11
13913.3848444
 21
-707.75271276
 31
-663.5962606
  0
LINE
  5
FF
100
AcDbEntity
  8
Ech.1_5
 62
     7
  6
CONTINUOUS
370
    -3
100
AcDbLine
 10
13913.3848444
 20
-707.75271276
 30
-663.5962606
 11
13913.00216097
 21
-707.67659229
 31
-663.52014013
  0
LINE
  5
100
100
AcDbEntity
  8
Ech.1_5
 62
     7
  6
CONTINUOUS
370
    -3
100
AcDbLine
 10
13909.00216097
 20
-691.67659229
 30
-647.52014013
 11
13909.00216097
 21
-694.60081174
 31
-650.44435958
  0
LINE
  5
101
100
AcDbEntity
  8
Ech.1_5
 62
     7
  6
CONTINUOUS
370
    -3
100
AcDbLine
 10
13909.00216097
 20
-707.67659229
 30
-663.52014013
 11
13908.99643131
 21
-704.70651638
 31
-660.55006422
  0
LINE
  5
102
100
AcDbEntity
  8
Ech.1_5
 62
     7
  6
CONTINUOUS
370
    -3
100
AcDbLine
 10
13908.99643131
 20
-704.70651638
 30
-660.55006422
 11
13908.81795431
 21
-704.48811605
 31
-660.33166389
  0
LINE
  5
103
100
AcDbEntity
  8
Ech.1_5
 62
     7
  6
CONTINUOUS
370
    -3
100
AcDbLine
 10
13908.81795431
 20
-704.48811605
 30
-660.33166389
 11
13908.01795431
 21
-704.1533957
 31
-659.99694354
  0
LINE
  5
104
100
AcDbEntity
  8
Ech.1_5
 62
     7
  6
CONTINUOUS
370
    -3
100
AcDbLine
 10
13908.01795431
 20
-704.1533957
 30
-659.99694354
 11
13907.75889904
 21
-704.16656508
 31
-660.01011292
  0
LINE
  5
105
100
AcDbEntity
  8
Ech.1_5
 62
     7
  6
CONTINUOUS
370
    -3
100
AcDbLine
 10
13907.75889904
 20
-704.16656508
 30
-660.01011292
 11
13907.60216097
 21
-704.43014812
 31
-660.27369596
  0
LINE
  5
106
100
AcDbEntity
  8
Ech.1_5
 62
     7
  6
CONTINUOUS
370
    -3
100
AcDbLine
 10
13907.60216097
 20
-706.25812781
 30
-662.10167565
 11
13907.60216097
 21
-704.43014812
 31
-660.27369596
  0
LINE
  5
107
100
AcDbEntity
  8
Ech.1_5
 62
     7
  6
CONTINUOUS
370
    -3
100
AcDbLine
 10
13907.60216097
 20
-706.25812781
 30
-662.10167565
 11
13904.18735594
 21
-704.84366925
 31
-660.68721709
  0
LINE
  5
108
100
AcDbEntity
  8
Ech.1_5
 62
     7
  6
CONTINUOUS
370
    -3
100
AcDbLine
 10
13904.18735594
 20
-704.84366925
 30
-660.68721709
 11
13904.05272009
 21
-704.73317646
 31
-660.5767243
  0
LINE
  5
109
100
AcDbEntity
  8
Ech.1_5
 62
     7
  6
CONTINUOUS
370
    -3
100
AcDbLine
 10
13904.05272009
 20
-704.73317646
 30
-660.5767243
 11
13904.00792539
 21
-704.62503249
 31
-660.46858033
  0
LINE
  5
10A
100
AcDbEntity
  8
Ech.1_5
 62
     7
  6
CONTINUOUS
370
    -3
100
AcDbLine
 10
13869.42514584
 20
-711.65375615
 30
-667.49730399
 11
13867.82514584
 21
-711.65375615
 31
-667.49730399
  0
LINE
  5
10B
100
AcDbEntity
  8
Ech.1_5
 62
     7
  6
CONTINUOUS
370
    -3
100
AcDbLine
 10
13905.90902802
 20
-709.17659229
 30
-665.02014013
 11
13905.85445431
 21
-709.17158672
 31
-665.01513456
  0
LINE
  5
10C
100
AcDbEntity
  8
Ech.1_5
 62
     7
  6
CONTINUOUS
370
    -3
100
AcDbLine
 10
13905.85445431
 20
-709.17158672
 30
-665.01513456
 11
13905.75253072
 21
-709.13253876
 31
-664.9760866
  0
LINE
  5
10D
100
AcDbEntity
  8
Ech.1_5
 62
     7
  6
CONTINUOUS
370
    -3
100
AcDbLine
 10
13882.67514584
 20
-709.17659229
 30
-665.02014013
 11
13869.42514584
 21
-709.17659229
 31
-665.02014013
  0
LINE
  5
10E
100
AcDbEntity
  8
Ech.1_5
 62
     7
  6
CONTINUOUS
370
    -3
100
AcDbLine
 10
13882.67514584
 20
-711.67659229
 30
-667.52014013
 11
13882.67514584
 21
-709.17659229
 31
-665.02014013
  0
LINE
  5
10F
100
AcDbEntity
  8
Ech.1_5
 62
     7
  6
CONTINUOUS
370
    -3
100
AcDbLine
 10
13884.27514584
 20
-711.67659229
 30
-667.52014013
 11
13882.67514584
 21
-711.67659229
 31
-667.52014013
  0
LINE
  5
110
100
AcDbEntity
  8
Ech.1_5
 62
     7
  6
CONTINUOUS
370
    -3
100
AcDbLine
 10
13884.27514584
 20
-709.17659229
 30
-665.02014013
 11
13884.27514584
 21
-711.67659229
 31
-667.52014013
  0
LINE
  5
111
100
AcDbEntity
  8
Ech.1_5
 62
     7
  6
CONTINUOUS
370
    -3
100
AcDbLine
 10
13897.52514584
 20
-709.17659229
 30
-665.02014013
 11
13884.27514584
 21
-709.17659229
 31
-665.02014013
  0
LINE
  5
112
100
AcDbEntity
  8
Ech.1_5
 62
     7
  6
CONTINUOUS
370
    -3
100
AcDbLine
 10
13897.52514584
 20
-711.67659229
 30
-667.52014013
 11
13897.52514584
 21
-709.17659229
 31
-665.02014013
  0
LINE
  5
113
100
AcDbEntity
  8
Ech.1_5
 62
     7
  6
CONTINUOUS
370
    -3
100
AcDbLine
 10
13899.12514584
 20
-711.67659229
 30
-667.52014013
 11
13897.52514584
 21
-711.67659229
 31
-667.52014013
  0
LINE
  5
114
100
AcDbEntity
  8
Ech.1_5
 62
     7
  6
CONTINUOUS
370
    -3
100
AcDbLine
 10
13838.40208973
 20
-708.59530367
 30
-664.4388515
 11
13838.15295879
 21
-708.86718238
 31
-664.71073022
  0
LINE
  5
115
100
AcDbEntity
  8
Ech.1_5
 62
     7
  6
CONTINUOUS
370
    -3
100
AcDbLine
 10
13900.4995223
 20
-709.12348356
 30
-664.9670314
 11
13899.12514584
 21
-709.17659229
 31
-665.02014013
  0
LINE
  5
116
100
AcDbEntity
  8
Ech.1_5
 62
     7
  6
CONTINUOUS
370
    -3
100
AcDbLine
 10
13900.93150479
 20
-707.97745137
 30
-663.82099921
 11
13900.4995223
 21
-709.12348356
 31
-664.9670314
  0
LINE
  5
117
100
AcDbEntity
  8
Ech.1_5
 62
     7
  6
CONTINUOUS
370
    -3
100
AcDbLine
 10
13901.9579256
 20
-706.96580128
 30
-662.80934912
 11
13900.93150479
 21
-707.97745137
 31
-663.82099921
  0
LINE
  5
118
100
AcDbEntity
  8
Ech.1_5
 62
     7
  6
CONTINUOUS
370
    -3
100
AcDbLine
 10
13902.88570015
 20
-706.68808556
 30
-662.5316334
 11
13901.9579256
 21
-706.96580128
 31
-662.80934912
  0
LINE
  5
119
100
AcDbEntity
  8
Ech.1_5
 62
     7
  6
CONTINUOUS
370
    -3
100
AcDbLine
 10
13903.37223247
 20
-706.68883262
 30
-662.53238046
 11
13902.88570015
 21
-706.68808556
 31
-662.5316334
  0
LINE
  5
11A
100
AcDbEntity
  8
Ech.1_5
 62
     7
  6
CONTINUOUS
370
    -3
100
AcDbLine
 10
13904.2991498
 20
-706.96939618
 30
-662.81294401
 11
13903.37223247
 21
-706.68883262
 31
-662.53238046
  0
LINE
  5
11B
100
AcDbEntity
  8
Ech.1_5
 62
     7
  6
CONTINUOUS
370
    -3
100
AcDbLine
 10
13905.04989297
 20
-707.58117746
 30
-663.4247253
 11
13904.2991498
 21
-706.96939618
 31
-662.81294401
  0
LINE
  5
11C
100
AcDbEntity
  8
Ech.1_5
 62
     7
  6
CONTINUOUS
370
    -3
100
AcDbLine
 10
13905.51180346
 20
-708.43237094
 30
-664.27591878
 11
13905.04989297
 21
-707.58117746
 31
-663.4247253
  0
LINE
  5
11D
100
AcDbEntity
  8
Ech.1_5
 62
     7
  6
CONTINUOUS
370
    -3
100
AcDbLine
 10
13905.75253072
 20
-709.13253876
 30
-664.9760866
 11
13905.51180346
 21
-708.43237094
 31
-664.27591878
  0
LINE
  5
11E
100
AcDbEntity
  8
Ech.1_5
 62
     7
  6
CONTINUOUS
370
    -3
100
AcDbLine
 10
13904.00792539
 20
-704.62503249
 30
-660.46858033
 11
13904.00216097
 21
-693.48235671
 31
-649.32590455
  0
LINE
  5
11F
100
AcDbEntity
  8
Ech.1_5
 62
     7
  6
CONTINUOUS
370
    -3
100
AcDbLine
 10
13869.42514584
 20
-709.17659229
 30
-665.02014013
 11
13869.42514584
 21
-711.65375615
 31
-667.49730399
  0
LINE
  5
120
100
AcDbEntity
  8
Ech.1_5
 62
     7
  6
CONTINUOUS
370
    -3
100
AcDbLine
 10
13867.82514584
 20
-711.65375615
 30
-667.49730399
 11
13867.82514584
 21
-709.17659229
 31
-665.02014013
  0
LINE
  5
121
100
AcDbEntity
  8
Ech.1_5
 62
     7
  6
CONTINUOUS
370
    -3
100
AcDbLine
 10
13901.00216097
 20
-693.47659229
 30
-649.32014013
 11
13895.70216097
 21
-693.47659229
 31
-649.32014013
  0
LINE
  5
122
100
AcDbEntity
  8
Ech.1_5
 62
     7
  6
CONTINUOUS
370
    -3
100
AcDbLine
 10
13904.00216097
 20
-693.48235671
 30
-649.32590455
 11
13901.00216097
 21
-693.47659229
 31
-649.32014013
  0
LINE
  5
123
100
AcDbEntity
  8
Ech.1_5
 62
     7
  6
CONTINUOUS
370
    -3
100
AcDbLine
 10
13901.00216097
 20
-706.67659229
 30
-662.52014013
 11
13901.00216097
 21
-693.47659229
 31
-649.32014013
  0
LINE
  5
124
100
AcDbEntity
  8
Ech.1_5
 62
     7
  6
CONTINUOUS
370
    -3
100
AcDbLine
 10
13901.00216097
 20
-706.67659229
 30
-662.52014013
 11
13852.97514584
 21
-706.67659229
 31
-662.52014013
  0
LINE
  5
125
100
AcDbEntity
  8
Ech.1_5
 62
     7
  6
CONTINUOUS
370
    -3
100
AcDbLine
 10
13852.97514584
 20
-707.16895262
 30
-663.01250046
 11
13852.97514584
 21
-706.67659229
 31
-662.52014013
  0
LINE
  5
126
100
AcDbEntity
  8
Ech.1_5
 62
     7
  6
CONTINUOUS
370
    -3
100
AcDbLine
 10
13852.97514584
 20
-707.16895262
 30
-663.01250046
 11
13838.91500523
 21
-708.39905553
 31
-664.24260337
  0
LINE
  5
127
100
AcDbEntity
  8
Ech.1_5
 62
     7
  6
CONTINUOUS
370
    -3
100
AcDbLine
 10
13838.91500523
 20
-708.39905553
 30
-664.24260337
 11
13838.40208973
 21
-708.59530367
 31
-664.4388515
  0
LINE
  5
128
100
AcDbEntity
  8
Ech.1_5
 62
     7
  6
CONTINUOUS
370
    -3
100
AcDbLine
 10
13899.12514584
 20
-709.17659229
 30
-665.02014013
 11
13899.12514584
 21
-711.67659229
 31
-667.52014013
  0
LINE
  5
129
100
AcDbEntity
  8
Ech.1_5
 62
     7
  6
CONTINUOUS
370
    -3
100
AcDbLine
 10
13838.15295879
 20
-708.86718238
 30
-664.71073022
 11
13838.00216097
 21
-709.39525023
 31
-665.23879807
  0
LINE
  5
12A
100
AcDbEntity
  8
Ech.1_5
 62
     7
  6
CONTINUOUS
370
    -3
100
AcDbLine
 10
13838.00216097
 20
-711.67659229
 30
-667.52014013
 11
13838.00216097
 21
-709.39525023
 31
-665.23879807
  0
LINE
  5
12B
100
AcDbEntity
  8
Ech.1_5
 62
     7
  6
CONTINUOUS
370
    -3
100
AcDbLine
 10
13839.60216097
 20
-711.67659229
 30
-667.52014013
 11
13838.00216097
 21
-711.67659229
 31
-667.52014013
  0
LINE
  5
12C
100
AcDbEntity
  8
Ech.1_5
 62
     7
  6
CONTINUOUS
370
    -3
100
AcDbLine
 10
13839.60216097
 20
-710.34657687
 30
-666.19012471
 11
13839.60216097
 21
-711.67659229
 31
-667.52014013
  0
LINE
  5
12D
100
AcDbEntity
  8
Ech.1_5
 62
     7
  6
CONTINUOUS
370
    -3
100
AcDbLine
 10
13852.97514584
 20
-709.17659229
 30
-665.02014013
 11
13839.60216097
 21
-710.34657687
 31
-666.19012471
  0
LINE
  5
12E
100
AcDbEntity
  8
Ech.1_5
 62
     7
  6
CONTINUOUS
370
    -3
100
AcDbLine
 10
13852.97514584
 20
-711.67082788
 30
-667.51437572
 11
13852.97514584
 21
-709.17659229
 31
-665.02014013
  0
LINE
  5
12F
100
AcDbEntity
  8
Ech.1_5
 62
     7
  6
CONTINUOUS
370
    -3
100
AcDbLine
 10
13854.57514584
 20
-711.67082788
 30
-667.51437572
 11
13852.97514584
 21
-711.67082788
 31
-667.51437572
  0
LINE
  5
130
100
AcDbEntity
  8
Ech.1_5
 62
     7
  6
CONTINUOUS
370
    -3
100
AcDbLine
 10
13854.57514584
 20
-709.17659229
 30
-665.02014013
 11
13854.57514584
 21
-711.67082788
 31
-667.51437572
  0
LINE
  5
131
100
AcDbEntity
  8
Ech.1_5
 62
     7
  6
CONTINUOUS
370
    -3
100
AcDbLine
 10
13895.70216097
 20
-693.47659229
 30
-649.32014013
 11
13895.58735594
 21
-693.49942843
 31
-649.34297627
  0
LINE
  5
132
100
AcDbEntity
  8
Ech.1_5
 62
     7
  6
CONTINUOUS
370
    -3
100
AcDbLine
 10
13895.58735594
 20
-693.49942843
 30
-649.34297627
 11
13895.45272009
 21
-693.60992122
 31
-649.45346906
  0
LINE
  5
133
100
AcDbEntity
  8
Ech.1_5
 62
     7
  6
CONTINUOUS
370
    -3
100
AcDbLine
 10
13867.82514584
 20
-709.17659229
 30
-665.02014013
 11
13854.57514584
 21
-709.17659229
 31
-665.02014013
  0
LINE
  5
134
100
AcDbEntity
  8
Ech.1_5
 62
     7
  6
CONTINUOUS
370
    -3
100
AcDbLine
 10
13907.60216097
 20
-693.48235671
 30
-649.32590455
 11
13901.00216097
 21
-693.47659229
 31
-649.32014013
  0
LINE
  5
135
100
AcDbEntity
  8
Ech.1_5
 62
     7
  6
CONTINUOUS
370
    -3
100
AcDbLine
 10
13907.60216097
 20
-694.93218259
 30
-650.77573043
 11
13907.60216097
 21
-693.48235671
 31
-649.32590455
  0
LINE
  5
136
100
AcDbEntity
  8
Ech.1_5
 62
     7
  6
CONTINUOUS
370
    -3
100
AcDbLine
 10
13907.71392027
 20
-695.16577506
 30
-651.00932289
 11
13907.60216097
 21
-694.93218259
 31
-650.77573043
  0
LINE
  5
137
100
AcDbEntity
  8
Ech.1_5
 62
     7
  6
CONTINUOUS
370
    -3
100
AcDbLine
 10
13907.91286867
 20
-695.23199144
 30
-651.07553928
 11
13907.71392027
 21
-695.16577506
 31
-651.00932289
  0
LINE
  5
138
100
AcDbEntity
  8
Ech.1_5
 62
     7
  6
CONTINUOUS
370
    -3
100
AcDbLine
 10
13908.016966
 20
-695.20934645
 30
-651.05289429
 11
13907.91286867
 21
-695.23199144
 31
-651.07553928
  0
LINE
  5
139
100
AcDbEntity
  8
Ech.1_5
 62
     7
  6
CONTINUOUS
370
    -3
100
AcDbLine
 10
13908.914293
 20
-694.81294378
 30
-650.65649162
 11
13908.016966
 21
-695.20934645
 31
-651.05289429
  0
LINE
  5
13A
100
AcDbEntity
  8
Ech.1_5
 62
     7
  6
CONTINUOUS
370
    -3
100
AcDbLine
 10
13908.97932483
 20
-694.71561677
 30
-650.55916461
 11
13908.914293
 21
-694.81294378
 31
-650.65649162
  0
LINE
  5
13B
100
AcDbEntity
  8
Ech.1_5
 62
     7
  6
CONTINUOUS
370
    -3
100
AcDbLine
 10
13909.00216097
 20
-694.60081174
 30
-650.44435958
 11
13908.97932483
 21
-694.71561677
 31
-650.55916461
  0
LINE
  5
13C
100
AcDbEntity
  8
Ech.1_5
 62
     7
  6
CONTINUOUS
370
    -3
100
AcDbLine
 10
13913.00216097
 20
-707.67659229
 30
-663.52014013
 11
13909.00216097
 21
-707.67659229
 31
-663.52014013
  0
LINE
  5
13D
100
AcDbEntity
  8
Ech.1_5
 62
     7
  6
CONTINUOUS
370
    -3
100
AcDbLine
 10
13909.00216097
 20
-691.67659229
 30
-647.52014013
 11
13894.00216152
 21
-691.67659229
 31
-647.52014013
  0
LINE
  5
13E
100
AcDbEntity
  8
Ech.1_5
 62
     7
  6
CONTINUOUS
370
    -3
100
AcDbLine
 10
13894.00216152
 20
-697.42628992
 30
-653.26983776
 11
13894.00216152
 21
-691.67659229
 31
-647.52014013
  0
LINE
  5
13F
100
AcDbEntity
  8
Ech.1_5
 62
     7
  6
CONTINUOUS
370
    -3
100
AcDbLine
 10
13894.50216124
 20
-697.67659229
 30
-653.52014013
 11
13894.00216152
 21
-697.42628992
 31
-653.26983776
  0
LINE
  5
140
100
AcDbEntity
  8
Ech.1_5
 62
     7
  6
CONTINUOUS
370
    -3
100
AcDbLine
 10
13894.90216097
 20
-697.67659229
 30
-653.52014013
 11
13894.50216124
 21
-697.67659229
 31
-653.52014013
  0
LINE
  5
141
100
AcDbEntity
  8
Ech.1_5
 62
     7
  6
CONTINUOUS
370
    -3
100
AcDbLine
 10
13895.25571436
 20
-697.53014568
 30
-653.37369352
 11
13894.90216097
 21
-697.67659229
 31
-653.52014013
  0
LINE
  5
142
100
AcDbEntity
  8
Ech.1_5
 62
     7
  6
CONTINUOUS
370
    -3
100
AcDbLine
 10
13895.40216097
 20
-697.17659229
 30
-653.02014013
 11
13895.25571436
 21
-697.53014568
 31
-653.37369352
  0
LINE
  5
143
100
AcDbEntity
  8
Ech.1_5
 62
     7
  6
CONTINUOUS
370
    -3
100
AcDbLine
 10
13895.40216097
 20
-693.77659229
 30
-649.62014013
 11
13895.40216097
 21
-697.17659229
 31
-653.02014013
  0
LINE
  5
144
100
AcDbEntity
  8
Ech.1_5
 62
     7
  6
CONTINUOUS
370
    -3
100
AcDbLine
 10
13895.45272009
 20
-693.60992122
 30
-649.45346906
 11
13895.40216097
 21
-693.77659229
 31
-649.62014013
  0
LINE
  5
145
100
AcDbEntity
  8
Ech.1_5
 62
     7
  6
CONTINUOUS
370
    -3
100
AcDbLine
 10
13427.1819093
 20
-736.67659229
 30
-692.52014013
 11
13227.18141789
 21
-736.67659229
 31
-692.52014013
  0
LINE
  5
146
100
AcDbEntity
  8
Ech.1_5
 62
     7
  6
CONTINUOUS
370
    -3
100
AcDbLine
 10
13911.7618904
 20
-805.55019739
 30
-761.39374523
 11
13687.18217442
 21
-805.55019739
 31
-761.39374523
  0
LWPOLYLINE
  5
147
102
{ACAD_REACTORS
330
148
102
}
100
AcDbEntity
  8
Ech.1_5
 62
     7
  6
CONTINUOUS
370
    -3
100
AcDbPolyline
 90
        4
 70
     1
 43
0.0
 10
13824.00792539
 20
-711.66897222
 10
13559.18217442
 20
-711.66897222
 10
13559.18217442
 20
-736.67659229
 10
13824.00792539
 20
-736.67659229
  0
HATCH
  5
148
100
AcDbEntity
  8
Ech.1_5
 62
     7
  6
CONTINUOUS
100
AcDbHatch
 10
0.0
 20
0.0
 30
0.0
210
0.0
220
0.0
230
1.0
  2
ANSI37
 70
     0
 71
     1
 91
        1
 92
        7
 72
     0
 73
     1
 93
        4
 10
13824.00792539
 20
-711.66897222
 10
13559.18217442
 20
-711.66897222
 10
13559.18217442
 20
-736.67659229
 10
13824.00792539
 20
-736.67659229
 97
        1
330
147
 75
     0
 76
     2
 52
0.0
 41
3.14960635
 77
     0
 78
     2
 53
45.0
 43
0.0
 44
0.0
 45
7.07106781
 46
-7.07106781
 79
     0
 53
-45.0
 43
0.0
 44
0.0
 45
7.07106781
 46
7.07106781
 79
     0
 47
0.775229
 98
        1
 10
0.0
 20
0.0
  0
LWPOLYLINE
  5
149
100
AcDbEntity
  8
Ech.1_5
 62
     7
  6
CONTINUOUS
370
    -3
100
AcDbPolyline
 90
        4
 70
     0
 43
0.0
 10
13899.12514584
 20
-711.64548542
 10
13860.4201819
 20
-721.65213341
 10
13860.4201819
 20
-711.64636899
 10
13899.12514584
 20
-721.65124983
  0
LWPOLYLINE
  5
14A
102
{ACAD_REACTORS
330
14B
102
}
100
AcDbEntity
  8
Ech.1_5
 62
     7
  6
CONTINUOUS
370
     5
100
AcDbPolyline
 90
        4
 70
     1
 43
0.0
 10
13847.04266142
 20
-711.67082788
 10
13840.25367024
 20
-711.67082788
 10
13840.25367024
 20
-721.67659229
 10
13847.04266142
 20
-721.67659229
  0
HATCH
  5
14B
100
AcDbEntity
  8
Ech.1_5
 62
     2
  6
CONTINUOUS
100
AcDbHatch
 10
0.0
 20
0.0
 30
0.0
210
0.0
220
0.0
230
1.0
  2
SOLID
 70
     1
 71
     1
 91
        1
 92
        7
 72
     0
 73
     1
 93
        4
 10
13847.04266142
 20
-711.67082788
 10
13840.25367024
 20
-711.67082788
 10
13840.25367024
 20
-721.67659229
 10
13847.04266142
 20
-721.67659229
 97
        1
330
14A
 75
     0
 76
     2
 47
0.775229
 98
        1
 10
0.0
 20
0.0
  0
HATCH
  5
14C
100
AcDbEntity
  8
Ech.1_5
 62
     7
  6
CONTINUOUS
100
AcDbHatch
 10
0.0
 20
0.0
 30
0.0
210
0.0
220
0.0
230
1.0
  2
ANSI31
 70
     0
 71
     1
 91
        1
 92
        7
 72
     0
 73
     1
 93
        4
 10
13847.04266142
 20
-711.67082788
 10
13840.25367024
 20
-711.67082788
 10
13840.25367024
 20
-721.67659229
 10
13847.04266142
 20
-721.67659229
 97
        1
330
14B
 75
     0
 76
     2
 52
0.0
 41
0.94488785
 77
     0
 78
     1
 53
45.0
 43
0.0
 44
0.0
 45
2.12132043
 46
-2.12132043
 79
     0
 47
0.775229
 98
        1
 10
0.0
 20
0.0
  0
LINE
  5
14D
100
AcDbEntity
  8
Ech.1_5
 62
     7
  6
CONTINUOUS
370
    -3
100
AcDbLine
 10
13912.40216097
 20
-709.17659229
 30
-665.02014013
 11
13905.90902802
 21
-709.17659229
 31
-665.02014013
  0
LINE
  5
14E
100
AcDbEntity
  8
Ech.1_5
 62
     7
  6
CONTINUOUS
370
    -3
100
AcDbLine
 10
13912.40216097
 20
-711.67659229
 30
-667.52014013
 11
13912.40216097
 21
-709.17659229
 31
-665.02014013
  0
LINE
  5
14F
100
AcDbEntity
  8
Ech.1_5
 62
     7
  6
CONTINUOUS
370
    -3
100
AcDbLine
 10
13914.00216097
 20
-711.67659229
 30
-667.52014013
 11
13912.40216097
 21
-711.67659229
 31
-667.52014013
  0
LINE
  5
150
100
AcDbEntity
  8
Ech.1_5
 62
     7
  6
CONTINUOUS
370
    -3
100
AcDbLine
 10
13914.00216097
 20
-708.67659229
 30
-664.52014013
 11
13914.00216097
 21
-711.67659229
 31
-667.52014013
  0
LINE
  5
151
100
AcDbEntity
  8
Ech.1_5
 62
     7
  6
CONTINUOUS
370
    -3
100
AcDbLine
 10
13914.00216097
 20
-708.67659229
 30
-664.52014013
 11
13913.9260405
 21
-708.29390886
 31
-664.1374567
  0
LINE
  5
152
100
AcDbEntity
  8
Ech.1_5
 62
     7
  6
CONTINUOUS
370
    -3
100
AcDbLine
 10
13913.9260405
 20
-708.29390886
 30
-664.1374567
 11
13913.70926775
 21
-707.96948551
 31
-663.81303335
  0
LINE
  5
153
100
AcDbEntity
  8
Ech.1_5
 62
     7
  6
CONTINUOUS
370
    -3
100
AcDbLine
 10
13913.70926775
 20
-707.96948551
 30
-663.81303335
 11
13913.3848444
 21
-707.75271276
 31
-663.5962606
  0
LINE
  5
154
100
AcDbEntity
  8
Ech.1_5
 62
     7
  6
CONTINUOUS
370
    -3
100
AcDbLine
 10
13913.3848444
 20
-707.75271276
 30
-663.5962606
 11
13913.00216097
 21
-707.67659229
 31
-663.52014013
  0
LINE
  5
155
100
AcDbEntity
  8
Ech.1_5
 62
     7
  6
CONTINUOUS
370
    -3
100
AcDbLine
 10
13909.00216097
 20
-691.67659229
 30
-647.52014013
 11
13909.00216097
 21
-694.60081174
 31
-650.44435958
  0
LINE
  5
156
100
AcDbEntity
  8
Ech.1_5
 62
     7
  6
CONTINUOUS
370
    -3
100
AcDbLine
 10
13909.00216097
 20
-707.67659229
 30
-663.52014013
 11
13908.99643131
 21
-704.70651638
 31
-660.55006422
  0
LINE
  5
157
100
AcDbEntity
  8
Ech.1_5
 62
     7
  6
CONTINUOUS
370
    -3
100
AcDbLine
 10
13908.99643131
 20
-704.70651638
 30
-660.55006422
 11
13908.81795431
 21
-704.48811605
 31
-660.33166389
  0
LINE
  5
158
100
AcDbEntity
  8
Ech.1_5
 62
     7
  6
CONTINUOUS
370
    -3
100
AcDbLine
 10
13908.81795431
 20
-704.48811605
 30
-660.33166389
 11
13908.01795431
 21
-704.1533957
 31
-659.99694354
  0
LINE
  5
159
100
AcDbEntity
  8
Ech.1_5
 62
     7
  6
CONTINUOUS
370
    -3
100
AcDbLine
 10
13908.01795431
 20
-704.1533957
 30
-659.99694354
 11
13907.75889904
 21
-704.16656508
 31
-660.01011292
  0
LINE
  5
15A
100
AcDbEntity
  8
Ech.1_5
 62
     7
  6
CONTINUOUS
370
    -3
100
AcDbLine
 10
13907.75889904
 20
-704.16656508
 30
-660.01011292
 11
13907.60216097
 21
-704.43014812
 31
-660.27369596
  0
LINE
  5
15B
100
AcDbEntity
  8
Ech.1_5
 62
     7
  6
CONTINUOUS
370
    -3
100
AcDbLine
 10
13907.60216097
 20
-706.25812781
 30
-662.10167565
 11
13907.60216097
 21
-704.43014812
 31
-660.27369596
  0
LINE
  5
15C
100
AcDbEntity
  8
Ech.1_5
 62
     7
  6
CONTINUOUS
370
    -3
100
AcDbLine
 10
13907.60216097
 20
-706.25812781
 30
-662.10167565
 11
13904.18735594
 21
-704.84366925
 31
-660.68721709
  0
LINE
  5
15D
100
AcDbEntity
  8
Ech.1_5
 62
     7
  6
CONTINUOUS
370
    -3
100
AcDbLine
 10
13904.18735594
 20
-704.84366925
 30
-660.68721709
 11
13904.05272009
 21
-704.73317646
 31
-660.5767243
  0
LINE
  5
15E
100
AcDbEntity
  8
Ech.1_5
 62
     7
  6
CONTINUOUS
370
    -3
100
AcDbLine
 10
13904.05272009
 20
-704.73317646
 30
-660.5767243
 11
13904.00792539
 21
-704.62503249
 31
-660.46858033
  0
LINE
  5
15F
100
AcDbEntity
  8
Ech.1_5
 62
     7
  6
CONTINUOUS
370
    -3
100
AcDbLine
 10
13869.42514584
 20
-711.65375615
 30
-667.49730399
 11
13867.82514584
 21
-711.65375615
 31
-667.49730399
  0
LINE
  5
160
100
AcDbEntity
  8
Ech.1_5
 62
     7
  6
CONTINUOUS
370
    -3
100
AcDbLine
 10
13905.90902802
 20
-709.17659229
 30
-665.02014013
 11
13905.85445431
 21
-709.17158672
 31
-665.01513456
  0
LINE
  5
161
100
AcDbEntity
  8
Ech.1_5
 62
     7
  6
CONTINUOUS
370
    -3
100
AcDbLine
 10
13905.85445431
 20
-709.17158672
 30
-665.01513456
 11
13905.75253072
 21
-709.13253876
 31
-664.9760866
  0
LINE
  5
162
100
AcDbEntity
  8
Ech.1_5
 62
     7
  6
CONTINUOUS
370
    -3
100
AcDbLine
 10
13882.67514584
 20
-709.17659229
 30
-665.02014013
 11
13869.42514584
 21
-709.17659229
 31
-665.02014013
  0
LINE
  5
163
100
AcDbEntity
  8
Ech.1_5
 62
     7
  6
CONTINUOUS
370
    -3
100
AcDbLine
 10
13882.67514584
 20
-711.67659229
 30
-667.52014013
 11
13882.67514584
 21
-709.17659229
 31
-665.02014013
  0
LINE
  5
164
100
AcDbEntity
  8
Ech.1_5
 62
     7
  6
CONTINUOUS
370
    -3
100
AcDbLine
 10
13884.27514584
 20
-711.67659229
 30
-667.52014013
 11
13882.67514584
 21
-711.67659229
 31
-667.52014013
  0
LINE
  5
165
100
AcDbEntity
  8
Ech.1_5
 62
     7
  6
CONTINUOUS
370
    -3
100
AcDbLine
 10
13884.27514584
 20
-709.17659229
 30
-665.02014013
 11
13884.27514584
 21
-711.67659229
 31
-667.52014013
  0
LINE
  5
166
100
AcDbEntity
  8
Ech.1_5
 62
     7
  6
CONTINUOUS
370
    -3
100
AcDbLine
 10
13897.52514584
 20
-709.17659229
 30
-665.02014013
 11
13884.27514584
 21
-709.17659229
 31
-665.02014013
  0
LINE
  5
167
100
AcDbEntity
  8
Ech.1_5
 62
     7
  6
CONTINUOUS
370
    -3
100
AcDbLine
 10
13897.52514584
 20
-711.67659229
 30
-667.52014013
 11
13897.52514584
 21
-709.17659229
 31
-665.02014013
  0
LINE
  5
168
100
AcDbEntity
  8
Ech.1_5
 62
     7
  6
CONTINUOUS
370
    -3
100
AcDbLine
 10
13899.12514584
 20
-711.67659229
 30
-667.52014013
 11
13897.52514584
 21
-711.67659229
 31
-667.52014013
  0
LINE
  5
169
100
AcDbEntity
  8
Ech.1_5
 62
     7
  6
CONTINUOUS
370
    -3
100
AcDbLine
 10
13838.40208973
 20
-708.59530367
 30
-664.4388515
 11
13838.15295879
 21
-708.86718238
 31
-664.71073022
  0
LINE
  5
16A
100
AcDbEntity
  8
Ech.1_5
 62
     7
  6
CONTINUOUS
370
    -3
100
AcDbLine
 10
13900.4995223
 20
-709.12348356
 30
-664.9670314
 11
13899.12514584
 21
-709.17659229
 31
-665.02014013
  0
LINE
  5
16B
100
AcDbEntity
  8
Ech.1_5
 62
     7
  6
CONTINUOUS
370
    -3
100
AcDbLine
 10
13900.93150479
 20
-707.97745137
 30
-663.82099921
 11
13900.4995223
 21
-709.12348356
 31
-664.9670314
  0
LINE
  5
16C
100
AcDbEntity
  8
Ech.1_5
 62
     7
  6
CONTINUOUS
370
    -3
100
AcDbLine
 10
13901.9579256
 20
-706.96580128
 30
-662.80934912
 11
13900.93150479
 21
-707.97745137
 31
-663.82099921
  0
LINE
  5
16D
100
AcDbEntity
  8
Ech.1_5
 62
     7
  6
CONTINUOUS
370
    -3
100
AcDbLine
 10
13902.88570015
 20
-706.68808556
 30
-662.5316334
 11
13901.9579256
 21
-706.96580128
 31
-662.80934912
  0
LINE
  5
16E
100
AcDbEntity
  8
Ech.1_5
 62
     7
  6
CONTINUOUS
370
    -3
100
AcDbLine
 10
13903.37223247
 20
-706.68883262
 30
-662.53238046
 11
13902.88570015
 21
-706.68808556
 31
-662.5316334
  0
LINE
  5
16F
100
AcDbEntity
  8
Ech.1_5
 62
     7
  6
CONTINUOUS
370
    -3
100
AcDbLine
 10
13904.2991498
 20
-706.96939618
 30
-662.81294401
 11
13903.37223247
 21
-706.68883262
 31
-662.53238046
  0
LINE
  5
170
100
AcDbEntity
  8
Ech.1_5
 62
     7
  6
CONTINUOUS
370
    -3
100
AcDbLine
 10
13905.04989297
 20
-707.58117746
 30
-663.4247253
 11
13904.2991498
 21
-706.96939618
 31
-662.81294401
  0
LINE
  5
171
100
AcDbEntity
  8
Ech.1_5
 62
     7
  6
CONTINUOUS
370
    -3
100
AcDbLine
 10
13905.51180346
 20
-708.43237094
 30
-664.27591878
 11
13905.04989297
 21
-707.58117746
 31
-663.4247253
  0
LINE
  5
172
100
AcDbEntity
  8
Ech.1_5
 62
     7
  6
CONTINUOUS
370
    -3
100
AcDbLine
 10
13905.75253072
 20
-709.13253876
 30
-664.9760866
 11
13905.51180346
 21
-708.43237094
 31
-664.27591878
  0
LINE
  5
173
100
AcDbEntity
  8
Ech.1_5
 62
     7
  6
CONTINUOUS
370
    -3
100
AcDbLine
 10
13904.00792539
 20
-704.62503249
 30
-660.46858033
 11
13904.00216097
 21
-693.48235671
 31
-649.32590455
  0
LINE
  5
174
100
AcDbEntity
  8
Ech.1_5
 62
     7
  6
CONTINUOUS
370
    -3
100
AcDbLine
 10
13869.42514584
 20
-709.17659229
 30
-665.02014013
 11
13869.42514584
 21
-711.65375615
 31
-667.49730399
  0
LINE
  5
175
100
AcDbEntity
  8
Ech.1_5
 62
     7
  6
CONTINUOUS
370
    -3
100
AcDbLine
 10
13867.82514584
 20
-711.65375615
 30
-667.49730399
 11
13867.82514584
 21
-709.17659229
 31
-665.02014013
  0
LINE
  5
176
100
AcDbEntity
  8
Ech.1_5
 62
     7
  6
CONTINUOUS
370
    -3
100
AcDbLine
 10
13901.00216097
 20
-693.47659229
 30
-649.32014013
 11
13895.70216097
 21
-693.47659229
 31
-649.32014013
  0
LINE
  5
177
100
AcDbEntity
  8
Ech.1_5
 62
     7
  6
CONTINUOUS
370
    -3
100
AcDbLine
 10
13904.00216097
 20
-693.48235671
 30
-649.32590455
 11
13901.00216097
 21
-693.47659229
 31
-649.32014013
  0
LINE
  5
178
100
AcDbEntity
  8
Ech.1_5
 62
     7
  6
CONTINUOUS
370
    -3
100
AcDbLine
 10
13901.00216097
 20
-706.67659229
 30
-662.52014013
 11
13901.00216097
 21
-693.47659229
 31
-649.32014013
  0
LINE
  5
179
100
AcDbEntity
  8
Ech.1_5
 62
     7
  6
CONTINUOUS
370
    -3
100
AcDbLine
 10
13901.00216097
 20
-706.67659229
 30
-662.52014013
 11
13852.97514584
 21
-706.67659229
 31
-662.52014013
  0
LINE
  5
17A
100
AcDbEntity
  8
Ech.1_5
 62
     7
  6
CONTINUOUS
370
    -3
100
AcDbLine
 10
13852.97514584
 20
-707.16895262
 30
-663.01250046
 11
13852.97514584
 21
-706.67659229
 31
-662.52014013
  0
LINE
  5
17B
100
AcDbEntity
  8
Ech.1_5
 62
     7
  6
CONTINUOUS
370
    -3
100
AcDbLine
 10
13852.97514584
 20
-707.16895262
 30
-663.01250046
 11
13838.91500523
 21
-708.39905553
 31
-664.24260337
  0
LINE
  5
17C
100
AcDbEntity
  8
Ech.1_5
 62
     7
  6
CONTINUOUS
370
    -3
100
AcDbLine
 10
13838.91500523
 20
-708.39905553
 30
-664.24260337
 11
13838.40208973
 21
-708.59530367
 31
-664.4388515
  0
LINE
  5
17D
100
AcDbEntity
  8
Ech.1_5
 62
     7
  6
CONTINUOUS
370
    -3
100
AcDbLine
 10
13899.12514584
 20
-709.17659229
 30
-665.02014013
 11
13899.12514584
 21
-711.67659229
 31
-667.52014013
  0
LINE
  5
17E
100
AcDbEntity
  8
Ech.1_5
 62
     7
  6
CONTINUOUS
370
    -3
100
AcDbLine
 10
13838.15295879
 20
-708.86718238
 30
-664.71073022
 11
13838.00216097
 21
-709.39525023
 31
-665.23879807
  0
LINE
  5
17F
100
AcDbEntity
  8
Ech.1_5
 62
     7
  6
CONTINUOUS
370
    -3
100
AcDbLine
 10
13838.00216097
 20
-711.67659229
 30
-667.52014013
 11
13838.00216097
 21
-709.39525023
 31
-665.23879807
  0
LINE
  5
180
100
AcDbEntity
  8
Ech.1_5
 62
     7
  6
CONTINUOUS
370
    -3
100
AcDbLine
 10
13839.60216097
 20
-711.67659229
 30
-667.52014013
 11
13838.00216097
 21
-711.67659229
 31
-667.52014013
  0
LINE
  5
181
100
AcDbEntity
  8
Ech.1_5
 62
     7
  6
CONTINUOUS
370
    -3
100
AcDbLine
 10
13839.60216097
 20
-710.34657687
 30
-666.19012471
 11
13839.60216097
 21
-711.67659229
 31
-667.52014013
  0
LINE
  5
182
100
AcDbEntity
  8
Ech.1_5
 62
     7
  6
CONTINUOUS
370
    -3
100
AcDbLine
 10
13852.97514584
 20
-709.17659229
 30
-665.02014013
 11
13839.60216097
 21
-710.34657687
 31
-666.19012471
  0
LINE
  5
183
100
AcDbEntity
  8
Ech.1_5
 62
     7
  6
CONTINUOUS
370
    -3
100
AcDbLine
 10
13852.97514584
 20
-711.67082788
 30
-667.51437572
 11
13852.97514584
 21
-709.17659229
 31
-665.02014013
  0
LINE
  5
184
100
AcDbEntity
  8
Ech.1_5
 62
     7
  6
CONTINUOUS
370
    -3
100
AcDbLine
 10
13854.57514584
 20
-711.67082788
 30
-667.51437572
 11
13852.97514584
 21
-711.67082788
 31
-667.51437572
  0
LINE
  5
185
100
AcDbEntity
  8
Ech.1_5
 62
     7
  6
CONTINUOUS
370
    -3
100
AcDbLine
 10
13854.57514584
 20
-709.17659229
 30
-665.02014013
 11
13854.57514584
 21
-711.67082788
 31
-667.51437572
  0
LINE
  5
186
100
AcDbEntity
  8
Ech.1_5
 62
     7
  6
CONTINUOUS
370
    -3
100
AcDbLine
 10
13895.70216097
 20
-693.47659229
 30
-649.32014013
 11
13895.58735594
 21
-693.49942843
 31
-649.34297627
  0
LINE
  5
187
100
AcDbEntity
  8
Ech.1_5
 62
     7
  6
CONTINUOUS
370
    -3
100
AcDbLine
 10
13895.58735594
 20
-693.49942843
 30
-649.34297627
 11
13895.45272009
 21
-693.60992122
 31
-649.45346906
  0
LINE
  5
188
100
AcDbEntity
  8
Ech.1_5
 62
     7
  6
CONTINUOUS
370
    -3
100
AcDbLine
 10
13867.82514584
 20
-709.17659229
 30
-665.02014013
 11
13854.57514584
 21
-709.17659229
 31
-665.02014013
  0
LINE
  5
189
100
AcDbEntity
  8
Ech.1_5
 62
     7
  6
CONTINUOUS
370
    -3
100
AcDbLine
 10
13907.60216097
 20
-693.48235671
 30
-649.32590455
 11
13901.00216097
 21
-693.47659229
 31
-649.32014013
  0
LINE
  5
18A
100
AcDbEntity
  8
Ech.1_5
 62
     7
  6
CONTINUOUS
370
    -3
100
AcDbLine
 10
13907.60216097
 20
-694.93218259
 30
-650.77573043
 11
13907.60216097
 21
-693.48235671
 31
-649.32590455
  0
LINE
  5
18B
100
AcDbEntity
  8
Ech.1_5
 62
     7
  6
CONTINUOUS
370
    -3
100
AcDbLine
 10
13907.71392027
 20
-695.16577506
 30
-651.00932289
 11
13907.60216097
 21
-694.93218259
 31
-650.77573043
  0
LINE
  5
18C
100
AcDbEntity
  8
Ech.1_5
 62
     7
  6
CONTINUOUS
370
    -3
100
AcDbLine
 10
13907.91286867
 20
-695.23199144
 30
-651.07553928
 11
13907.71392027
 21
-695.16577506
 31
-651.00932289
  0
LINE
  5
18D
100
AcDbEntity
  8
Ech.1_5
 62
     7
  6
CONTINUOUS
370
    -3
100
AcDbLine
 10
13908.016966
 20
-695.20934645
 30
-651.05289429
 11
13907.91286867
 21
-695.23199144
 31
-651.07553928
  0
LINE
  5
18E
100
AcDbEntity
  8
Ech.1_5
 62
     7
  6
CONTINUOUS
370
    -3
100
AcDbLine
 10
13908.914293
 20
-694.81294378
 30
-650.65649162
 11
13908.016966
 21
-695.20934645
 31
-651.05289429
  0
LINE
  5
18F
100
AcDbEntity
  8
Ech.1_5
 62
     7
  6
CONTINUOUS
370
    -3
100
AcDbLine
 10
13908.97932483
 20
-694.71561677
 30
-650.55916461
 11
13908.914293
 21
-694.81294378
 31
-650.65649162
  0
LINE
  5
190
100
AcDbEntity
  8
Ech.1_5
 62
     7
  6
CONTINUOUS
370
    -3
100
AcDbLine
 10
13909.00216097
 20
-694.60081174
 30
-650.44435958
 11
13908.97932483
 21
-694.71561677
 31
-650.55916461
  0
LINE
  5
191
100
AcDbEntity
  8
Ech.1_5
 62
     7
  6
CONTINUOUS
370
    -3
100
AcDbLine
 10
13913.00216097
 20
-707.67659229
 30
-663.52014013
 11
13909.00216097
 21
-707.67659229
 31
-663.52014013
  0
LINE
  5
192
100
AcDbEntity
  8
Ech.1_5
 62
     7
  6
CONTINUOUS
370
    -3
100
AcDbLine
 10
13909.00216097
 20
-691.67659229
 30
-647.52014013
 11
13894.00216152
 21
-691.67659229
 31
-647.52014013
  0
LINE
  5
193
100
AcDbEntity
  8
Ech.1_5
 62
     7
  6
CONTINUOUS
370
    -3
100
AcDbLine
 10
13894.00216152
 20
-697.42628992
 30
-653.26983776
 11
13894.00216152
 21
-691.67659229
 31
-647.52014013
  0
LINE
  5
194
100
AcDbEntity
  8
Ech.1_5
 62
     7
  6
CONTINUOUS
370
    -3
100
AcDbLine
 10
13894.50216124
 20
-697.67659229
 30
-653.52014013
 11
13894.00216152
 21
-697.42628992
 31
-653.26983776
  0
LINE
  5
195
100
AcDbEntity
  8
Ech.1_5
 62
     7
  6
CONTINUOUS
370
    -3
100
AcDbLine
 10
13894.90216097
 20
-697.67659229
 30
-653.52014013
 11
13894.50216124
 21
-697.67659229
 31
-653.52014013
  0
LINE
  5
196
100
AcDbEntity
  8
Ech.1_5
 62
     7
  6
CONTINUOUS
370
    -3
100
AcDbLine
 10
13895.25571436
 20
-697.53014568
 30
-653.37369352
 11
13894.90216097
 21
-697.67659229
 31
-653.52014013
  0
LINE
  5
197
100
AcDbEntity
  8
Ech.1_5
 62
     7
  6
CONTINUOUS
370
    -3
100
AcDbLine
 10
13895.40216097
 20
-697.17659229
 30
-653.02014013
 11
13895.25571436
 21
-697.53014568
 31
-653.37369352
  0
LINE
  5
198
100
AcDbEntity
  8
Ech.1_5
 62
     7
  6
CONTINUOUS
370
    -3
100
AcDbLine
 10
13895.40216097
 20
-693.77659229
 30
-649.62014013
 11
13895.40216097
 21
-697.17659229
 31
-653.02014013
  0
LINE
  5
199
100
AcDbEntity
  8
Ech.1_5
 62
     7
  6
CONTINUOUS
370
    -3
100
AcDbLine
 10
13895.45272009
 20
-693.60992122
 30
-649.45346906
 11
13895.40216097
 21
-693.77659229
 31
-649.62014013
  0
LINE
  5
19A
100
AcDbEntity
  8
Ech.1_5
 62
     7
  6
CONTINUOUS
370
    -3
100
AcDbLine
 10
13910.18218388
 20
-691.67659229
 30
-647.52014013
 11
13870.18218388
 21
-691.67659229
 31
-647.52014013
  0
LINE
  5
19B
100
AcDbEntity
  8
Ech.1_5
 62
     7
  6
CONTINUOUS
370
    -3
100
AcDbLine
 10
13911.7618904
 20
-805.55019739
 30
-761.39374523
 11
13687.18217442
 21
-805.55019739
 31
-761.39374523
  0
LWPOLYLINE
  5
19C
100
AcDbEntity
  8
Ech.1_5
 62
     7
  6
CONTINUOUS
370
    -3
100
AcDbPolyline
 90
        4
 70
     0
 43
0.0
 10
13899.12514584
 20
-711.64548542
 10
13860.4201819
 20
-721.65213341
 10
13860.4201819
 20
-711.64636899
 10
13899.12514584
 20
-721.65124983
  0
LWPOLYLINE
  5
19D
102
{ACAD_REACTORS
330
19E
102
}
100
AcDbEntity
  8
Ech.1_5
 62
     7
  6
CONTINUOUS
370
     5
100
AcDbPolyline
 90
        4
 70
     1
 43
0.0
 10
13847.04266142
 20
-711.67082788
 10
13840.25367024
 20
-711.67082788
 10
13840.25367024
 20
-721.67659229
 10
13847.04266142
 20
-721.67659229
  0
HATCH
  5
19E
100
AcDbEntity
  8
Ech.1_5
 62
     2
  6
CONTINUOUS
100
AcDbHatch
 10
0.0
 20
0.0
 30
0.0
210
0.0
220
0.0
230
1.0
  2
SOLID
 70
     1
 71
     1
 91
        1
 92
        7
 72
     0
 73
     1
 93
        4
 10
13847.04266142
 20
-711.67082788
 10
13840.25367024
 20
-711.67082788
 10
13840.25367024
 20
-721.67659229
 10
13847.04266142
 20
-721.67659229
 97
        1
330
19D
 75
     0
 76
     2
 47
0.775229
 98
        1
 10
0.0
 20
0.0
  0
HATCH
  5
19F
100
AcDbEntity
  8
Ech.1_5
 62
     7
  6
CONTINUOUS
100
AcDbHatch
 10
0.0
 20
0.0
 30
0.0
210
0.0
220
0.0
230
1.0
  2
ANSI31
 70
     0
 71
     1
 91
        1
 92
        7
 72
     0
 73
     1
 93
        4
 10
13847.04266142
 20
-711.67082788
 10
13840.25367024
 20
-711.67082788
 10
13840.25367024
 20
-721.67659229
 10
13847.04266142
 20
-721.67659229
 97
        1
330
19E
 75
     0
 76
     2
 52
0.0
 41
0.94488785
 77
     0
 78
     1
 53
45.0
 43
0.0
 44
0.0
 45
2.12132043
 46
-2.12132043
 79
     0
 47
0.775229
 98
        1
 10
0.0
 20
0.0
  0
LWPOLYLINE
  5
1A0
100
AcDbEntity
  8
Ech.1_5
 62
     7
  6
CONTINUOUS
370
    70
100
AcDbPolyline
 90
        5
 70
     0
 43
0.0
 10
13835.25366933
 20
-724.79209473
 10
13835.25366933
 20
-745.35255827
 10
13612.18217442
 20
-767.51957005
 10
13612.18217442
 20
-823.6835374
 10
13617.18377673
 20
-809.86001653
  0
LWPOLYLINE
  5
1A1
100
AcDbEntity
  8
Ech.1_5
 62
     7
  6
CONTINUOUS
370
    -3
100
AcDbPolyline
 90
        6
 70
     0
 43
0.0
 10
13203.15929396
 20
-1035.67659229
 10
13203.15781814
 20
-824.56909286
 10
13185.18046973
 20
-808.08358971
 10
13221.13616974
 20
-822.19352972
 10
13203.15781814
 20
-805.70717564
 10
13203.15864042
 20
-598.67667896
  0
LWPOLYLINE
  5
1A2
100
AcDbEntity
  8
Ech.1_5
 62
     7
  6
CONTINUOUS
370
    -3
100
AcDbPolyline
 90
        4
 70
     0
 43
0.0
 10
13737.42049175
 20
-797.98567972
 10
13697.34868608
 20
-807.41878157
 10
13697.34868608
 20
-797.98612151
 10
13737.42049175
 20
-807.41833978
  0
LWPOLYLINE
  5
1A3
100
AcDbEntity
  8
Ech.1_5
 62
     7
  6
CONTINUOUS
370
    -3
100
AcDbPolyline
 90
        4
 70
     0
 43
0.0
 10
13911.7618904
 20
-797.98838274
 10
13810.52230141
 20
-807.42148459
 10
13810.52230141
 20
-797.98882453
 10
13911.7618904
 20
-807.42104281
  0
LWPOLYLINE
  5
1A4
102
{ACAD_REACTORS
330
1A5
102
}
100
AcDbEntity
  8
Ech.1_5
 62
     7
  6
CONTINUOUS
370
     5
100
AcDbPolyline
 90
        4
 70
     1
 43
0.0
 10
13683.97116561
 20
-797.98612151
 10
13677.18217442
 20
-797.98612151
 10
13677.18217442
 20
-807.41878157
 10
13683.97116561
 20
-807.41878157
  0
HATCH
  5
1A5
100
AcDbEntity
  8
Ech.1_5
 62
     2
  6
CONTINUOUS
100
AcDbHatch
 10
0.0
 20
0.0
 30
0.0
210
0.0
220
0.0
230
1.0
  2
SOLID
 70
     1
 71
     1
 91
        1
 92
        7
 72
     0
 73
     1
 93
        4
 10
13683.97116561
 20
-797.98612151
 10
13677.18217442
 20
-797.98612151
 10
13677.18217442
 20
-807.41878157
 10
13683.97116561
 20
-807.41878157
 97
        1
330
1A4
 75
     0
 76
     2
 47
0.775229
 98
        1
 10
0.0
 20
0.0
  0
HATCH
  5
1A6
100
AcDbEntity
  8
Ech.1_5
 62
     7
  6
CONTINUOUS
100
AcDbHatch
 10
0.0
 20
0.0
 30
0.0
210
0.0
220
0.0
230
1.0
  2
ANSI31
 70
     0
 71
     1
 91
        1
 92
        7
 72
     0
 73
     1
 93
        4
 10
13683.97116561
 20
-797.98612151
 10
13677.18217442
 20
-797.98612151
 10
13677.18217442
 20
-807.41878157
 10
13683.97116561
 20
-807.41878157
 97
        1
330
1A5
 75
     0
 76
     2
 52
0.0
 41
0.94488785
 77
     0
 78
     1
 53
45.0
 43
0.0
 44
0.0
 45
2.12132043
 46
-2.12132043
 79
     0
 47
0.775229
 98
        1
 10
0.0
 20
0.0
  0
LWPOLYLINE
  5
1A7
102
{ACAD_REACTORS
330
1A8
102
}
100
AcDbEntity
  8
Ech.1_5
 62
     7
  6
CONTINUOUS
370
    -3
100
AcDbPolyline
 90
        4
 70
     1
 43
0.0
 10
13553.18217442
 20
-711.66897222
 10
13553.18217442
 20
-736.67659229
 10
13403.18217442
 20
-736.67659229
 10
13403.18217442
 20
-711.66897222
  0
HATCH
  5
1A8
100
AcDbEntity
  8
Ech.1_5
 62
     7
  6
CONTINUOUS
100
AcDbHatch
 10
0.0
 20
0.0
 30
0.0
210
0.0
220
0.0
230
1.0
  2
tronco
 70
     0
 71
     1
 91
        1
 92
        7
 72
     0
 73
     1
 93
        4
 10
13553.18217442
 20
-711.66897222
 10
13553.18217442
 20
-736.67659229
 10
13403.18217442
 20
-736.67659229
 10
13403.18217442
 20
-711.66897222
 97
        1
330
1A7
 75
     0
 76
     2
 52
0.0
 41
1.0
 77
     0
 78
    99
 53
0.0
 43
24.74999905
 44
0.0
 45
70.71050167
 46
70.71050167
 79
     2
 49
21.21299982
 49
-49.49749947
 53
0.0
 43
24.74999905
 44
3.54999989
 45
70.71050167
 46
70.71050167
 79
     2
 49
21.21299982
 49
-49.49749947
 53
0.0
 43
28.29999924
 44
10.59999943
 45
70.71050167
 46
70.71050167
 79
     2
 49
14.14199948
 49
-56.56849861
 53
0.0
 43
31.80000067
 44
17.69999981
 45
70.71050167
 46
70.71050167
 79
     2
 49
10.60649991
 49
-60.10399818
 53
0.0
 43
31.80000067
 44
24.74999905
 45
70.71050167
 46
70.71050167
 79
     2
 49
7.07099974
 49
-63.63949776
 53
0.0
 43
14.14999962
 44
31.80000067
 45
70.71050167
 46
70.71050167
 79
     4
 49
3.53549987
 49
-17.67750025
 49
3.53549987
 49
-45.96199989
 53
0.0
 43
24.74999905
 44
35.35000086
 45
70.71050167
 46
70.71050167
 79
     4
 49
3.53549987
 49
-28.28449965
 49
10.60649991
 49
-28.28449965
 53
0.0
 43
38.90000105
 44
38.90000105
 45
70.71050167
 46
70.71050167
 79
     4
 49
3.53549987
 49
-3.53549987
 49
3.53549987
 49
-60.10399818
 53
0.0
 43
35.35000086
 44
42.44999886
 45
70.71050167
 46
70.71050167
 79
     2
 49
3.53549987
 49
-67.1750021
 53
0.0
 43
31.80000067
 44
49.49999809
 45
70.71050167
 46
70.71050167
 79
     2
 49
10.60649991
 49
-60.10399818
 53
0.0
 43
31.80000067
 44
56.5500021
 45
70.71050167
 46
70.71050167
 79
     2
 49
14.14199948
 49
-56.56849861
 53
0.0
 43
28.29999924
 44
63.64999771
 45
70.71050167
 46
70.71050167
 79
     4
 49
17.67750025
 49
-21.21299982
 49
3.53549987
 49
-28.28449965
 53
90.0
 43
0.0
 44
21.19999886
 45
-70.71050167
 46
70.71050167
 79
     4
 49
3.53549987
 49
-7.07099974
 49
17.67750025
 49
-42.42650032
 53
90.0
 43
3.54999989
 44
28.29999924
 45
-70.71050167
 46
70.71050167
 79
     4
 49
3.53549987
 49
-3.53549987
 49
10.60649991
 49
-53.03299904
 53
90.0
 43
7.04999983
 44
56.5500021
 45
-70.71050167
 46
70.71050167
 79
     2
 49
7.07099974
 49
-63.63949776
 53
90.0
 43
10.59999943
 44
28.29999924
 45
-70.71050167
 46
70.71050167
 79
     4
 49
14.14199948
 49
-21.21299982
 49
3.53549987
 49
-31.81999922
 53
90.0
 43
14.14999962
 44
67.1999979
 45
-70.71050167
 46
70.71050167
 79
     2
 49
3.53549987
 49
-67.1750021
 53
90.0
 43
17.69999981
 44
31.80000067
 45
-70.71050167
 46
70.71050167
 79
     2
 49
10.60649991
 49
-60.10399818
 53
90.0
 43
24.74999905
 44
35.35000086
 45
-70.71050167
 46
70.71050167
 79
     2
 49
7.07099974
 49
-63.63949776
 53
90.0
 43
31.80000067
 44
35.35000086
 45
-70.71050167
 46
70.71050167
 79
     4
 49
3.53549987
 49
-10.60649991
 49
10.60649991
 49
-45.96199989
 53
90.0
 43
35.35000086
 44
38.90000105
 45
-70.71050167
 46
70.71050167
 79
     2
 49
3.53549987
 49
-67.1750021
 53
90.0
 43
38.90000105
 44
24.74999905
 45
-70.71050167
 46
70.71050167
 79
     2
 49
9.89950001
 49
-60.81099987
 53
90.0
 43
42.44999886
 44
10.59999943
 45
-70.71050167
 46
70.71050167
 79
     2
 49
7.07099974
 49
-63.63949776
 53
90.0
 43
49.49999809
 44
38.90000105
 45
-70.71050167
 46
70.71050167
 79
     2
 49
3.53549987
 49
-67.1750021
 53
90.0
 43
56.5500021
 44
35.35000086
 45
-70.71050167
 46
70.71050167
 79
     2
 49
10.60649991
 49
-60.10399818
 53
90.0
 43
63.64999771
 44
35.35000086
 45
-70.71050167
 46
70.71050167
 79
     2
 49
10.60649991
 49
-60.10399818
 53
45.0
 43
53.04999828
 44
7.04999983
 45
4.4408920985006E-15
 46
70.71067812
 79
     4
 49
5.0
 49
-5.0
 49
5.0
 49
-85.0
 53
45.0
 43
38.90000105
 44
24.74999905
 45
4.4408920985006E-15
 46
70.71067812
 79
     2
 49
10.0
 49
-90.0
 53
45.0
 43
10.59999943
 44
60.10000229
 45
4.4408920985006E-15
 46
70.71067812
 79
     2
 49
10.0
 49
-90.0
 53
45.0
 43
24.74999905
 44
42.44999886
 45
4.4408920985006E-15
 46
70.71067812
 79
     2
 49
10.0
 49
-90.0
 53
45.0
 43
28.29999924
 44
28.29999924
 45
4.4408920985006E-15
 46
70.71067812
 79
     2
 49
10.0
 49
-90.0
 53
45.0
 43
49.49999809
 44
14.14999962
 45
4.4408920985006E-15
 46
70.71067812
 79
     2
 49
10.0
 49
-90.0
 53
45.0
 43
42.44999886
 44
17.69999981
 45
4.4408920985006E-15
 46
70.71067812
 79
     2
 49
15.0
 49
-85.0
 53
45.0
 43
21.19999886
 44
49.49999809
 45
4.4408920985006E-15
 46
70.71067812
 79
     2
 49
5.0
 49
-95.0
 53
45.0
 43
17.69999981
 44
56.5500021
 45
4.4408920985006E-15
 46
70.71067812
 79
     2
 49
5.0
 49
-95.0
 53
45.0
 43
45.9499979
 44
56.5500021
 45
4.4408920985006E-15
 46
70.71067812
 79
     2
 49
5.0
 49
-95.0
 53
45.0
 43
17.69999981
 44
21.19999886
 45
4.4408920985006E-15
 46
70.71067812
 79
     2
 49
5.0
 49
-95.0
 53
45.0
 43
56.5500021
 44
45.9499979
 45
4.4408920985006E-15
 46
70.71067812
 79
     2
 49
5.0
 49
-95.0
 53
45.0
 43
31.80000067
 44
38.90000105
 45
4.4408920985006E-15
 46
70.71067812
 79
     2
 49
5.0
 49
-95.0
 53
45.0
 43
38.90000105
 44
45.9499979
 45
4.4408920985006E-15
 46
70.71067812
 79
     2
 49
5.0
 49
-95.0
 53
135.0
 43
35.35000086
 44
31.80000067
 45
-70.71067812
 46
4.4408920985006E-15
 79
     4
 49
5.0
 49
-5.0
 49
15.0
 49
-75.0
 53
135.0
 43
45.9499979
 44
31.80000067
 45
-70.71067812
 46
4.4408920985006E-15
 79
     2
 49
5.0
 49
-95.0
 53
135.0
 43
45.9499979
 44
7.04999983
 45
-70.71067812
 46
4.4408920985006E-15
 79
     2
 49
5.0
 49
-95.0
 53
135.0
 43
31.80000067
 44
24.74999905
 45
-70.71067812
 46
4.4408920985006E-15
 79
     2
 49
5.0
 49
-95.0
 53
135.0
 43
42.44999886
 44
38.90000105
 45
-70.71067812
 46
4.4408920985006E-15
 79
     2
 49
5.0
 49
-95.0
 53
135.0
 43
24.74999905
 44
21.19999886
 45
-70.71067812
 46
4.4408920985006E-15
 79
     2
 49
5.0
 49
-95.0
 53
135.0
 43
53.04999828
 44
21.19999886
 45
-70.71067812
 46
4.4408920985006E-15
 79
     2
 49
5.0
 49
-95.0
 53
135.0
 43
3.54999989
 44
0.0
 45
-70.71067812
 46
4.4408920985006E-15
 79
     2
 49
5.0
 49
-95.0
 53
135.0
 43
7.04999983
 44
3.54999989
 45
-70.71067812
 46
4.4408920985006E-15
 79
     2
 49
10.0
 49
-90.0
 53
135.0
 43
10.59999943
 44
7.04999983
 45
-70.71067812
 46
4.4408920985006E-15
 79
     2
 49
10.0
 49
-90.0
 53
135.0
 43
17.69999981
 44
7.04999983
 45
-70.71067812
 46
4.4408920985006E-15
 79
     2
 49
10.0
 49
-90.0
 53
135.0
 43
21.19999886
 44
14.14999962
 45
-70.71067812
 46
4.4408920985006E-15
 79
     2
 49
10.0
 49
-90.0
 53
135.0
 43
49.49999809
 44
42.44999886
 45
-70.71067812
 46
4.4408920985006E-15
 79
     2
 49
10.0
 49
-90.0
 53
135.0
 43
63.64999771
 44
7.04999983
 45
-70.71067812
 46
4.4408920985006E-15
 79
     2
 49
10.0
 49
-90.0
 53
135.0
 43
67.1999979
 44
63.64999771
 45
-70.71067812
 46
4.4408920985006E-15
 79
     2
 49
10.0
 49
-90.0
 53
135.0
 43
67.1999979
 44
56.5500021
 45
-70.71067812
 46
4.4408920985006E-15
 79
     2
 49
10.0
 49
-90.0
 53
135.0
 43
60.10000229
 44
53.04999828
 45
-70.71067812
 46
4.4408920985006E-15
 79
     2
 49
10.0
 49
-90.0
 53
135.0
 43
10.59999943
 44
53.04999828
 45
-70.71067812
 46
4.4408920985006E-15
 79
     2
 49
15.0
 49
-85.0
 53
135.0
 43
56.5500021
 44
45.9499979
 45
-70.71067812
 46
4.4408920985006E-15
 79
     2
 49
15.0
 49
-85.0
 53
26.56509972
 43
17.69999981
 44
67.1999979
 45
-70.71073229
 46
0.00016401
 79
     2
 49
7.90549994
 49
-150.20850182
 53
26.56509972
 43
17.69999981
 44
31.80000067
 45
-70.71073229
 46
0.00016401
 79
     2
 49
7.90549994
 49
-150.20850182
 53
26.56509972
 43
24.74999905
 44
53.04999828
 45
-70.71073229
 46
0.00016401
 79
     2
 49
7.90549994
 49
-150.20850182
 53
26.56509972
 43
45.9499979
 44
3.54999989
 45
-70.71073229
 46
0.00016401
 79
     2
 49
7.90549994
 49
-150.20850182
 53
26.56509972
 43
42.44999886
 44
10.59999943
 45
-70.71073229
 46
0.00016401
 79
     2
 49
7.90549994
 49
-150.20850182
 53
26.56509972
 43
21.19999886
 44
24.74999905
 45
-70.71073229
 46
0.00016401
 79
     2
 49
7.90549994
 49
-150.20850182
 53
26.56509972
 43
21.19999886
 44
60.10000229
 45
-70.71073229
 46
0.00016401
 79
     2
 49
7.90549994
 49
-150.20850182
 53
26.56509972
 43
42.44999886
 44
38.90000105
 45
-70.71073229
 46
0.00016401
 79
     2
 49
15.81099987
 49
-142.3029995
 53
63.43489838
 43
42.44999886
 44
49.49999809
 45
-0.00016165
 46
70.71073229
 79
     2
 49
7.90549994
 49
-150.20850182
 53
63.43489838
 43
53.04999828
 44
28.29999924
 45
-0.00016165
 46
70.71073229
 79
     2
 49
7.90549994
 49
-150.20850182
 53
63.43489838
 43
17.69999981
 44
42.44999886
 45
-0.00016165
 46
70.71073229
 79
     2
 49
7.90549994
 49
-150.20850182
 53
63.43489838
 43
3.54999989
 44
45.9499979
 45
-0.00016165
 46
70.71073229
 79
     2
 49
7.90549994
 49
-150.20850182
 53
63.43489838
 43
45.9499979
 44
31.80000067
 45
-0.00016165
 46
70.71073229
 79
     2
 49
7.90549994
 49
-150.20850182
 53
63.43489838
 43
38.90000105
 44
31.80000067
 45
-0.00016165
 46
70.71073229
 79
     2
 49
7.90549994
 49
-150.20850182
 53
63.43489838
 43
10.59999943
 44
42.44999886
 45
-0.00016165
 46
70.71073229
 79
     2
 49
15.81099987
 49
-142.3029995
 53
63.43489838
 43
63.64999771
 44
17.69999981
 45
-0.00016165
 46
70.71073229
 79
     2
 49
15.81099987
 49
-142.3029995
 53
63.43489838
 43
56.5500021
 44
21.19999886
 45
-0.00016165
 46
70.71073229
 79
     2
 49
15.81099987
 49
-142.3029995
 53
116.56500244
 43
0.0
 44
10.59999943
 45
-0.00028406
 46
-70.71073229
 79
     2
 49
7.90549994
 49
-150.20850182
 53
116.56500244
 43
0.0
 44
49.49999809
 45
-0.00028406
 46
-70.71073229
 79
     2
 49
7.90549994
 49
-150.20850182
 53
116.56500244
 43
14.14999962
 44
0.0
 45
-0.00028406
 46
-70.71073229
 79
     2
 49
7.90549994
 49
-150.20850182
 53
116.56500244
 43
7.04999983
 44
63.64999771
 45
-0.00028406
 46
-70.71073229
 79
     2
 49
7.90549994
 49
-150.20850182
 53
116.56500244
 43
14.14999962
 44
21.19999886
 45
-0.00028406
 46
-70.71073229
 79
     2
 49
7.90549994
 49
-150.20850182
 53
116.56500244
 43
28.29999924
 44
28.29999924
 45
-0.00028406
 46
-70.71073229
 79
     2
 49
7.90549994
 49
-150.20850182
 53
116.56500244
 43
35.35000086
 44
42.44999886
 45
-0.00028406
 46
-70.71073229
 79
     2
 49
7.90549994
 49
-150.20850182
 53
116.56500244
 43
3.54999989
 44
14.14999962
 45
-0.00028406
 46
-70.71073229
 79
     2
 49
7.90549994
 49
-150.20850182
 53
116.56500244
 43
21.19999886
 44
24.74999905
 45
-0.00028406
 46
-70.71073229
 79
     2
 49
7.90549994
 49
-150.20850182
 53
116.56500244
 43
42.44999886
 44
17.69999981
 45
-0.00028406
 46
-70.71073229
 79
     2
 49
7.90549994
 49
-150.20850182
 53
116.56500244
 43
49.49999809
 44
24.74999905
 45
-0.00028406
 46
-70.71073229
 79
     2
 49
7.90549994
 49
-150.20850182
 53
116.56500244
 43
63.64999771
 44
45.9499979
 45
-0.00028406
 46
-70.71073229
 79
     2
 49
7.90549994
 49
-150.20850182
 53
116.56500244
 43
10.59999943
 44
67.1999979
 45
-0.00028406
 46
-70.71073229
 79
     2
 49
7.90549994
 49
-150.20850182
 53
116.56500244
 43
0.0
 44
63.64999771
 45
-0.00028406
 46
-70.71073229
 79
     2
 49
15.81099987
 49
-142.3029995
 53
116.56500244
 43
10.59999943
 44
14.14999962
 45
-0.00028406
 46
-70.71073229
 79
     2
 49
15.81099987
 49
-142.3029995
 53
153.43499756
 43
0.0
 44
3.54999989
 45
-70.71073229
 46
-0.00028406
 79
     2
 49
7.90549994
 49
-150.20850182
 53
153.43499756
 43
60.10000229
 44
0.0
 45
-70.71073229
 46
-0.00028406
 79
     2
 49
7.90549994
 49
-150.20850182
 53
153.43499756
 43
56.5500021
 44
35.35000086
 45
-70.71073229
 46
-0.00028406
 79
     2
 49
7.90549994
 49
-150.20850182
 53
153.43499756
 43
28.29999924
 44
10.59999943
 45
-70.71073229
 46
-0.00028406
 79
     2
 49
7.90549994
 49
-150.20850182
 53
153.43499756
 43
24.74999905
 44
3.54999989
 45
-70.71073229
 46
-0.00028406
 79
     2
 49
7.90549994
 49
-150.20850182
 53
153.43499756
 43
31.80000067
 44
17.69999981
 45
-70.71073229
 46
-0.00028406
 79
     2
 49
7.90549994
 49
-150.20850182
 53
153.43499756
 43
53.04999828
 44
60.10000229
 45
-70.71073229
 46
-0.00028406
 79
     2
 49
7.90549994
 49
-150.20850182
 53
153.43499756
 43
60.10000229
 44
63.64999771
 45
-70.71073229
 46
-0.00028406
 79
     2
 49
15.81099987
 49
-142.3029995
 47
0.775229
 98
        1
 10
0.0
 20
0.0
  0
LWPOLYLINE
  5
1A9
102
{ACAD_REACTORS
330
1AA
102
}
100
AcDbEntity
  8
Ech.1_5
 62
     7
  6
CONTINUOUS
370
    -3
100
AcDbPolyline
 90
        4
 70
     1
 43
0.0
 10
13397.18217442
 20
-711.66897222
 10
13397.18217442
 20
-736.67659229
 10
13247.18217442
 20
-736.67659229
 10
13247.18217442
 20
-711.66897222
  0
HATCH
  5
1AA
100
AcDbEntity
  8
Ech.1_5
 62
     7
  6
CONTINUOUS
100
AcDbHatch
 10
0.0
 20
0.0
 30
0.0
210
0.0
220
0.0
230
1.0
  2
tronco
 70
     0
 71
     1
 91
        1
 92
        7
 72
     0
 73
     1
 93
        4
 10
13397.18217442
 20
-711.66897222
 10
13397.18217442
 20
-736.67659229
 10
13247.18217442
 20
-736.67659229
 10
13247.18217442
 20
-711.66897222
 97
        1
330
1A9
 75
     0
 76
     2
 52
0.0
 41
1.0
 77
     0
 78
    99
 53
0.0
 43
24.74999905
 44
0.0
 45
70.71050167
 46
70.71050167
 79
     2
 49
21.21299982
 49
-49.49749947
 53
0.0
 43
24.74999905
 44
3.54999989
 45
70.71050167
 46
70.71050167
 79
     2
 49
21.21299982
 49
-49.49749947
 53
0.0
 43
28.29999924
 44
10.59999943
 45
70.71050167
 46
70.71050167
 79
     2
 49
14.14199948
 49
-56.56849861
 53
0.0
 43
31.80000067
 44
17.69999981
 45
70.71050167
 46
70.71050167
 79
     2
 49
10.60649991
 49
-60.10399818
 53
0.0
 43
31.80000067
 44
24.74999905
 45
70.71050167
 46
70.71050167
 79
     2
 49
7.07099974
 49
-63.63949776
 53
0.0
 43
14.14999962
 44
31.80000067
 45
70.71050167
 46
70.71050167
 79
     4
 49
3.53549987
 49
-17.67750025
 49
3.53549987
 49
-45.96199989
 53
0.0
 43
24.74999905
 44
35.35000086
 45
70.71050167
 46
70.71050167
 79
     4
 49
3.53549987
 49
-28.28449965
 49
10.60649991
 49
-28.28449965
 53
0.0
 43
38.90000105
 44
38.90000105
 45
70.71050167
 46
70.71050167
 79
     4
 49
3.53549987
 49
-3.53549987
 49
3.53549987
 49
-60.10399818
 53
0.0
 43
35.35000086
 44
42.44999886
 45
70.71050167
 46
70.71050167
 79
     2
 49
3.53549987
 49
-67.1750021
 53
0.0
 43
31.80000067
 44
49.49999809
 45
70.71050167
 46
70.71050167
 79
     2
 49
10.60649991
 49
-60.10399818
 53
0.0
 43
31.80000067
 44
56.5500021
 45
70.71050167
 46
70.71050167
 79
     2
 49
14.14199948
 49
-56.56849861
 53
0.0
 43
28.29999924
 44
63.64999771
 45
70.71050167
 46
70.71050167
 79
     4
 49
17.67750025
 49
-21.21299982
 49
3.53549987
 49
-28.28449965
 53
90.0
 43
0.0
 44
21.19999886
 45
-70.71050167
 46
70.71050167
 79
     4
 49
3.53549987
 49
-7.07099974
 49
17.67750025
 49
-42.42650032
 53
90.0
 43
3.54999989
 44
28.29999924
 45
-70.71050167
 46
70.71050167
 79
     4
 49
3.53549987
 49
-3.53549987
 49
10.60649991
 49
-53.03299904
 53
90.0
 43
7.04999983
 44
56.5500021
 45
-70.71050167
 46
70.71050167
 79
     2
 49
7.07099974
 49
-63.63949776
 53
90.0
 43
10.59999943
 44
28.29999924
 45
-70.71050167
 46
70.71050167
 79
     4
 49
14.14199948
 49
-21.21299982
 49
3.53549987
 49
-31.81999922
 53
90.0
 43
14.14999962
 44
67.1999979
 45
-70.71050167
 46
70.71050167
 79
     2
 49
3.53549987
 49
-67.1750021
 53
90.0
 43
17.69999981
 44
31.80000067
 45
-70.71050167
 46
70.71050167
 79
     2
 49
10.60649991
 49
-60.10399818
 53
90.0
 43
24.74999905
 44
35.35000086
 45
-70.71050167
 46
70.71050167
 79
     2
 49
7.07099974
 49
-63.63949776
 53
90.0
 43
31.80000067
 44
35.35000086
 45
-70.71050167
 46
70.71050167
 79
     4
 49
3.53549987
 49
-10.60649991
 49
10.60649991
 49
-45.96199989
 53
90.0
 43
35.35000086
 44
38.90000105
 45
-70.71050167
 46
70.71050167
 79
     2
 49
3.53549987
 49
-67.1750021
 53
90.0
 43
38.90000105
 44
24.74999905
 45
-70.71050167
 46
70.71050167
 79
     2
 49
9.89950001
 49
-60.81099987
 53
90.0
 43
42.44999886
 44
10.59999943
 45
-70.71050167
 46
70.71050167
 79
     2
 49
7.07099974
 49
-63.63949776
 53
90.0
 43
49.49999809
 44
38.90000105
 45
-70.71050167
 46
70.71050167
 79
     2
 49
3.53549987
 49
-67.1750021
 53
90.0
 43
56.5500021
 44
35.35000086
 45
-70.71050167
 46
70.71050167
 79
     2
 49
10.60649991
 49
-60.10399818
 53
90.0
 43
63.64999771
 44
35.35000086
 45
-70.71050167
 46
70.71050167
 79
     2
 49
10.60649991
 49
-60.10399818
 53
45.0
 43
53.04999828
 44
7.04999983
 45
4.4408920985006E-15
 46
70.71067812
 79
     4
 49
5.0
 49
-5.0
 49
5.0
 49
-85.0
 53
45.0
 43
38.90000105
 44
24.74999905
 45
4.4408920985006E-15
 46
70.71067812
 79
     2
 49
10.0
 49
-90.0
 53
45.0
 43
10.59999943
 44
60.10000229
 45
4.4408920985006E-15
 46
70.71067812
 79
     2
 49
10.0
 49
-90.0
 53
45.0
 43
24.74999905
 44
42.44999886
 45
4.4408920985006E-15
 46
70.71067812
 79
     2
 49
10.0
 49
-90.0
 53
45.0
 43
28.29999924
 44
28.29999924
 45
4.4408920985006E-15
 46
70.71067812
 79
     2
 49
10.0
 49
-90.0
 53
45.0
 43
49.49999809
 44
14.14999962
 45
4.4408920985006E-15
 46
70.71067812
 79
     2
 49
10.0
 49
-90.0
 53
45.0
 43
42.44999886
 44
17.69999981
 45
4.4408920985006E-15
 46
70.71067812
 79
     2
 49
15.0
 49
-85.0
 53
45.0
 43
21.19999886
 44
49.49999809
 45
4.4408920985006E-15
 46
70.71067812
 79
     2
 49
5.0
 49
-95.0
 53
45.0
 43
17.69999981
 44
56.5500021
 45
4.4408920985006E-15
 46
70.71067812
 79
     2
 49
5.0
 49
-95.0
 53
45.0
 43
45.9499979
 44
56.5500021
 45
4.4408920985006E-15
 46
70.71067812
 79
     2
 49
5.0
 49
-95.0
 53
45.0
 43
17.69999981
 44
21.19999886
 45
4.4408920985006E-15
 46
70.71067812
 79
     2
 49
5.0
 49
-95.0
 53
45.0
 43
56.5500021
 44
45.9499979
 45
4.4408920985006E-15
 46
70.71067812
 79
     2
 49
5.0
 49
-95.0
 53
45.0
 43
31.80000067
 44
38.90000105
 45
4.4408920985006E-15
 46
70.71067812
 79
     2
 49
5.0
 49
-95.0
 53
45.0
 43
38.90000105
 44
45.9499979
 45
4.4408920985006E-15
 46
70.71067812
 79
     2
 49
5.0
 49
-95.0
 53
135.0
 43
35.35000086
 44
31.80000067
 45
-70.71067812
 46
4.4408920985006E-15
 79
     4
 49
5.0
 49
-5.0
 49
15.0
 49
-75.0
 53
135.0
 43
45.9499979
 44
31.80000067
 45
-70.71067812
 46
4.4408920985006E-15
 79
     2
 49
5.0
 49
-95.0
 53
135.0
 43
45.9499979
 44
7.04999983
 45
-70.71067812
 46
4.4408920985006E-15
 79
     2
 49
5.0
 49
-95.0
 53
135.0
 43
31.80000067
 44
24.74999905
 45
-70.71067812
 46
4.4408920985006E-15
 79
     2
 49
5.0
 49
-95.0
 53
135.0
 43
42.44999886
 44
38.90000105
 45
-70.71067812
 46
4.4408920985006E-15
 79
     2
 49
5.0
 49
-95.0
 53
135.0
 43
24.74999905
 44
21.19999886
 45
-70.71067812
 46
4.4408920985006E-15
 79
     2
 49
5.0
 49
-95.0
 53
135.0
 43
53.04999828
 44
21.19999886
 45
-70.71067812
 46
4.4408920985006E-15
 79
     2
 49
5.0
 49
-95.0
 53
135.0
 43
3.54999989
 44
0.0
 45
-70.71067812
 46
4.4408920985006E-15
 79
     2
 49
5.0
 49
-95.0
 53
135.0
 43
7.04999983
 44
3.54999989
 45
-70.71067812
 46
4.4408920985006E-15
 79
     2
 49
10.0
 49
-90.0
 53
135.0
 43
10.59999943
 44
7.04999983
 45
-70.71067812
 46
4.4408920985006E-15
 79
     2
 49
10.0
 49
-90.0
 53
135.0
 43
17.69999981
 44
7.04999983
 45
-70.71067812
 46
4.4408920985006E-15
 79
     2
 49
10.0
 49
-90.0
 53
135.0
 43
21.19999886
 44
14.14999962
 45
-70.71067812
 46
4.4408920985006E-15
 79
     2
 49
10.0
 49
-90.0
 53
135.0
 43
49.49999809
 44
42.44999886
 45
-70.71067812
 46
4.4408920985006E-15
 79
     2
 49
10.0
 49
-90.0
 53
135.0
 43
63.64999771
 44
7.04999983
 45
-70.71067812
 46
4.4408920985006E-15
 79
     2
 49
10.0
 49
-90.0
 53
135.0
 43
67.1999979
 44
63.64999771
 45
-70.71067812
 46
4.4408920985006E-15
 79
     2
 49
10.0
 49
-90.0
 53
135.0
 43
67.1999979
 44
56.5500021
 45
-70.71067812
 46
4.4408920985006E-15
 79
     2
 49
10.0
 49
-90.0
 53
135.0
 43
60.10000229
 44
53.04999828
 45
-70.71067812
 46
4.4408920985006E-15
 79
     2
 49
10.0
 49
-90.0
 53
135.0
 43
10.59999943
 44
53.04999828
 45
-70.71067812
 46
4.4408920985006E-15
 79
     2
 49
15.0
 49
-85.0
 53
135.0
 43
56.5500021
 44
45.9499979
 45
-70.71067812
 46
4.4408920985006E-15
 79
     2
 49
15.0
 49
-85.0
 53
26.56509972
 43
17.69999981
 44
67.1999979
 45
-70.71073229
 46
0.00016401
 79
     2
 49
7.90549994
 49
-150.20850182
 53
26.56509972
 43
17.69999981
 44
31.80000067
 45
-70.71073229
 46
0.00016401
 79
     2
 49
7.90549994
 49
-150.20850182
 53
26.56509972
 43
24.74999905
 44
53.04999828
 45
-70.71073229
 46
0.00016401
 79
     2
 49
7.90549994
 49
-150.20850182
 53
26.56509972
 43
45.9499979
 44
3.54999989
 45
-70.71073229
 46
0.00016401
 79
     2
 49
7.90549994
 49
-150.20850182
 53
26.56509972
 43
42.44999886
 44
10.59999943
 45
-70.71073229
 46
0.00016401
 79
     2
 49
7.90549994
 49
-150.20850182
 53
26.56509972
 43
21.19999886
 44
24.74999905
 45
-70.71073229
 46
0.00016401
 79
     2
 49
7.90549994
 49
-150.20850182
 53
26.56509972
 43
21.19999886
 44
60.10000229
 45
-70.71073229
 46
0.00016401
 79
     2
 49
7.90549994
 49
-150.20850182
 53
26.56509972
 43
42.44999886
 44
38.90000105
 45
-70.71073229
 46
0.00016401
 79
     2
 49
15.81099987
 49
-142.3029995
 53
63.43489838
 43
42.44999886
 44
49.49999809
 45
-0.00016165
 46
70.71073229
 79
     2
 49
7.90549994
 49
-150.20850182
 53
63.43489838
 43
53.04999828
 44
28.29999924
 45
-0.00016165
 46
70.71073229
 79
     2
 49
7.90549994
 49
-150.20850182
 53
63.43489838
 43
17.69999981
 44
42.44999886
 45
-0.00016165
 46
70.71073229
 79
     2
 49
7.90549994
 49
-150.20850182
 53
63.43489838
 43
3.54999989
 44
45.9499979
 45
-0.00016165
 46
70.71073229
 79
     2
 49
7.90549994
 49
-150.20850182
 53
63.43489838
 43
45.9499979
 44
31.80000067
 45
-0.00016165
 46
70.71073229
 79
     2
 49
7.90549994
 49
-150.20850182
 53
63.43489838
 43
38.90000105
 44
31.80000067
 45
-0.00016165
 46
70.71073229
 79
     2
 49
7.90549994
 49
-150.20850182
 53
63.43489838
 43
10.59999943
 44
42.44999886
 45
-0.00016165
 46
70.71073229
 79
     2
 49
15.81099987
 49
-142.3029995
 53
63.43489838
 43
63.64999771
 44
17.69999981
 45
-0.00016165
 46
70.71073229
 79
     2
 49
15.81099987
 49
-142.3029995
 53
63.43489838
 43
56.5500021
 44
21.19999886
 45
-0.00016165
 46
70.71073229
 79
     2
 49
15.81099987
 49
-142.3029995
 53
116.56500244
 43
0.0
 44
10.59999943
 45
-0.00028406
 46
-70.71073229
 79
     2
 49
7.90549994
 49
-150.20850182
 53
116.56500244
 43
0.0
 44
49.49999809
 45
-0.00028406
 46
-70.71073229
 79
     2
 49
7.90549994
 49
-150.20850182
 53
116.56500244
 43
14.14999962
 44
0.0
 45
-0.00028406
 46
-70.71073229
 79
     2
 49
7.90549994
 49
-150.20850182
 53
116.56500244
 43
7.04999983
 44
63.64999771
 45
-0.00028406
 46
-70.71073229
 79
     2
 49
7.90549994
 49
-150.20850182
 53
116.56500244
 43
14.14999962
 44
21.19999886
 45
-0.00028406
 46
-70.71073229
 79
     2
 49
7.90549994
 49
-150.20850182
 53
116.56500244
 43
28.29999924
 44
28.29999924
 45
-0.00028406
 46
-70.71073229
 79
     2
 49
7.90549994
 49
-150.20850182
 53
116.56500244
 43
35.35000086
 44
42.44999886
 45
-0.00028406
 46
-70.71073229
 79
     2
 49
7.90549994
 49
-150.20850182
 53
116.56500244
 43
3.54999989
 44
14.14999962
 45
-0.00028406
 46
-70.71073229
 79
     2
 49
7.90549994
 49
-150.20850182
 53
116.56500244
 43
21.19999886
 44
24.74999905
 45
-0.00028406
 46
-70.71073229
 79
     2
 49
7.90549994
 49
-150.20850182
 53
116.56500244
 43
42.44999886
 44
17.69999981
 45
-0.00028406
 46
-70.71073229
 79
     2
 49
7.90549994
 49
-150.20850182
 53
116.56500244
 43
49.49999809
 44
24.74999905
 45
-0.00028406
 46
-70.71073229
 79
     2
 49
7.90549994
 49
-150.20850182
 53
116.56500244
 43
63.64999771
 44
45.9499979
 45
-0.00028406
 46
-70.71073229
 79
     2
 49
7.90549994
 49
-150.20850182
 53
116.56500244
 43
10.59999943
 44
67.1999979
 45
-0.00028406
 46
-70.71073229
 79
     2
 49
7.90549994
 49
-150.20850182
 53
116.56500244
 43
0.0
 44
63.64999771
 45
-0.00028406
 46
-70.71073229
 79
     2
 49
15.81099987
 49
-142.3029995
 53
116.56500244
 43
10.59999943
 44
14.14999962
 45
-0.00028406
 46
-70.71073229
 79
     2
 49
15.81099987
 49
-142.3029995
 53
153.43499756
 43
0.0
 44
3.54999989
 45
-70.71073229
 46
-0.00028406
 79
     2
 49
7.90549994
 49
-150.20850182
 53
153.43499756
 43
60.10000229
 44
0.0
 45
-70.71073229
 46
-0.00028406
 79
     2
 49
7.90549994
 49
-150.20850182
 53
153.43499756
 43
56.5500021
 44
35.35000086
 45
-70.71073229
 46
-0.00028406
 79
     2
 49
7.90549994
 49
-150.20850182
 53
153.43499756
 43
28.29999924
 44
10.59999943
 45
-70.71073229
 46
-0.00028406
 79
     2
 49
7.90549994
 49
-150.20850182
 53
153.43499756
 43
24.74999905
 44
3.54999989
 45
-70.71073229
 46
-0.00028406
 79
     2
 49
7.90549994
 49
-150.20850182
 53
153.43499756
 43
31.80000067
 44
17.69999981
 45
-70.71073229
 46
-0.00028406
 79
     2
 49
7.90549994
 49
-150.20850182
 53
153.43499756
 43
53.04999828
 44
60.10000229
 45
-70.71073229
 46
-0.00028406
 79
     2
 49
7.90549994
 49
-150.20850182
 53
153.43499756
 43
60.10000229
 44
63.64999771
 45
-70.71073229
 46
-0.00028406
 79
     2
 49
15.81099987
 49
-142.3029995
 47
0.775229
 98
        1
 10
0.0
 20
0.0
  0
LWPOLYLINE
  5
1AB
102
{ACAD_REACTORS
330
1AC
102
}
100
AcDbEntity
  8
Ech.1_5
 62
     7
  6
CONTINUOUS
370
    -3
100
AcDbPolyline
 90
        4
 70
     1
 43
0.0
 10
13241.18217442
 20
-736.67659229
 10
13241.18217442
 20
-711.66897222
 10
13203.15864042
 20
-711.66897222
 10
13203.15864042
 20
-736.67659229
  0
HATCH
  5
1AC
100
AcDbEntity
  8
Ech.1_5
 62
     7
  6
CONTINUOUS
100
AcDbHatch
 10
0.0
 20
0.0
 30
0.0
210
0.0
220
0.0
230
1.0
  2
tronco
 70
     0
 71
     1
 91
        1
 92
        7
 72
     0
 73
     1
 93
        4
 10
13241.18217442
 20
-736.67659229
 10
13241.18217442
 20
-711.66897222
 10
13203.15864042
 20
-711.66897222
 10
13203.15864042
 20
-736.67659229
 97
        1
330
1AB
 75
     0
 76
     2
 52
0.0
 41
1.0
 77
     0
 78
    99
 53
0.0
 43
24.74999905
 44
0.0
 45
70.71050167
 46
70.71050167
 79
     2
 49
21.21299982
 49
-49.49749947
 53
0.0
 43
24.74999905
 44
3.54999989
 45
70.71050167
 46
70.71050167
 79
     2
 49
21.21299982
 49
-49.49749947
 53
0.0
 43
28.29999924
 44
10.59999943
 45
70.71050167
 46
70.71050167
 79
     2
 49
14.14199948
 49
-56.56849861
 53
0.0
 43
31.80000067
 44
17.69999981
 45
70.71050167
 46
70.71050167
 79
     2
 49
10.60649991
 49
-60.10399818
 53
0.0
 43
31.80000067
 44
24.74999905
 45
70.71050167
 46
70.71050167
 79
     2
 49
7.07099974
 49
-63.63949776
 53
0.0
 43
14.14999962
 44
31.80000067
 45
70.71050167
 46
70.71050167
 79
     4
 49
3.53549987
 49
-17.67750025
 49
3.53549987
 49
-45.96199989
 53
0.0
 43
24.74999905
 44
35.35000086
 45
70.71050167
 46
70.71050167
 79
     4
 49
3.53549987
 49
-28.28449965
 49
10.60649991
 49
-28.28449965
 53
0.0
 43
38.90000105
 44
38.90000105
 45
70.71050167
 46
70.71050167
 79
     4
 49
3.53549987
 49
-3.53549987
 49
3.53549987
 49
-60.10399818
 53
0.0
 43
35.35000086
 44
42.44999886
 45
70.71050167
 46
70.71050167
 79
     2
 49
3.53549987
 49
-67.1750021
 53
0.0
 43
31.80000067
 44
49.49999809
 45
70.71050167
 46
70.71050167
 79
     2
 49
10.60649991
 49
-60.10399818
 53
0.0
 43
31.80000067
 44
56.5500021
 45
70.71050167
 46
70.71050167
 79
     2
 49
14.14199948
 49
-56.56849861
 53
0.0
 43
28.29999924
 44
63.64999771
 45
70.71050167
 46
70.71050167
 79
     4
 49
17.67750025
 49
-21.21299982
 49
3.53549987
 49
-28.28449965
 53
90.0
 43
0.0
 44
21.19999886
 45
-70.71050167
 46
70.71050167
 79
     4
 49
3.53549987
 49
-7.07099974
 49
17.67750025
 49
-42.42650032
 53
90.0
 43
3.54999989
 44
28.29999924
 45
-70.71050167
 46
70.71050167
 79
     4
 49
3.53549987
 49
-3.53549987
 49
10.60649991
 49
-53.03299904
 53
90.0
 43
7.04999983
 44
56.5500021
 45
-70.71050167
 46
70.71050167
 79
     2
 49
7.07099974
 49
-63.63949776
 53
90.0
 43
10.59999943
 44
28.29999924
 45
-70.71050167
 46
70.71050167
 79
     4
 49
14.14199948
 49
-21.21299982
 49
3.53549987
 49
-31.81999922
 53
90.0
 43
14.14999962
 44
67.1999979
 45
-70.71050167
 46
70.71050167
 79
     2
 49
3.53549987
 49
-67.1750021
 53
90.0
 43
17.69999981
 44
31.80000067
 45
-70.71050167
 46
70.71050167
 79
     2
 49
10.60649991
 49
-60.10399818
 53
90.0
 43
24.74999905
 44
35.35000086
 45
-70.71050167
 46
70.71050167
 79
     2
 49
7.07099974
 49
-63.63949776
 53
90.0
 43
31.80000067
 44
35.35000086
 45
-70.71050167
 46
70.71050167
 79
     4
 49
3.53549987
 49
-10.60649991
 49
10.60649991
 49
-45.96199989
 53
90.0
 43
35.35000086
 44
38.90000105
 45
-70.71050167
 46
70.71050167
 79
     2
 49
3.53549987
 49
-67.1750021
 53
90.0
 43
38.90000105
 44
24.74999905
 45
-70.71050167
 46
70.71050167
 79
     2
 49
9.89950001
 49
-60.81099987
 53
90.0
 43
42.44999886
 44
10.59999943
 45
-70.71050167
 46
70.71050167
 79
     2
 49
7.07099974
 49
-63.63949776
 53
90.0
 43
49.49999809
 44
38.90000105
 45
-70.71050167
 46
70.71050167
 79
     2
 49
3.53549987
 49
-67.1750021
 53
90.0
 43
56.5500021
 44
35.35000086
 45
-70.71050167
 46
70.71050167
 79
     2
 49
10.60649991
 49
-60.10399818
 53
90.0
 43
63.64999771
 44
35.35000086
 45
-70.71050167
 46
70.71050167
 79
     2
 49
10.60649991
 49
-60.10399818
 53
45.0
 43
53.04999828
 44
7.04999983
 45
4.4408920985006E-15
 46
70.71067812
 79
     4
 49
5.0
 49
-5.0
 49
5.0
 49
-85.0
 53
45.0
 43
38.90000105
 44
24.74999905
 45
4.4408920985006E-15
 46
70.71067812
 79
     2
 49
10.0
 49
-90.0
 53
45.0
 43
10.59999943
 44
60.10000229
 45
4.4408920985006E-15
 46
70.71067812
 79
     2
 49
10.0
 49
-90.0
 53
45.0
 43
24.74999905
 44
42.44999886
 45
4.4408920985006E-15
 46
70.71067812
 79
     2
 49
10.0
 49
-90.0
 53
45.0
 43
28.29999924
 44
28.29999924
 45
4.4408920985006E-15
 46
70.71067812
 79
     2
 49
10.0
 49
-90.0
 53
45.0
 43
49.49999809
 44
14.14999962
 45
4.4408920985006E-15
 46
70.71067812
 79
     2
 49
10.0
 49
-90.0
 53
45.0
 43
42.44999886
 44
17.69999981
 45
4.4408920985006E-15
 46
70.71067812
 79
     2
 49
15.0
 49
-85.0
 53
45.0
 43
21.19999886
 44
49.49999809
 45
4.4408920985006E-15
 46
70.71067812
 79
     2
 49
5.0
 49
-95.0
 53
45.0
 43
17.69999981
 44
56.5500021
 45
4.4408920985006E-15
 46
70.71067812
 79
     2
 49
5.0
 49
-95.0
 53
45.0
 43
45.9499979
 44
56.5500021
 45
4.4408920985006E-15
 46
70.71067812
 79
     2
 49
5.0
 49
-95.0
 53
45.0
 43
17.69999981
 44
21.19999886
 45
4.4408920985006E-15
 46
70.71067812
 79
     2
 49
5.0
 49
-95.0
 53
45.0
 43
56.5500021
 44
45.9499979
 45
4.4408920985006E-15
 46
70.71067812
 79
     2
 49
5.0
 49
-95.0
 53
45.0
 43
31.80000067
 44
38.90000105
 45
4.4408920985006E-15
 46
70.71067812
 79
     2
 49
5.0
 49
-95.0
 53
45.0
 43
38.90000105
 44
45.9499979
 45
4.4408920985006E-15
 46
70.71067812
 79
     2
 49
5.0
 49
-95.0
 53
135.0
 43
35.35000086
 44
31.80000067
 45
-70.71067812
 46
4.4408920985006E-15
 79
     4
 49
5.0
 49
-5.0
 49
15.0
 49
-75.0
 53
135.0
 43
45.9499979
 44
31.80000067
 45
-70.71067812
 46
4.4408920985006E-15
 79
     2
 49
5.0
 49
-95.0
 53
135.0
 43
45.9499979
 44
7.04999983
 45
-70.71067812
 46
4.4408920985006E-15
 79
     2
 49
5.0
 49
-95.0
 53
135.0
 43
31.80000067
 44
24.74999905
 45
-70.71067812
 46
4.4408920985006E-15
 79
     2
 49
5.0
 49
-95.0
 53
135.0
 43
42.44999886
 44
38.90000105
 45
-70.71067812
 46
4.4408920985006E-15
 79
     2
 49
5.0
 49
-95.0
 53
135.0
 43
24.74999905
 44
21.19999886
 45
-70.71067812
 46
4.4408920985006E-15
 79
     2
 49
5.0
 49
-95.0
 53
135.0
 43
53.04999828
 44
21.19999886
 45
-70.71067812
 46
4.4408920985006E-15
 79
     2
 49
5.0
 49
-95.0
 53
135.0
 43
3.54999989
 44
0.0
 45
-70.71067812
 46
4.4408920985006E-15
 79
     2
 49
5.0
 49
-95.0
 53
135.0
 43
7.04999983
 44
3.54999989
 45
-70.71067812
 46
4.4408920985006E-15
 79
     2
 49
10.0
 49
-90.0
 53
135.0
 43
10.59999943
 44
7.04999983
 45
-70.71067812
 46
4.4408920985006E-15
 79
     2
 49
10.0
 49
-90.0
 53
135.0
 43
17.69999981
 44
7.04999983
 45
-70.71067812
 46
4.4408920985006E-15
 79
     2
 49
10.0
 49
-90.0
 53
135.0
 43
21.19999886
 44
14.14999962
 45
-70.71067812
 46
4.4408920985006E-15
 79
     2
 49
10.0
 49
-90.0
 53
135.0
 43
49.49999809
 44
42.44999886
 45
-70.71067812
 46
4.4408920985006E-15
 79
     2
 49
10.0
 49
-90.0
 53
135.0
 43
63.64999771
 44
7.04999983
 45
-70.71067812
 46
4.4408920985006E-15
 79
     2
 49
10.0
 49
-90.0
 53
135.0
 43
67.1999979
 44
63.64999771
 45
-70.71067812
 46
4.4408920985006E-15
 79
     2
 49
10.0
 49
-90.0
 53
135.0
 43
67.1999979
 44
56.5500021
 45
-70.71067812
 46
4.4408920985006E-15
 79
     2
 49
10.0
 49
-90.0
 53
135.0
 43
60.10000229
 44
53.04999828
 45
-70.71067812
 46
4.4408920985006E-15
 79
     2
 49
10.0
 49
-90.0
 53
135.0
 43
10.59999943
 44
53.04999828
 45
-70.71067812
 46
4.4408920985006E-15
 79
     2
 49
15.0
 49
-85.0
 53
135.0
 43
56.5500021
 44
45.9499979
 45
-70.71067812
 46
4.4408920985006E-15
 79
     2
 49
15.0
 49
-85.0
 53
26.56509972
 43
17.69999981
 44
67.1999979
 45
-70.71073229
 46
0.00016401
 79
     2
 49
7.90549994
 49
-150.20850182
 53
26.56509972
 43
17.69999981
 44
31.80000067
 45
-70.71073229
 46
0.00016401
 79
     2
 49
7.90549994
 49
-150.20850182
 53
26.56509972
 43
24.74999905
 44
53.04999828
 45
-70.71073229
 46
0.00016401
 79
     2
 49
7.90549994
 49
-150.20850182
 53
26.56509972
 43
45.9499979
 44
3.54999989
 45
-70.71073229
 46
0.00016401
 79
     2
 49
7.90549994
 49
-150.20850182
 53
26.56509972
 43
42.44999886
 44
10.59999943
 45
-70.71073229
 46
0.00016401
 79
     2
 49
7.90549994
 49
-150.20850182
 53
26.56509972
 43
21.19999886
 44
24.74999905
 45
-70.71073229
 46
0.00016401
 79
     2
 49
7.90549994
 49
-150.20850182
 53
26.56509972
 43
21.19999886
 44
60.10000229
 45
-70.71073229
 46
0.00016401
 79
     2
 49
7.90549994
 49
-150.20850182
 53
26.56509972
 43
42.44999886
 44
38.90000105
 45
-70.71073229
 46
0.00016401
 79
     2
 49
15.81099987
 49
-142.3029995
 53
63.43489838
 43
42.44999886
 44
49.49999809
 45
-0.00016165
 46
70.71073229
 79
     2
 49
7.90549994
 49
-150.20850182
 53
63.43489838
 43
53.04999828
 44
28.29999924
 45
-0.00016165
 46
70.71073229
 79
     2
 49
7.90549994
 49
-150.20850182
 53
63.43489838
 43
17.69999981
 44
42.44999886
 45
-0.00016165
 46
70.71073229
 79
     2
 49
7.90549994
 49
-150.20850182
 53
63.43489838
 43
3.54999989
 44
45.9499979
 45
-0.00016165
 46
70.71073229
 79
     2
 49
7.90549994
 49
-150.20850182
 53
63.43489838
 43
45.9499979
 44
31.80000067
 45
-0.00016165
 46
70.71073229
 79
     2
 49
7.90549994
 49
-150.20850182
 53
63.43489838
 43
38.90000105
 44
31.80000067
 45
-0.00016165
 46
70.71073229
 79
     2
 49
7.90549994
 49
-150.20850182
 53
63.43489838
 43
10.59999943
 44
42.44999886
 45
-0.00016165
 46
70.71073229
 79
     2
 49
15.81099987
 49
-142.3029995
 53
63.43489838
 43
63.64999771
 44
17.69999981
 45
-0.00016165
 46
70.71073229
 79
     2
 49
15.81099987
 49
-142.3029995
 53
63.43489838
 43
56.5500021
 44
21.19999886
 45
-0.00016165
 46
70.71073229
 79
     2
 49
15.81099987
 49
-142.3029995
 53
116.56500244
 43
0.0
 44
10.59999943
 45
-0.00028406
 46
-70.71073229
 79
     2
 49
7.90549994
 49
-150.20850182
 53
116.56500244
 43
0.0
 44
49.49999809
 45
-0.00028406
 46
-70.71073229
 79
     2
 49
7.90549994
 49
-150.20850182
 53
116.56500244
 43
14.14999962
 44
0.0
 45
-0.00028406
 46
-70.71073229
 79
     2
 49
7.90549994
 49
-150.20850182
 53
116.56500244
 43
7.04999983
 44
63.64999771
 45
-0.00028406
 46
-70.71073229
 79
     2
 49
7.90549994
 49
-150.20850182
 53
116.56500244
 43
14.14999962
 44
21.19999886
 45
-0.00028406
 46
-70.71073229
 79
     2
 49
7.90549994
 49
-150.20850182
 53
116.56500244
 43
28.29999924
 44
28.29999924
 45
-0.00028406
 46
-70.71073229
 79
     2
 49
7.90549994
 49
-150.20850182
 53
116.56500244
 43
35.35000086
 44
42.44999886
 45
-0.00028406
 46
-70.71073229
 79
     2
 49
7.90549994
 49
-150.20850182
 53
116.56500244
 43
3.54999989
 44
14.14999962
 45
-0.00028406
 46
-70.71073229
 79
     2
 49
7.90549994
 49
-150.20850182
 53
116.56500244
 43
21.19999886
 44
24.74999905
 45
-0.00028406
 46
-70.71073229
 79
     2
 49
7.90549994
 49
-150.20850182
 53
116.56500244
 43
42.44999886
 44
17.69999981
 45
-0.00028406
 46
-70.71073229
 79
     2
 49
7.90549994
 49
-150.20850182
 53
116.56500244
 43
49.49999809
 44
24.74999905
 45
-0.00028406
 46
-70.71073229
 79
     2
 49
7.90549994
 49
-150.20850182
 53
116.56500244
 43
63.64999771
 44
45.9499979
 45
-0.00028406
 46
-70.71073229
 79
     2
 49
7.90549994
 49
-150.20850182
 53
116.56500244
 43
10.59999943
 44
67.1999979
 45
-0.00028406
 46
-70.71073229
 79
     2
 49
7.90549994
 49
-150.20850182
 53
116.56500244
 43
0.0
 44
63.64999771
 45
-0.00028406
 46
-70.71073229
 79
     2
 49
15.81099987
 49
-142.3029995
 53
116.56500244
 43
10.59999943
 44
14.14999962
 45
-0.00028406
 46
-70.71073229
 79
     2
 49
15.81099987
 49
-142.3029995
 53
153.43499756
 43
0.0
 44
3.54999989
 45
-70.71073229
 46
-0.00028406
 79
     2
 49
7.90549994
 49
-150.20850182
 53
153.43499756
 43
60.10000229
 44
0.0
 45
-70.71073229
 46
-0.00028406
 79
     2
 49
7.90549994
 49
-150.20850182
 53
153.43499756
 43
56.5500021
 44
35.35000086
 45
-70.71073229
 46
-0.00028406
 79
     2
 49
7.90549994
 49
-150.20850182
 53
153.43499756
 43
28.29999924
 44
10.59999943
 45
-70.71073229
 46
-0.00028406
 79
     2
 49
7.90549994
 49
-150.20850182
 53
153.43499756
 43
24.74999905
 44
3.54999989
 45
-70.71073229
 46
-0.00028406
 79
     2
 49
7.90549994
 49
-150.20850182
 53
153.43499756
 43
31.80000067
 44
17.69999981
 45
-70.71073229
 46
-0.00028406
 79
     2
 49
7.90549994
 49
-150.20850182
 53
153.43499756
 43
53.04999828
 44
60.10000229
 45
-70.71073229
 46
-0.00028406
 79
     2
 49
7.90549994
 49
-150.20850182
 53
153.43499756
 43
60.10000229
 44
63.64999771
 45
-70.71073229
 46
-0.00028406
 79
     2
 49
15.81099987
 49
-142.3029995
 47
0.775229
 98
        1
 10
0.0
 20
0.0
  0
LWPOLYLINE
  5
1AD
100
AcDbEntity
  8
Ech.1_5
 62
     7
  6
CONTINUOUS
370
    -3
100
AcDbPolyline
 90
        4
 70
     1
 43
0.0
 10
13668.18217442
 20
-897.05226064
 10
13668.18217442
 20
-841.44821734
 10
13643.18217442
 20
-841.44821734
 10
13643.18217442
 20
-897.05226064
  0
LWPOLYLINE
  5
1AE
100
AcDbEntity
  8
Ech.1_5
 62
   150
  6
CADWORK_22
370
    35
100
AcDbPolyline
 90
        3
 70
     0
 43
0.0
 38
2500.0
 10
13668.18217442
 20
-1251.49809317
 10
13668.18217442
 20
-807.41878157
 10
13823.65574589
 20
-807.41878157
  0
LWPOLYLINE
  5
1AF
100
AcDbEntity
  8
Ech.1_5
 62
     7
  6
CONTINUOUS
370
    -3
100
AcDbPolyline
 90
        4
 70
     1
 43
0.0
 10
13668.18217442
 20
-1015.71415087
 10
13668.18217442
 20
-960.11010757
 10
13643.18217442
 20
-960.11010757
 10
13643.18217442
 20
-1015.71415087
  0
LWPOLYLINE
  5
1B0
100
AcDbEntity
  8
Ech.1_5
 62
     7
  6
CONTINUOUS
370
    -3
100
AcDbPolyline
 90
       22
 70
     0
 43
0.0
 10
13707.18217442
 20
-897.41878157
 42
1.14028181
 10
13714.94676326
 20
-956.39655167
 10
13819.41758558
 20
-928.44101147
 42
-1.30322619
 10
13819.41758558
 20
-986.39655167
 10
13714.94676326
 20
-958.44101147
 42
1.30322619
 10
13714.94676326
 20
-1016.39655167
 10
13819.41758558
 20
-988.44101147
 42
-1.30322619
 10
13819.41758558
 20
-1046.39655167
 10
13714.94676326
 20
-1018.44101147
 42
1.30322619
 10
13714.94676326
 20
-1076.39655167
 10
13819.41758558
 20
-1048.44101147
 42
-1.30322619
 10
13819.41758558
 20
-1106.39655167
 10
13714.94676326
 20
-1078.44101147
 42
1.30322619
 10
13714.94676326
 20
-1136.39655167
 10
13819.41758558
 20
-1108.44101147
 42
-1.30322619
 10
13819.41758558
 20
-1166.39655167
 10
13714.94676326
 20
-1138.44101147
 42
1.30322619
 10
13714.94676326
 20
-1196.39655167
 10
13819.41758558
 20
-1168.44101147
 42
-1.30322619
 10
13819.41758558
 20
-1226.39655167
 10
13714.94676326
 20
-1198.44101147
 42
0.82714951
 10
13689.28841146
 20
-1251.49809317
  0
LWPOLYLINE
  5
1B1
100
AcDbEntity
  8
Ech.1_5
 62
     7
100
AcDbPolyline
 90
       27
 70
     0
 43
0.0
 10
13630.0555573
 20
-1076.29437011
 10
13630.18217442
 20
-1075.95989631
 10
13630.18217442
 20
-1048.57643222
 10
13637.18217442
 20
-1048.57643222
 10
13637.18217442
 20
-1057.57643222
 10
13643.18217442
 20
-1057.57643222
 10
13643.18217442
 20
-1030.57643222
 10
13639.18217442
 20
-1026.57643222
 10
13643.18217442
 20
-1022.57643222
 10
13643.18217442
 20
-958.57643222
 10
13639.18217442
 20
-954.57643222
 10
13643.18217442
 20
-950.57643222
 10
13643.18217442
 20
-915.57643222
 10
13636.18217442
 20
-915.57643222
 10
13636.18217442
 20
-909.57643222
 10
13633.68217442
 20
-904.57643222
 10
13631.18217442
 20
-909.57643222
 10
13631.18217442
 20
-940.50536441
 10
13630.80157208
 20
-942.41878157
 10
13624.64664051
 20
-949.11196613
 10
13623.18217442
 20
-952.64750003
 10
13623.18217442
 20
-1071.73424445
 10
13624.14249682
 20
-1073.36411309
 10
13628.87861767
 20
-1076.33546302
 10
13629.29061904
 20
-1076.57643222
 10
13629.60443653
 20
-1076.57643222
 10
13630.0555573
 20
-1076.29437011
  0
LWPOLYLINE
  5
1B2
100
AcDbEntity
  8
Ech.1_5
 62
     7
100
AcDbPolyline
 90
       27
 70
     0
 43
0.0
 10
13630.0555573
 20
-1221.29437011
 10
13630.18217442
 20
-1220.95989631
 10
13630.18217442
 20
-1193.57643222
 10
13637.18217442
 20
-1193.57643222
 10
13637.18217442
 20
-1202.57643222
 10
13643.18217442
 20
-1202.57643222
 10
13643.18217442
 20
-1175.57643222
 10
13639.18217442
 20
-1171.57643222
 10
13643.18217442
 20
-1167.57643222
 10
13643.18217442
 20
-1103.57643222
 10
13639.18217442
 20
-1099.57643222
 10
13643.18217442
 20
-1095.57643222
 10
13643.18217442
 20
-1060.57643222
 10
13636.18217442
 20
-1060.57643222
 10
13636.18217442
 20
-1054.57643222
 10
13633.68217442
 20
-1049.57643222
 10
13631.18217442
 20
-1054.57643222
 10
13631.18217442
 20
-1085.50536441
 10
13630.80157208
 20
-1087.41878157
 10
13624.64664051
 20
-1094.11196613
 10
13623.18217442
 20
-1097.64750003
 10
13623.18217442
 20
-1216.73424445
 10
13624.14249682
 20
-1218.36411309
 10
13628.87861767
 20
-1221.33546302
 10
13629.29061904
 20
-1221.57643222
 10
13629.60443653
 20
-1221.57643222
 10
13630.0555573
 20
-1221.29437011
  0
LWPOLYLINE
  5
1B3
100
AcDbEntity
  8
Ech.1_5
 62
     7
100
AcDbPolyline
 90
       14
 70
     0
 43
0.0
 10
13643.18217442
 20
-1251.49809317
 10
13643.18217442
 20
-1248.57643222
 10
13639.18217442
 20
-1244.57643222
 10
13643.18217442
 20
-1240.57643222
 10
13643.18217442
 20
-1205.57643222
 10
13636.18217442
 20
-1205.57643222
 10
13636.18217442
 20
-1199.57643222
 10
13633.68217442
 20
-1194.57643222
 10
13631.18217442
 20
-1199.57643222
 10
13631.18217442
 20
-1230.50536441
 10
13630.80157208
 20
-1232.41878157
 10
13624.64664051
 20
-1239.11196613
 10
13623.18217442
 20
-1242.64750003
 10
13623.18217442
 20
-1251.49809317
  0
LWPOLYLINE
  5
1B4
100
AcDbEntity
  8
Ech.1_5
 62
     1
  6
CADWORK_22
370
    35
100
AcDbPolyline
 90
        5
 70
     0
 43
0.0
 10
13858.68217442
 20
-1251.49724936
 10
13858.68217442
 20
-807.41878157
 10
13913.2618904
 20
-807.41878157
 10
13913.2618904
 20
-719.716545
 10
13882.4263459
 20
-719.716545
  0
LWPOLYLINE
  5
1B5
100
AcDbEntity
  8
Ech.1_5
 62
     7
  6
CONTINUOUS
370
    -3
100
AcDbPolyline
 90
       10
 70
     0
 43
0.0
 10
13857.18217442
 20
-1128.67690773
 10
13857.18217442
 20
-897.41878157
 10
13677.18217442
 20
-897.41878157
 10
13677.18217442
 20
-1251.49858732
 10
13766.93033938
 20
-1251.49887891
 10
13783.41669347
 20
-1233.52052731
 10
13769.30675345
 20
-1269.47622732
 10
13785.7922566
 20
-1251.49887891
 10
13857.18217442
 20
-1251.49724936
 10
13857.18217442
 20
-1128.67690773
  0
LWPOLYLINE
  5
1B6
100
AcDbEntity
  8
Ech.1_5
 62
     7
  6
CONTINUOUS
370
    15
100
AcDbPolyline
 90
        5
 70
     0
 43
0.0
 10
13897.18217442
 20
-1251.49724936
 10
13910.18217442
 20
-1251.49724936
 10
13910.18217442
 20
-1083.67690773
 10
13897.18217442
 20
-1083.67690773
 10
13897.18217442
 20
-1251.49724936
  0
LWPOLYLINE
  5
1B7
100
AcDbEntity
  8
Ech.1_5
 62
     7
  6
CONTINUOUS
370
    -3
100
AcDbPolyline
 90
        5
 70
     0
 43
0.0
 10
13677.18217442
 20
-822.41878157
 10
13668.18217442
 20
-822.41878157
 10
13668.18217442
 20
-1251.49809317
 10
13677.18217442
 20
-1251.49809317
 10
13677.18217442
 20
-822.41878157
  0
LWPOLYLINE
  5
1B8
100
AcDbEntity
  8
Ech.1_5
 62
     7
  6
CONTINUOUS
370
    -3
100
AcDbPolyline
 90
        5
 70
     0
 43
0.0
 10
13677.18217442
 20
-807.41878157
 10
13677.18217442
 20
-852.41878157
 10
13857.18217442
 20
-852.41878157
 10
13857.18217442
 20
-807.41878157
 10
13677.18217442
 20
-807.41878157
  0
LWPOLYLINE
  5
1B9
100
AcDbEntity
  8
Ech.1_5
 62
     7
  6
CONTINUOUS
370
    -3
100
AcDbPolyline
 90
        5
 70
     0
 43
0.0
 10
13914.00746639
 20
-744.67690968
 10
13914.00746639
 20
-725.67690968
 10
14136.50070856
 20
-725.67690968
 10
14136.50070856
 20
-744.67690968
 10
13914.00746639
 20
-744.67690968
  0
LWPOLYLINE
  5
1BA
100
AcDbEntity
  8
Ech.1_5
 62
     7
  6
CONTINUOUS
370
    -3
100
AcDbPolyline
 90
        5
 70
     0
 43
0.0
 10
13857.18217442
 20
-1069.67674718
 10
13857.18217442
 20
-1082.67674718
 10
14136.50039795
 20
-1082.67674718
 10
14136.50039795
 20
-1069.67674718
 10
13857.18217442
 20
-1069.67674718
  0
LWPOLYLINE
  5
1BB
100
AcDbEntity
  8
Ech.1_5
 62
     7
  6
CONTINUOUS
370
    -3
100
AcDbPolyline
 90
        5
 70
     0
 43
0.0
 10
13857.18217442
 20
-969.67690968
 10
13857.18217442
 20
-1069.67690968
 10
14136.50039795
 20
-1069.67690968
 10
14136.50039795
 20
-969.67690968
 10
13857.18217442
 20
-969.67690968
  0
LWPOLYLINE
  5
1BC
100
AcDbEntity
  8
Ech.1_5
 62
     7
  6
CONTINUOUS
370
    -3
100
AcDbPolyline
 90
        5
 70
     0
 43
0.0
 10
13677.18217442
 20
-852.41878157
 10
13677.18217442
 20
-897.41878157
 10
13857.18217442
 20
-897.41878157
 10
13857.18217442
 20
-852.41878157
 10
13677.18217442
 20
-852.41878157
  0
LWPOLYLINE
  5
1BD
100
AcDbEntity
  8
Ech.1_5
 62
     7
  6
CONTINUOUS
370
    -3
100
AcDbPolyline
 90
        5
 70
     0
 43
0.0
 10
13857.18217442
 20
-1148.67690773
 10
13897.18217442
 20
-1148.67690773
 10
13897.18217442
 20
-1103.67690773
 10
13857.18217442
 20
-1103.67690773
 10
13857.18217442
 20
-1148.67690773
  0
LWPOLYLINE
  5
1BE
100
AcDbEntity
  8
Ech.1_5
 62
     7
  6
CONTINUOUS
370
    -3
100
AcDbPolyline
 90
        5
 70
     0
 43
0.0
 10
13902.18217442
 20
-807.41878157
 10
13857.18217442
 20
-807.41878157
 10
13857.18217442
 20
-1027.41995009
 10
13902.18217442
 20
-1027.41995009
 10
13902.18217442
 20
-807.41878157
  0
LWPOLYLINE
  5
1BF
100
AcDbEntity
  8
Ech.1_5
 62
     7
  6
CONTINUOUS
370
     5
100
AcDbPolyline
 90
        5
 70
     0
 43
0.0
 10
13283.980684
 20
-261.60151525
 10
13333.980684
 20
-261.60151525
 10
13333.980684
 20
-254.18637772
 10
13283.980684
 20
-254.18637772
 10
13283.980684
 20
-261.60151525
  0
LWPOLYLINE
  5
1C0
100
AcDbEntity
  8
Ech.1_5
 62
     7
  6
CONTINUOUS
370
     5
100
AcDbPolyline
 90
        5
 70
     0
 43
0.0
 10
13847.04266142
 20
-721.67659229
 10
13860.4201819
 20
-721.67659229
 10
13860.4201819
 20
-711.67082788
 10
13847.04266142
 20
-711.67082788
 10
13847.04266142
 20
-721.67659229
  0
LWPOLYLINE
  5
1C1
100
AcDbEntity
  8
Ech.1_5
 62
     7
  6
CONTINUOUS
370
    -3
100
AcDbPolyline
 90
        5
 70
     0
 43
0.0
 10
13501.18217442
 20
-736.67659229
 10
13601.18217442
 20
-736.67659229
 10
13601.18217442
 20
-956.67659229
 10
13501.18217442
 20
-956.67659229
 10
13501.18217442
 20
-736.67659229
  0
LWPOLYLINE
  5
1C2
100
AcDbEntity
  8
Ech.1_5
 62
     7
  6
CONTINUOUS
370
    -3
100
AcDbPolyline
 90
        5
 70
     0
 43
0.0
 10
13860.4201819
 20
-721.65213341
 10
13899.12514584
 20
-721.65124983
 10
13899.12514584
 20
-711.64548542
 10
13860.4201819
 20
-711.64636899
 10
13860.4201819
 20
-721.65213341
  0
LWPOLYLINE
  5
1C3
100
AcDbEntity
  8
Ech.1_5
 62
     7
  6
CONTINUOUS
370
     5
100
AcDbPolyline
 90
        5
 70
     0
 43
0.0
 10
13847.04266142
 20
-721.67659229
 10
13860.4201819
 20
-721.67659229
 10
13860.4201819
 20
-711.67082788
 10
13847.04266142
 20
-711.67082788
 10
13847.04266142
 20
-721.67659229
  0
LWPOLYLINE
  5
1C4
100
AcDbEntity
  8
Ech.1_5
 62
     1
  6
CONTINUOUS
370
    -3
100
AcDbPolyline
 90
        9
 70
     0
 43
0.0
 10
13860.4201819
 20
-720.9742969
 10
13831.50792539
 20
-720.9742969
 10
13831.50792539
 20
-737.00861851
 10
13806.50792539
 20
-737.00861851
 10
13806.50792539
 20
-739.50861851
 10
13834.00792539
 20
-739.50861851
 10
13834.00792539
 20
-723.4742969
 10
13860.4201819
 20
-723.4742969
 10
13860.4201819
 20
-720.9742969
  0
LWPOLYLINE
  5
1C5
100
AcDbEntity
  8
Ech.1_5
 62
     7
  6
CONTINUOUS
370
    -3
100
AcDbPolyline
 90
        7
 70
     0
 43
0.0
 10
13615.33692662
 20
-797.27523271
 10
13615.33600417
 20
-772.27523271
 10
13840.25367024
 20
-749.88032504
 10
13840.25367024
 20
-721.65124983
 10
13911.7618904
 20
-721.65124983
 10
13911.7618904
 20
-797.98605802
 10
13615.33692662
 20
-797.27523271
  0
LWPOLYLINE
  5
1C6
100
AcDbEntity
  8
Ech.1_5
 62
     7
  6
CONTINUOUS
370
     5
100
AcDbPolyline
 90
        5
 70
     0
 43
0.0
 10
13687.21670289
 20
-760.1199347
 10
13826.64490835
 20
-746.21420108
 10
13826.92403427
 20
-751.18045713
 10
13688.2464509
 20
-764.95990136
 10
13687.21670289
 20
-760.1199347
  0
LWPOLYLINE
  5
1C7
100
AcDbEntity
  8
Ech.1_5
 62
     7
  6
CONTINUOUS
370
    -3
100
AcDbPolyline
 90
        5
 70
     0
 43
0.0
 10
13697.34868608
 20
-807.41878157
 10
13737.42049175
 20
-807.41833978
 10
13737.42049175
 20
-797.98567972
 10
13697.34868608
 20
-797.98612151
 10
13697.34868608
 20
-807.41878157
  0
LWPOLYLINE
  5
1C8
100
AcDbEntity
  8
Ech.1_5
 62
     7
  6
CONTINUOUS
370
    -3
100
AcDbPolyline
 90
        5
 70
     0
 43
0.0
 10
13810.52230141
 20
-807.42148459
 10
13911.7618904
 20
-807.42104281
 10
13911.7618904
 20
-797.98838274
 10
13810.52230141
 20
-797.98882453
 10
13810.52230141
 20
-807.42148459
  0
LWPOLYLINE
  5
1C9
100
AcDbEntity
  8
Ech.1_5
 62
     7
  6
CONTINUOUS
370
     5
100
AcDbPolyline
 90
        5
 70
     0
 43
0.0
 10
13683.97116561
 20
-807.41878157
 10
13697.34868608
 20
-807.41878157
 10
13697.34868608
 20
-797.98612151
 10
13683.97116561
 20
-797.98612151
 10
13683.97116561
 20
-807.41878157
  0
LWPOLYLINE
  5
1CA
100
AcDbEntity
  8
Ech.1_5
 62
     7
  6
CONTINUOUS
370
    -3
100
AcDbPolyline
 90
        9
 70
     0
 43
0.0
 10
13203.15832981
 20
-956.67659229
 10
13501.18217442
 20
-956.67659229
 10
13501.18217442
 20
-736.67659229
 10
13203.15864042
 20
-736.67659229
 10
13203.15781814
 20
-805.70717564
 10
13221.13616974
 20
-822.19352972
 10
13185.18046973
 20
-808.08358971
 10
13203.15781814
 20
-824.56909286
 10
13203.15832981
 20
-956.67659229
  0
LWPOLYLINE
  5
1CB
100
AcDbEntity
  8
Ech.1_5
 62
     7
  6
CONTINUOUS
370
    -3
100
AcDbPolyline
 90
        5
 70
     0
 43
0.0
 10
13668.18217442
 20
-822.41878157
 10
13643.18217442
 20
-822.41878157
 10
13643.18217442
 20
-1251.49809317
 10
13668.18217442
 20
-1251.49809317
 10
13668.18217442
 20
-822.41878157
  0
LWPOLYLINE
  5
1CC
100
AcDbEntity
  8
Ech.1_5
 62
     7
  6
CONTINUOUS
370
    -3
100
AcDbPolyline
 90
       11
 70
     0
 43
0.0
 10
13911.7618904
 20
-744.67690968
 10
13911.7618904
 20
-807.41878157
 10
13902.18217442
 20
-807.41878157
 10
13902.18217442
 20
-964.67690968
 10
14136.50039795
 20
-964.67690968
 10
14136.50122023
 20
-895.64632634
 10
14118.52286863
 20
-879.15997225
 10
14154.47856864
 20
-893.26991227
 10
14136.50122023
 20
-876.78440912
 10
14136.50070856
 20
-744.67690968
 10
13911.7618904
 20
-744.67690968
  0
LWPOLYLINE
  5
1CD
100
AcDbEntity
  8
Ech.1_5
 62
     7
  6
CONTINUOUS
370
    -3
100
AcDbPolyline
 90
       20
 70
     0
 43
0.0
 10
13623.18217442
 20
-926.73424445
 10
13624.14249682
 20
-928.36411309
 10
13628.87861767
 20
-931.33546302
 10
13629.29061904
 20
-931.57643222
 10
13629.60443653
 20
-931.57643222
 10
13630.0555573
 20
-931.29437011
 10
13630.18217442
 20
-930.95989631
 10
13630.18217442
 20
-903.57643222
 10
13637.18217442
 20
-903.57643222
 10
13637.18217442
 20
-912.57643222
 10
13643.18217442
 20
-912.57643222
 10
13643.18217442
 20
-885.57643222
 10
13639.18217442
 20
-881.57643222
 10
13643.18217442
 20
-877.57643222
 10
13643.18217442
 20
-813.57643222
 10
13639.18217442
 20
-809.57643222
 10
13641.33982507
 20
-807.41878157
 10
13623.27691271
 20
-807.41878157
 10
13623.18217442
 20
-807.64750003
 10
13623.18217442
 20
-926.73424445
  0
LWPOLYLINE
  5
1CE
100
AcDbEntity
  8
Ech.1_5
 62
     7
  6
CONTINUOUS
370
     5
100
AcDbPolyline
 90
       27
 70
     0
 43
0.0
 10
13630.0555573
 20
-1076.29437011
 10
13630.18217442
 20
-1075.95989631
 10
13630.18217442
 20
-1048.57643222
 10
13637.18217442
 20
-1048.57643222
 10
13637.18217442
 20
-1057.57643222
 10
13643.18217442
 20
-1057.57643222
 10
13643.18217442
 20
-1030.57643222
 10
13639.18217442
 20
-1026.57643222
 10
13643.18217442
 20
-1022.57643222
 10
13643.18217442
 20
-958.57643222
 10
13639.18217442
 20
-954.57643222
 10
13643.18217442
 20
-950.57643222
 10
13643.18217442
 20
-915.57643222
 10
13636.18217442
 20
-915.57643222
 10
13636.18217442
 20
-909.57643222
 10
13633.68217442
 20
-904.57643222
 10
13631.18217442
 20
-909.57643222
 10
13631.18217442
 20
-940.50536441
 10
13630.80157208
 20
-942.41878157
 10
13624.64664051
 20
-949.11196613
 10
13623.18217442
 20
-952.64750003
 10
13623.18217442
 20
-1071.73424445
 10
13624.14249682
 20
-1073.36411309
 10
13628.87861767
 20
-1076.33546302
 10
13629.29061904
 20
-1076.57643222
 10
13629.60443653
 20
-1076.57643222
 10
13630.0555573
 20
-1076.29437011
  0
LWPOLYLINE
  5
1CF
100
AcDbEntity
  8
Ech.1_5
 62
     7
  6
CONTINUOUS
370
     5
100
AcDbPolyline
 90
       27
 70
     0
 43
0.0
 10
13630.0555573
 20
-1221.29437011
 10
13630.18217442
 20
-1220.95989631
 10
13630.18217442
 20
-1193.57643222
 10
13637.18217442
 20
-1193.57643222
 10
13637.18217442
 20
-1202.57643222
 10
13643.18217442
 20
-1202.57643222
 10
13643.18217442
 20
-1175.57643222
 10
13639.18217442
 20
-1171.57643222
 10
13643.18217442
 20
-1167.57643222
 10
13643.18217442
 20
-1103.57643222
 10
13639.18217442
 20
-1099.57643222
 10
13643.18217442
 20
-1095.57643222
 10
13643.18217442
 20
-1060.57643222
 10
13636.18217442
 20
-1060.57643222
 10
13636.18217442
 20
-1054.57643222
 10
13633.68217442
 20
-1049.57643222
 10
13631.18217442
 20
-1054.57643222
 10
13631.18217442
 20
-1085.50536441
 10
13630.80157208
 20
-1087.41878157
 10
13624.64664051
 20
-1094.11196613
 10
13623.18217442
 20
-1097.64750003
 10
13623.18217442
 20
-1216.73424445
 10
13624.14249682
 20
-1218.36411309
 10
13628.87861767
 20
-1221.33546302
 10
13629.29061904
 20
-1221.57643222
 10
13629.60443653
 20
-1221.57643222
 10
13630.0555573
 20
-1221.29437011
  0
LWPOLYLINE
  5
1D0
100
AcDbEntity
  8
Ech.1_5
 62
     7
  6
CONTINUOUS
370
     5
100
AcDbPolyline
 90
       15
 70
     0
 43
0.0
 10
13639.18217442
 20
-1244.57643222
 10
13643.18217442
 20
-1240.57643222
 10
13643.18217442
 20
-1205.57643222
 10
13636.18217442
 20
-1205.57643222
 10
13636.18217442
 20
-1199.57643222
 10
13633.68217442
 20
-1194.57643222
 10
13631.18217442
 20
-1199.57643222
 10
13631.18217442
 20
-1230.50536441
 10
13630.80157208
 20
-1232.41878157
 10
13624.64664051
 20
-1239.11196613
 10
13623.18217442
 20
-1242.64750003
 10
13623.18217442
 20
-1251.49809317
 10
13643.18217442
 20
-1251.49809317
 10
13643.18217442
 20
-1248.57643222
 10
13639.18217442
 20
-1244.57643222
  0
LWPOLYLINE
  5
1D1
100
AcDbEntity
  8
Ech.1_5
 62
     7
  6
CONTINUOUS
370
    -3
100
AcDbPolyline
 90
        5
 70
     0
 43
0.0
 10
13601.18217442
 20
-1251.49809317
 10
13601.18217442
 20
-956.67659229
 10
13401.18217442
 20
-956.67659229
 10
13401.18217442
 20
-1251.49809317
 10
13601.18217442
 20
-1251.49809317
  0
LWPOLYLINE
  5
1D2
100
AcDbEntity
  8
Ech.1_5
 62
     7
  6
CONTINUOUS
370
     5
100
AcDbPolyline
 90
        5
 70
     0
 43
0.0
 10
13888.17762989
 20
-719.19503735
 10
13914.00216097
 20
-719.19503735
 10
13914.00216097
 20
-711.67659229
 10
13888.17762989
 20
-711.67659229
 10
13888.17762989
 20
-719.19503735
  0
TEXT
  5
1D3
100
AcDbEntity
  8
Ech.1_5
 62
     7
100
AcDbText
 10
13295.27497663
 20
-244.60037463
 30
0.0
 40
8.00000012
  1
Echelle en mm
  7
ARIAL
 50
0.0
 41
1.0
 51
0.0
100
AcDbText
  0
TEXT
  5
1D4
100
AcDbEntity
  8
Ech.1_5
 62
     7
100
AcDbText
 10
13281.29439188
 20
-272.81021016
 30
0.0
 40
8.00000012
  1
0
  7
ARIAL
 50
0.0
 41
1.0
 51
0.0
100
AcDbText
  0
TEXT
  5
1D5
100
AcDbEntity
  8
Ech.1_5
 62
     7
100
AcDbText
 10
13367.89144977
 20
-272.81021016
 30
0.0
 40
8.00000012
  1
100
  7
ARIAL
 50
0.0
 41
1.0
 51
0.0
100
AcDbText
  0
TEXT
  5
1D6
100
AcDbEntity
  8
Ech.1_5
 62
     7
100
AcDbText
 10
13329.15101821
 20
-272.81021016
 30
0.0
 40
8.00000012
  1
50
  7
ARIAL
 50
0.0
 41
1.0
 51
0.0
100
AcDbText
  0
ENDSEC
  0
SECTION
  2
OBJECTS
  0
DICTIONARY
  5
1
100
AcDbDictionary
  3
ACAD_GROUP
350
2
  3
ACAD_MLINESTYLE
350
3
  0
DICTIONARY
  5
2
102
{CDWK_REACTORS
330
1
102
}
100
AcDbDictionary
  3
L_COUPE_1
350
4
  3
CDWK2
350
5
  3
CDWK3
350
6
  3
L_COUPE_4
350
7
  3
L_COUPE_5
350
8
  3
CDWK6
350
9
  3
CDWK7
350
A
  3
L_COUPE_8
350
B
  3
CDWK9
350
C
  3
CDWK10
350
D
  3
L_COUPE_11
350
E
  3
CDWK12
350
F
  3
CDWK13
350
10
  3
CDWK14
350
11
  0
DICTIONARY
  5
3
102
{CDWK_REACTORS
330
1
102
}
100
AcDbDictionary
  3
STANDARD
350
12
  0
GROUP
  5
4
102
{CDWK_REACTORS
330
2
102
}
100
AcDbGroup
300
groupe cree par CADWORK
 70
     0
 71
     1
340
98
340
99
340
9A
340
95
340
96
340
97
  0
GROUP
  5
5
102
{CDWK_REACTORS
330
2
102
}
100
AcDbGroup
300
groupe cree par CADWORK
 70
     0
 71
     1
  0
GROUP
  5
6
102
{CDWK_REACTORS
330
2
102
}
100
AcDbGroup
300
groupe cree par CADWORK
 70
     0
 71
     1
  0
GROUP
  5
7
102
{CDWK_REACTORS
330
2
102
}
100
AcDbGroup
300
groupe cree par CADWORK
 70
     0
 71
     1
  0
GROUP
  5
8
102
{CDWK_REACTORS
330
2
102
}
100
AcDbGroup
300
groupe cree par CADWORK
 70
     0
 71
     1
  0
GROUP
  5
9
102
{CDWK_REACTORS
330
2
102
}
100
AcDbGroup
300
groupe cree par CADWORK
 70
     0
 71
     1
  0
GROUP
  5
A
102
{CDWK_REACTORS
330
2
102
}
100
AcDbGroup
300
groupe cree par CADWORK
 70
     0
 71
     1
  0
GROUP
  5
B
102
{CDWK_REACTORS
330
2
102
}
100
AcDbGroup
300
groupe cree par CADWORK
 70
     0
 71
     1
  0
GROUP
  5
C
102
{CDWK_REACTORS
330
2
102
}
100
AcDbGroup
300
groupe cree par CADWORK
 70
     0
 71
     1
340
C7
340
C6
340
C5
340
C8
340
CB
340
CA
340
C9
340
C0
340
BF
340
BE
340
C1
340
C4
340
C3
340
C2
340
D8
340
D9
340
D6
340
D7
340
DA
340
DD
340
DE
340
DB
340
DC
340
D5
340
CE
340
CF
340
CC
340
CD
340
D0
340
D3
340
D4
340
D1
340
D2
  0
GROUP
  5
D
102
{CDWK_REACTORS
330
2
102
}
100
AcDbGroup
300
groupe cree par CADWORK
 70
     0
 71
     1
340
C7
340
C6
340
C5
340
C8
340
CB
340
CA
340
C9
340
C0
340
BF
340
BE
340
C1
340
C4
340
C3
340
C2
340
D8
340
D9
340
D6
340
D7
340
DA
340
DD
340
DE
340
DB
340
DC
340
D5
340
CE
340
CF
340
CC
340
CD
340
D0
340
D3
340
D4
340
D1
340
D2
340
DF
  0
GROUP
  5
E
102
{CDWK_REACTORS
330
2
102
}
100
AcDbGroup
300
groupe cree par CADWORK
 70
     0
 71
     1
340
136
340
135
340
134
340
139
340
138
340
137
340
130
340
12F
340
12E
340
133
340
132
340
131
340
13A
340
143
340
142
340
141
340
146
340
145
340
144
340
13D
340
13C
340
13B
340
140
340
13F
340
13E
340
12D
340
F8
340
F9
340
F7
340
F5
340
F6
340
FD
340
FE
340
FC
340
FA
340
FB
340
EE
340
EF
340
ED
340
EB
340
EC
340
F3
340
F4
340
F2
340
F0
340
F1
340
FF
340
10D
340
10E
340
10C
340
10A
340
10B
340
112
340
113
340
111
340
10F
340
110
340
103
340
104
340
102
340
100
340
101
340
108
340
109
340
107
340
105
340
106
340
11E
340
11D
340
11F
340
121
340
120
340
119
340
118
340
11A
340
11C
340
11B
340
122
340
129
340
128
340
12A
340
12C
340
12B
340
124
340
123
340
125
340
127
340
126
340
E4
340
E5
340
E3
340
E1
340
E2
340
E9
340
EA
340
E8
340
E6
340
E7
340
115
340
114
340
117
340
116
  0
GROUP
  5
F
102
{CDWK_REACTORS
330
2
102
}
100
AcDbGroup
300
groupe cree par CADWORK
 70
     0
 71
     1
340
136
340
135
340
134
340
139
340
138
340
137
340
130
340
12F
340
12E
340
133
340
132
340
131
340
13A
340
143
340
142
340
141
340
146
340
145
340
144
340
13D
340
13C
340
13B
340
140
340
13F
340
13E
340
12D
340
F8
340
F9
340
F7
340
F5
340
F6
340
FD
340
FE
340
FC
340
FA
340
FB
340
EE
340
EF
340
ED
340
EB
340
EC
340
F3
340
F4
340
F2
340
F0
340
F1
340
FF
340
10D
340
10E
340
10C
340
10A
340
10B
340
112
340
113
340
111
340
10F
340
110
340
103
340
104
340
102
340
100
340
101
340
108
340
109
340
107
340
105
340
106
340
11E
340
11D
340
11F
340
121
340
120
340
119
340
118
340
11A
340
11C
340
11B
340
122
340
129
340
128
340
12A
340
12C
340
12B
340
124
340
123
340
125
340
127
340
126
340
E4
340
E5
340
E3
340
E1
340
E2
340
E9
340
EA
340
E8
340
E6
340
E7
340
115
340
114
340
117
340
116
340
14B
340
1C0
340
14C
340
14A
340
149
340
148
340
147
  0
GROUP
  5
10
102
{CDWK_REACTORS
330
2
102
}
100
AcDbGroup
300
groupe cree par CADWORK
 70
     0
 71
     1
340
192
340
193
340
194
340
18F
340
190
340
191
340
195
340
199
340
19A
340
19B
340
196
340
197
340
198
340
18E
340
163
340
162
340
165
340
164
340
15F
340
15E
340
161
340
160
340
166
340
16C
340
16B
340
16E
340
16D
340
168
340
167
340
16A
340
169
340
152
340
151
340
154
340
153
340
14E
340
14D
340
150
340
14F
340
155
340
15B
340
15A
340
15D
340
15C
340
157
340
156
340
159
340
158
340
16F
340
180
340
18A
340
189
340
18B
340
17F
340
18D
340
18C
340
188
340
184
340
185
340
186
340
183
340
187
340
181
340
182
340
174
340
175
340
176
340
173
340
170
340
171
340
172
340
177
340
17C
340
17D
340
17E
340
17B
340
178
340
179
340
17A
  0
GROUP
  5
11
102
{CDWK_REACTORS
330
2
102
}
100
AcDbGroup
300
groupe cree par CADWORK
 70
     0
 71
     1
340
1C4
340
1C3
340
1C2
340
19F
340
19C
340
19D
340
19E
  0
MLINESTYLE
  5
12
102
{CDWK_REACTORS
330
3
102
}
100
AcDbMlineStyle
  2
STANDARD
 70
     0
  3

 62
     0
 51
90.0
 52
90.0
 71
     2
 49
0.5
 62
   256
  6
BYLAYER
 49
-0.5
 62
   256
  6
BYLAYER
  0
ENDSEC
  0
EOF
