  0
SECTION
  2
HEADER
  9
$ACADVER
  1
AC1014
  9
$DWGCODEPAGE
  3
ANSI_1252
  9
$INSBASE
 10
0.0
 20
0.0
 30
0.0
  9
$EXTMIN
 10
442.48441711
 20
172.77809691
  9
$EXTMAX
 10
15527.02727903
 20
4877.93302528
  9
$LIMMIN
 10
442.48441711
 20
172.77809691
  9
$LIMMAX
 10
15527.02727903
 20
4877.93302528
  9
$ORTHOMODE
 70
     0
  9
$REGENMODE
 70
     1
  9
$FILLMODE
 70
     1
  9
$QTEXTMODE
 70
     0
  9
$MIRRTEXT
 70
     1
  9
$DRAGMODE
 70
     2
  9
$LTSCALE
 40
5.0
  9
$OSMODE
 70
     0
  9
$ATTMODE
 70
     1
  9
$TEXTSIZE
 40
3.5
  9
$TRACEWID
 40
1.0
  9
$TEXTSTYLE
  7
STANDARD
  9
$CLAYER
  8
0
  9
$CELTYPE
  6
BYLAYER
  9
$CECOLOR
 62
   256
  9
$DIMSCALE
 40
1.0
  9
$DIMASZ
 40
2.0
  9
$DIMEXO
 40
5.0
  9
$DIMDLI
 40
10.0
  9
$DIMRND
 40
0.0
  9
$DIMDLE
 40
2.0
  9
$DIMEXE
 40
2.0
  9
$DIMTP
 40
0.0
  9
$DIMTM
 40
0.0
  9
$DIMTXT
 40
2.5
  9
$DIMCEN
 40
1.5
  9
$DIMTSZ
 40
0.0
  9
$DIMTOL
 70
     0
  9
$DIMLIM
 70
     0
  9
$DIMTIH
 70
     1
  9
$DIMTOH
 70
     0
  9
$DIMSE1
 70
     0
  9
$DIMSE2
 70
     0
  9
$DIMTAD
 70
     1
  9
$DIMZIN
 70
     8
  9
$DIMBLK
  1

  9
$DIMASO
 70
     1
  9
$DIMSHO
 70
     1
  9
$DIMPOST
  1

  9
$DIMAPOST
  1

  9
$DIMALT
 70
     0
  9
$DIMALTD
 70
     2
  9
$DIMALTF
 40
25.4
  9
$DIMLFAC
 40
1.0
  9
$DIMTOFL
 70
     0
  9
$DIMTVP
 40
0.0
  9
$DIMTIX
 70
     0
  9
$DIMSOXD
 70
     0
  9
$DIMSAH
 70
     0
  9
$DIMBLK1
  1

  9
$DIMBLK2
  1

  9
$DIMSTYLE
  2
*UNNAMED
  9
$DIMCLRD
 70
   190
  9
$DIMCLRE
 70
   190
  9
$DIMCLRT
 70
   190
  9
$DIMTFAC
 40
1.0
  9
$DIMGAP
 40
0.09
  9
$DIMUNIT
 70
     2
  9
$LUNITS
 70
     2
  9
$LUPREC
 70
     6
  9
$AXISMODE
 70
     0
  9
$AXISUNIT
 10
0.0
 20
0.0
  9
$SKETCHINC
 40
0.1
  9
$FILLETRAD
 40
0.0
  9
$AUNITS
 70
     0
  9
$AUPREC
 70
     0
  9
$MENU
  1
ACAD
  9
$ELEVATION
 40
0.0
  9
$PELEVATION
 40
0.0
  9
$THICKNESS
 40
0.0
  9
$LIMCHECK
 70
     0
  9
$BLIPMODE
 70
     1
  9
$CHAMFERA
 40
0.0
  9
$CHAMFERB
 40
0.0
  9
$SKPOLY
 70
     1
  9
$TDCREATE
 40
2456751.0000000000
  9
$TDUPDATE
 40
2456751.0000000000
  9
$TDINDWG
 40
0.0
  9
$TDUSRTIMER
 40
0.0
  9
$USRTIMER
 70
     1
  9
$ANGBASE
 50
0.0
  9
$ANGDIR
 70
     0
  9
$PDMODE
 70
     0
  9
$PDSIZE
 40
0.0
  9
$PLINEWID
 40
0.0
  9
$COORDS
 70
     2
  9
$SPLFRAME
 70
     0
  9
$SPLINETYPE
 70
     6
  9
$SPLINESEGS
 70
     8
  9
$ATTDIA
 70
     1
  9
$ATTREQ
 70
     1
  9
$HANDLING
 70
     1
  9
$HANDSEED
  5
     284
  9
$SURFTAB1
 70
     6
  9
$SURFTAB2
 70
     6
  9
$SURFTYPE
 70
     6
  9
$SURFU
 70
     6
  9
$SURFV
 70
     6
  9
$UCSNAME
  2

  9
$UCSORG
 10
0.0
 20
0.0
 30
0.0
  9
$UCSXDIR
 10
1.0
 20
0.0
 30
0.0
  9
$UCSYDIR
 10
0.0
 20
1.0
 30
0.0
  9
$PUCSNAME
  2

  9
$PUCSORG
 10
0.0
 20
0.0
 30
0.0
  9
$PUCSXDIR
 10
1.0
 20
0.0
 30
0.0
  9
$PUCSYDIR
 10
0.0
 20
1.0
 30
0.0
  9
$USERI1
 70
     0
  9
$USERI2
 70
     0
  9
$USERI3
 70
     0
  9
$USERI4
 70
     0
  9
$USERI5
 70
     0
  9
$USERR1
 40
0.0
  9
$USERR2
 40
0.0
  9
$USERR3
 40
0.0
  9
$USERR4
 40
0.0
  9
$USERR5
 40
0.0
  9
$WORLDVIEW
 70
     1
  9
$SHADEDGE
 70
     3
  9
$SHADEDIF
 70
    70
  9
$TILEMODE
 70
     1
  9
$MAXACTVP
 70
    16
  9
$PINSBASE
 10
0.0
 20
0.0
 30
0.0
  9
$PLIMCHECK
 70
     0
  9
$PEXTMIN
 10
1.0000000000000E+20
 20
1.0000000000000E+20
 30
1.0000000000000E+20
  9
$PEXTMAX
 10
-1.0000000000000E+20
 20
-1.0000000000000E+20
 30
-1.0000000000000E+20
  9
$PLIMMIN
 10
0.0
 20
0.0
  9
$UNITMODE
 70
     0
  9
$VISRETAIN
 70
     0
  9
$MEASUREMENT
 70
     1
  0
ENDSEC
  0
SECTION
  2
TABLES
  0
TABLE
  2
VPORT
  5
13
100
AcDbSymbolTable
 70
     1
  0
ENDTAB
  0
TABLE
  2
STYLE
  5
14
100
AcDbSymbolTable
 70
     3
  0
STYLE
  5
15
100
AcDbSymbolTableRecord
100
AcDbTextStyleTableRecord
  2
STANDARD
 70
     0
 40
0.0
 41
1.0
 50
0.0
 71
     0
 42
3.5
  3
MONOTXT
  4

  0
STYLE
  5
16
100
AcDbSymbolTableRecord
100
AcDbTextStyleTableRecord
  2
CADWORK1
 70
     0
 40
0.0
 41
1.0
 50
0.0
 71
     0
 42
3.5
  3
MONOTXT
  4

  0
STYLE
  5
17
100
AcDbSymbolTableRecord
100
AcDbTextStyleTableRecord
  2
MONOTXT
 70
     0
 40
0.0
 41
1.0
 50
0.0
 71
     0
 42
3.5
  3
MONOTXT
  4

  0
STYLE
  5
18
100
AcDbSymbolTableRecord
100
AcDbTextStyleTableRecord
  2
ARIAL
 70
     0
 40
0.0
 41
1.0
 50
0.0
 71
     0
 42
3.5
  3

  4

1001
ACAD
1000
Arial
1071
        0
  0
ENDTAB
  0
TABLE
  2
LTYPE
  5
19
100
AcDbSymbolTable
 70
    13
  0
LTYPE
  5
1A
100
AcDbSymbolTableRecord
100
AcDbLinetypeTableRecord
  2
BYBLOCK
 70
    64
  3

 72
    65
 73
     0
 40
0.0
  0
LTYPE
  5
1B
100
AcDbSymbolTableRecord
100
AcDbLinetypeTableRecord
  2
BYLAYER
 70
    64
  3

 72
    65
 73
     0
 40
0.0
  0
LTYPE
  5
1C
100
AcDbSymbolTableRecord
100
AcDbLinetypeTableRecord
  2
CONTINUOUS
 70
    64
  3
Solid line
 72
    65
 73
     0
 40
0.0
  0
LTYPE
  5
1D
100
AcDbSymbolTableRecord
100
AcDbLinetypeTableRecord
  2
DOT
 70
    64
  3
. . . . . . . . . . . . . . . . . . . . . . . .
 72
    65
 73
     2
 40
2.5
 49
0.0
 74
     0
 49
-2.5
 74
     0
  0
LTYPE
  5
1E
100
AcDbSymbolTableRecord
100
AcDbLinetypeTableRecord
  2
HIDDEN
 70
    64
  3
__ __ __ __ __ __ __ __ __ __ __ __ __ __ __ __
 72
    65
 73
     2
 40
1.875
 49
1.25
 74
     0
 49
-0.625
 74
     0
  0
LTYPE
  5
1F
100
AcDbSymbolTableRecord
100
AcDbLinetypeTableRecord
  2
DASHDOT
 70
    64
  3
 __ . __ . __ . __ . __ . __ . __ . __ . __ . __
 72
    65
 73
     4
 40
10.0
 49
5.0
 74
     0
 49
-2.5
 74
     0
 49
0.0
 74
     0
 49
-2.5
 74
     0
  0
LTYPE
  5
20
100
AcDbSymbolTableRecord
100
AcDbLinetypeTableRecord
  2
CADWORK_22
 70
    64
  3
22 =======================================
 72
    65
 73
     0
 40
0.0
  0
LTYPE
  5
21
100
AcDbSymbolTableRecord
100
AcDbLinetypeTableRecord
  2
DAL
 70
    64
  3
Solid line (for MAPS)
 72
    65
 73
     0
 40
0.0
  0
LTYPE
  5
22
100
AcDbSymbolTableRecord
100
AcDbLinetypeTableRecord
  2
MUR
 70
    64
  3
Solid line (for MAPS)
 72
    65
 73
     0
 40
0.0
  0
LTYPE
  5
23
100
AcDbSymbolTableRecord
100
AcDbLinetypeTableRecord
  2
SOM
 70
    64
  3
Solid line (for MAPS)
 72
    65
 73
     0
 40
0.0
  0
LTYPE
  5
24
100
AcDbSymbolTableRecord
100
AcDbLinetypeTableRecord
  2
COL
 70
    64
  3
Solid line (for MAPS)
 72
    65
 73
     0
 40
0.0
  0
LTYPE
  5
25
100
AcDbSymbolTableRecord
100
AcDbLinetypeTableRecord
  2
LGN
 70
    64
  3
Solid line (for MAPS)
 72
    65
 73
     0
 40
0.0
  0
LTYPE
  5
26
100
AcDbSymbolTableRecord
100
AcDbLinetypeTableRecord
  2
PNT
 70
    64
  3
Solid line (for MAPS)
 72
    65
 73
     0
 40
0.0
  0
ENDTAB
  0
TABLE
  2
LAYER
  5
27
100
AcDbSymbolTable
 70
    32
  0
LAYER
  5
28
100
AcDbSymbolTableRecord
100
AcDbLayerTableRecord
  2
Standard
 70
     0
 62
     7
  6
CONTINUOUS
370
    -3
  0
LAYER
  5
29
100
AcDbSymbolTableRecord
100
AcDbLayerTableRecord
  2
Ech.1_1
 70
     0
 62
     7
  6
CONTINUOUS
370
    -3
  0
LAYER
  5
2A
100
AcDbSymbolTableRecord
100
AcDbLayerTableRecord
  2
Ech.1_2
 70
     0
 62
     7
  6
CONTINUOUS
370
    -3
  0
LAYER
  5
2B
100
AcDbSymbolTableRecord
100
AcDbLayerTableRecord
  2
Ech.1_5
 70
     0
 62
     7
  6
CONTINUOUS
370
    -3
  0
LAYER
  5
2C
100
AcDbSymbolTableRecord
100
AcDbLayerTableRecord
  2
Ech.1_10
 70
     0
 62
     7
  6
CONTINUOUS
370
    -3
  0
LAYER
  5
2D
100
AcDbSymbolTableRecord
100
AcDbLayerTableRecord
  2
Ech.1_20
 70
     0
 62
     7
  6
CONTINUOUS
370
    -3
  0
LAYER
  5
2E
100
AcDbSymbolTableRecord
100
AcDbLayerTableRecord
  2
Ech.1_25
 70
     0
 62
     7
  6
CONTINUOUS
370
    -3
  0
LAYER
  5
2F
100
AcDbSymbolTableRecord
100
AcDbLayerTableRecord
  2
Ech.1_33
 70
     0
 62
     7
  6
CONTINUOUS
370
    -3
  0
LAYER
  5
30
100
AcDbSymbolTableRecord
100
AcDbLayerTableRecord
  2
Ech.1_50
 70
     0
 62
     7
  6
CONTINUOUS
370
    -3
  0
LAYER
  5
31
100
AcDbSymbolTableRecord
100
AcDbLayerTableRecord
  2
Ech.1_75
 70
     0
 62
     7
  6
CONTINUOUS
370
    -3
  0
LAYER
  5
32
100
AcDbSymbolTableRecord
100
AcDbLayerTableRecord
  2
Ech.1_100
 70
     0
 62
     7
  6
CONTINUOUS
370
    -3
  0
LAYER
  5
33
100
AcDbSymbolTableRecord
100
AcDbLayerTableRecord
  2
Ech.1_200
 70
     0
 62
     7
  6
CONTINUOUS
370
    -3
  0
LAYER
  5
34
100
AcDbSymbolTableRecord
100
AcDbLayerTableRecord
  2
Ech.1_500
 70
     0
 62
     7
  6
CONTINUOUS
370
    -3
  0
LAYER
  5
35
100
AcDbSymbolTableRecord
100
AcDbLayerTableRecord
  2
Ech.1_1000
 70
     0
 62
     7
  6
CONTINUOUS
370
    -3
  0
LAYER
  5
36
100
AcDbSymbolTableRecord
100
AcDbLayerTableRecord
  2
Cadres traceur
 70
     0
 62
     7
  6
CONTINUOUS
370
    18
  0
LAYER
  5
37
100
AcDbSymbolTableRecord
100
AcDbLayerTableRecord
  2
Cadres laser
 70
     0
 62
     7
  6
CONTINUOUS
370
    18
  0
LAYER
  5
38
100
AcDbSymbolTableRecord
100
AcDbLayerTableRecord
  2
Légende d_aide
 70
     0
 62
     7
  6
CONTINUOUS
370
    18
  0
LAYER
  5
39
100
AcDbSymbolTableRecord
100
AcDbLayerTableRecord
  2
hachures ok
 70
     0
 62
     7
  6
CONTINUOUS
370
    18
  0
LAYER
  5
3A
100
AcDbSymbolTableRecord
100
AcDbLayerTableRecord
  2
ossature bois
 70
     0
 62
     7
  6
CONTINUOUS
370
    18
  0
LAYER
  5
3B
100
AcDbSymbolTableRecord
100
AcDbLayerTableRecord
  2
VR
 70
     0
 62
     7
  6
CONTINUOUS
370
    25
  0
LAYER
  5
3C
100
AcDbSymbolTableRecord
100
AcDbLayerTableRecord
  2
Calque1
 70
     0
 62
     7
  6
CONTINUOUS
370
     9
  0
LAYER
  5
3D
100
AcDbSymbolTableRecord
100
AcDbLayerTableRecord
  2
0
 70
     0
 62
     7
  6
CONTINUOUS
370
    -3
  0
LAYER
  5
3E
100
AcDbSymbolTableRecord
100
AcDbLayerTableRecord
  2
menuiserie
 70
     0
 62
     7
  6
CONTINUOUS
370
    -3
  0
LAYER
  5
3F
100
AcDbSymbolTableRecord
100
AcDbLayerTableRecord
  2
cotation
 70
     0
 62
   250
  6
CONTINUOUS
370
     9
  0
LAYER
  5
40
100
AcDbSymbolTableRecord
100
AcDbLayerTableRecord
  2
Defpoints
 70
     0
 62
    10
  6
CONTINUOUS
370
    -3
  0
LAYER
  5
41
100
AcDbSymbolTableRecord
100
AcDbLayerTableRecord
  2
HACHURE
 70
     0
 62
   254
  6
CONTINUOUS
370
    25
  0
LAYER
  5
42
100
AcDbSymbolTableRecord
100
AcDbLayerTableRecord
  2
mat1
 70
     0
 62
     7
  6
CONTINUOUS
370
    30
  0
LAYER
  5
43
100
AcDbSymbolTableRecord
100
AcDbLayerTableRecord
  2
mat2
 70
     0
 62
     7
  6
CONTINUOUS
370
     5
  0
LAYER
  5
44
100
AcDbSymbolTableRecord
100
AcDbLayerTableRecord
  2
hach
 70
     0
 62
     8
  6
CONTINUOUS
370
     5
  0
LAYER
  5
45
100
AcDbSymbolTableRecord
100
AcDbLayerTableRecord
  2
menuiseries
 70
     0
 62
     7
  6
CONTINUOUS
370
     9
  0
LAYER
  5
46
100
AcDbSymbolTableRecord
100
AcDbLayerTableRecord
  2
BétonMétal
 70
     0
 62
     7
  6
CONTINUOUS
370
    80
  0
LAYER
  5
47
100
AcDbSymbolTableRecord
100
AcDbLayerTableRecord
  2
bois
 70
     0
 62
     7
  6
CONTINUOUS
370
    60
  0
ENDTAB
  0
TABLE
  2
VIEW
  5
48
100
AcDbSymbolTable
 70
     0
  0
ENDTAB
  0
TABLE
  2
UCS
  5
49
100
AcDbSymbolTable
 70
     0
  0
ENDTAB
  0
TABLE
  2
APPID
  5
4A
100
AcDbSymbolTable
 70
     1
  0
APPID
  5
4B
100
AcDbSymbolTableRecord
100
AcDbRegAppTableRecord
  2
ACAD
 70
     0
  0
ENDTAB
  0
TABLE
  2
DIMSTYLE
  5
4C
100
AcDbSymbolTable
 70
     0
  0
ENDTAB
  0
TABLE
  2
BLOCK_RECORD
  5
4D
100
AcDbSymbolTable
 70
     0
  0
BLOCK_RECORD
  5
4E
100
AcDbSymbolTableRecord
100
AcDbBlockTableRecord
  2
*MODEL_SPACE
  0
BLOCK_RECORD
  5
4F
100
AcDbSymbolTableRecord
100
AcDbBlockTableRecord
  2
*PAPER_SPACE
  0
BLOCK_RECORD
  5
50
100
AcDbSymbolTableRecord
100
AcDbBlockTableRecord
  2
CDWK_EXTR_0
  0
BLOCK_RECORD
  5
51
100
AcDbSymbolTableRecord
100
AcDbBlockTableRecord
  2
CDWK_EXTR_1D
  0
BLOCK_RECORD
  5
52
100
AcDbSymbolTableRecord
100
AcDbBlockTableRecord
  2
CDWK_EXTR_1G
  0
BLOCK_RECORD
  5
53
100
AcDbSymbolTableRecord
100
AcDbBlockTableRecord
  2
CDWK_EXTR_2
  0
BLOCK_RECORD
  5
54
100
AcDbSymbolTableRecord
100
AcDbBlockTableRecord
  2
CDWK_EXTR_3
  0
BLOCK_RECORD
  5
55
100
AcDbSymbolTableRecord
100
AcDbBlockTableRecord
  2
CDWK_EXTR_4
  0
BLOCK_RECORD
  5
56
100
AcDbSymbolTableRecord
100
AcDbBlockTableRecord
  2
CDWK_PTTYP0
  0
BLOCK_RECORD
  5
57
100
AcDbSymbolTableRecord
100
AcDbBlockTableRecord
  2
*X1
  0
BLOCK_RECORD
  5
58
100
AcDbSymbolTableRecord
100
AcDbBlockTableRecord
  2
*D1
  0
BLOCK_RECORD
  5
59
100
AcDbSymbolTableRecord
100
AcDbBlockTableRecord
  2
*D2
  0
BLOCK_RECORD
  5
5A
100
AcDbSymbolTableRecord
100
AcDbBlockTableRecord
  2
*D5
  0
BLOCK_RECORD
  5
5B
100
AcDbSymbolTableRecord
100
AcDbBlockTableRecord
  2
*D8
  0
BLOCK_RECORD
  5
5C
100
AcDbSymbolTableRecord
100
AcDbBlockTableRecord
  2
*D9
  0
BLOCK_RECORD
  5
5D
100
AcDbSymbolTableRecord
100
AcDbBlockTableRecord
  2
*D12
  0
ENDTAB
  0
ENDSEC
  0
SECTION
  2
BLOCKS
  0
BLOCK
  5
5E
100
AcDbEntity
  8
0
100
AcDbBlockBegin
  2
*MODEL_SPACE
 70
     0
 10
0.0
 20
0.0
 30
0.0
  3
*MODEL_SPACE
  1

  0
ENDBLK
  5
5F
100
AcDbEntity
100
AcDbBlockEnd
  0
BLOCK
  5
60
100
AcDbEntity
  8
0
100
AcDbBlockBegin
  2
*PAPER_SPACE
 70
     0
 10
0.0
 20
0.0
 30
0.0
  3
*PAPER_SPACE
  1

  0
ENDBLK
  5
61
100
AcDbEntity
100
AcDbBlockEnd
  0
BLOCK
  5
62
100
AcDbEntity
  8
0
100
AcDbBlockBegin
  2
CDWK_EXTR_0
 70
     0
 10
0.0
 20
0.0
 30
0.0
  3
CDWK_EXTR_0
  1

  4
Cadwork line-extremity
  0
LINE
  5
63
100
AcDbEntity
  8
0
 62
     0
370
    -2
100
AcDbLine
 10
0.0
 20
0.0
 30
0.0
 11
2.0
 21
0.5
 31
0.0
  0
LINE
  5
64
100
AcDbEntity
  8
0
 62
     0
370
    -2
100
AcDbLine
 10
0.0
 20
0.0
 30
0.0
 11
2.0
 21
-0.5
 31
0.0
  0
LINE
  5
65
100
AcDbEntity
  8
0
 62
     0
370
    -2
100
AcDbLine
 10
2.0
 20
0.5
 30
0.0
 11
2.0
 21
-0.5
 31
0.0
  0
ENDBLK
  5
66
100
AcDbEntity
100
AcDbBlockEnd
  0
BLOCK
  5
67
100
AcDbEntity
  8
0
100
AcDbBlockBegin
  2
CDWK_EXTR_1D
 70
     0
 10
0.0
 20
0.0
 30
0.0
  3
CDWK_EXTR_1D
  1

  4
Cadwork line-extremity
  0
LINE
  5
68
100
AcDbEntity
  8
0
 62
     0
370
    -2
100
AcDbLine
 10
0.0
 20
0.0
 30
0.0
 11
0.0
 21
1.0
 31
0.0
  0
LINE
  5
69
100
AcDbEntity
  8
0
 62
     0
370
    -2
100
AcDbLine
 10
0.0
 20
1.0
 30
0.0
 11
0.5
 21
1.5
 31
0.0
  0
LINE
  5
6A
100
AcDbEntity
  8
0
 62
     0
370
    -2
100
AcDbLine
 10
0.5
 20
1.5
 30
0.0
 11
1.5
 21
1.5
 31
0.0
  0
ENDBLK
  5
6B
100
AcDbEntity
100
AcDbBlockEnd
  0
BLOCK
  5
6C
100
AcDbEntity
  8
0
100
AcDbBlockBegin
  2
CDWK_EXTR_1G
 70
     0
 10
0.0
 20
0.0
 30
0.0
  3
CDWK_EXTR_1G
  1

  4
Cadwork line-extremity
  0
LINE
  5
6D
100
AcDbEntity
  8
0
 62
     0
370
    -2
100
AcDbLine
 10
0.0
 20
0.0
 30
0.0
 11
0.0
 21
-1.0
 31
0.0
  0
LINE
  5
6E
100
AcDbEntity
  8
0
 62
     0
370
    -2
100
AcDbLine
 10
0.0
 20
-1.0
 30
0.0
 11
0.5
 21
-1.5
 31
0.0
  0
LINE
  5
6F
100
AcDbEntity
  8
0
 62
     0
370
    -2
100
AcDbLine
 10
0.5
 20
-1.5
 30
0.0
 11
1.5
 21
-1.5
 31
0.0
  0
ENDBLK
  5
70
100
AcDbEntity
100
AcDbBlockEnd
  0
BLOCK
  5
71
100
AcDbEntity
  8
0
100
AcDbBlockBegin
  2
CDWK_EXTR_2
 70
     0
 10
0.0
 20
0.0
 30
0.0
  3
CDWK_EXTR_2
  1

  4
Cadwork line-extremity
  0
SOLID
  5
72
100
AcDbEntity
  8
0
 62
     0
100
AcDbTrace
 10
0.0
 20
0.0
 11
2.0
 21
0.5
 12
2.0
 22
-0.5
 13
2.0
 23
-0.5
  0
ENDBLK
  5
73
100
AcDbEntity
100
AcDbBlockEnd
  0
BLOCK
  5
74
100
AcDbEntity
  8
0
100
AcDbBlockBegin
  2
CDWK_EXTR_3
 70
     0
 10
0.0
 20
0.0
 30
0.0
  3
CDWK_EXTR_3
  1

  4
Cadwork line-extremity
  0
SOLID
  5
75
100
AcDbEntity
  8
0
 62
     0
100
AcDbTrace
 10
0.0
 20
0.0
 11
2.0
 21
0.5
 12
2.0
 22
-0.5
 13
2.0
 23
-0.5
  0
LINE
  5
76
100
AcDbEntity
  8
0
 62
     0
370
    -2
100
AcDbLine
 10
0.0
 20
1.0
 30
0.0
 11
0.0
 21
-1.0
 31
0.0
  0
ENDBLK
  5
77
100
AcDbEntity
100
AcDbBlockEnd
  0
BLOCK
  5
78
100
AcDbEntity
  8
0
100
AcDbBlockBegin
  2
CDWK_EXTR_4
 70
     0
 10
0.0
 20
0.0
 30
0.0
  3
CDWK_EXTR_4
  1

  4
Cadwork line-extremity
  0
HATCH
  5
79
100
AcDbEntity
  8
0
 62
     0
370
    20
100
AcDbHatch
 10
0.0
 20
0.0
 30
0.0
210
0.0
220
0.0
230
1.0
  2
SOLID
 70
     1
 71
     0
 91
        1
 92
        1
 93
        1
 72
     2
 10
0.0
 20
0.0
 40
0.5
 50
0.0
 51
360.0
 73
     1
 97
        0
 75
     0
 76
     1
 98
        1
 10
0.0
 20
0.0
  0
ENDBLK
  5
7A
100
AcDbEntity
100
AcDbBlockEnd
  0
BLOCK
  5
7B
100
AcDbEntity
  8
0
100
AcDbBlockBegin
  2
CDWK_PTTYP0
 70
     0
 10
0.0
 20
0.0
 30
0.0
  3
CDWK_PTTYP0
  1

  4
Cadwork point
  0
POINT
  5
7C
100
AcDbEntity
  8
0
 62
     0
100
AcDbPoint
 10
0.0
 20
0.0
 30
0.0
  0
ENDBLK
  5
7D
100
AcDbEntity
100
AcDbBlockEnd
  0
BLOCK
  5
7E
100
AcDbEntity
  8
Ech.1_5
100
AcDbBlockBegin
  2
*X1
 70
     1
 10
0.0
 20
0.0
 30
0.0
  3
*X1
  1

  4
Cadwork hatch
  0
LINE
  5
7F
100
AcDbEntity
  8
Ech.1_5
 62
     7
  6
CONTINUOUS
370
    -2
100
AcDbLine
 10
15120.71666779
 20
779.24710028
 30
0.0
 11
15347.53633054
 21
722.55376169
 31
0.0
  0
LINE
  5
80
100
AcDbEntity
  8
Ech.1_5
 62
     7
  6
CONTINUOUS
370
    -2
100
AcDbLine
 10
15120.71666779
 20
722.55376169
 30
0.0
 11
15347.53633054
 21
779.24799083
 31
0.0
  0
ENDBLK
  5
81
100
AcDbEntity
100
AcDbBlockEnd
  0
BLOCK
  5
82
100
AcDbEntity
  8
Ech.1_5
100
AcDbBlockBegin
  2
*D1
 70
     1
 10
0.0
 20
0.0
 30
0.0
  3
*D1
  1

  4
Cadwork dimension
  0
TEXT
  5
83
100
AcDbEntity
  8
Ech.1_5
 62
     7
370
    18
100
AcDbText
 10
15396.54296285
 20
900.0535126
 30
0.0
 40
12.5
  1
niv sol int fini %%P 0
  7
ARIAL
 50
0.0
 41
1.0
 51
0.0
100
AcDbText
  0
LINE
  5
84
100
AcDbEntity
  8
Ech.1_5
 62
     7
370
    -2
100
AcDbLine
 10
15458.84804166
 20
882.5535126
 30
0.0
 11
15446.34804166
 21
895.0535126
 31
0.0
  0
LINE
  5
85
100
AcDbEntity
  8
Ech.1_5
 62
     7
370
    -2
100
AcDbLine
 10
15446.34804166
 20
895.0535126
 30
0.0
 11
15471.34804166
 21
895.0535126
 31
0.0
  0
LINE
  5
86
100
AcDbEntity
  8
Ech.1_5
 62
     7
370
    -2
100
AcDbLine
 10
15471.34804166
 20
895.0535126
 30
0.0
 11
15458.84804166
 21
882.5535126
 31
0.0
  0
LINE
  5
87
100
AcDbEntity
  8
Ech.1_5
 62
     7
370
    -2
100
AcDbLine
 10
15446.34804166
 20
882.5535126
 30
0.0
 11
15508.84804166
 21
882.5535126
 31
0.0
  0
ENDBLK
  5
88
100
AcDbEntity
100
AcDbBlockEnd
  0
BLOCK
  5
89
100
AcDbEntity
  8
Ech.1_5
100
AcDbBlockBegin
  2
*D2
 70
     1
 10
0.0
 20
0.0
 30
0.0
  3
*D2
  1

  4
Cadwork dimension
  0
TEXT
  5
8A
100
AcDbEntity
  8
Ech.1_5
 62
     7
370
    18
100
AcDbText
 10
15303.22879619
 20
920.05351261
 30
0.0
 40
12.5
  1
ressaut max +20
  7
ARIAL
 50
0.0
 41
1.0
 51
0.0
100
AcDbText
  0
LINE
  5
8B
100
AcDbEntity
  8
Ech.1_5
 62
     7
370
    -2
100
AcDbLine
 10
15364.35610924
 20
902.55351261
 30
0.0
 11
15351.85610924
 21
915.05351261
 31
0.0
  0
LINE
  5
8C
100
AcDbEntity
  8
Ech.1_5
 62
     7
370
    -2
100
AcDbLine
 10
15351.85610924
 20
915.05351261
 30
0.0
 11
15376.85610924
 21
915.05351261
 31
0.0
  0
LINE
  5
8D
100
AcDbEntity
  8
Ech.1_5
 62
     7
370
    -2
100
AcDbLine
 10
15376.85610924
 20
915.05351261
 30
0.0
 11
15364.35610924
 21
902.55351261
 31
0.0
  0
LINE
  5
8E
100
AcDbEntity
  8
Ech.1_5
 62
     7
370
    -2
100
AcDbLine
 10
15376.85610924
 20
902.55351261
 30
0.0
 11
15314.35610924
 21
902.55351261
 31
0.0
  0
ENDBLK
  5
8F
100
AcDbEntity
100
AcDbBlockEnd
  0
BLOCK
  5
90
100
AcDbEntity
  8
Ech.1_5
100
AcDbBlockBegin
  2
*D5
 70
     1
 10
0.0
 20
0.0
 30
0.0
  3
*D5
  1

  4
Cadwork dimension
  0
TEXT
  5
91
100
AcDbEntity
  8
Ech.1_5
 62
     7
370
    18
100
AcDbText
 10
13993.21386163
 20
900.0535126
 30
0.0
 40
12.5
  1
niv sol int fini %%P 0
  7
ARIAL
 50
0.0
 41
1.0
 51
0.0
100
AcDbText
  0
LINE
  5
92
100
AcDbEntity
  8
Ech.1_5
 62
     7
370
    -2
100
AcDbLine
 10
14055.51894045
 20
882.5535126
 30
0.0
 11
14043.01894045
 21
895.0535126
 31
0.0
  0
LINE
  5
93
100
AcDbEntity
  8
Ech.1_5
 62
     7
370
    -2
100
AcDbLine
 10
14043.01894045
 20
895.0535126
 30
0.0
 11
14068.01894045
 21
895.0535126
 31
0.0
  0
LINE
  5
94
100
AcDbEntity
  8
Ech.1_5
 62
     7
370
    -2
100
AcDbLine
 10
14068.01894045
 20
895.0535126
 30
0.0
 11
14055.51894045
 21
882.5535126
 31
0.0
  0
LINE
  5
95
100
AcDbEntity
  8
Ech.1_5
 62
     7
370
    -2
100
AcDbLine
 10
14043.01894045
 20
882.5535126
 30
0.0
 11
14105.51894045
 21
882.5535126
 31
0.0
  0
ENDBLK
  5
96
100
AcDbEntity
100
AcDbBlockEnd
  0
BLOCK
  5
97
100
AcDbEntity
  8
Ech.1_5
100
AcDbBlockBegin
  2
*D8
 70
     1
 10
0.0
 20
0.0
 30
0.0
  3
*D8
  1

  4
Cadwork dimension
  0
TEXT
  5
98
100
AcDbEntity
  8
Ech.1_5
 62
     7
370
    18
100
AcDbText
 10
14545.52315749
 20
900.06113268
 30
0.0
 40
12.5
  1
niveau terrain naturel %%P 0
  7
ARIAL
 50
0.0
 41
1.0
 51
0.0
100
AcDbText
  0
LINE
  5
99
100
AcDbEntity
  8
Ech.1_5
 62
     7
370
    -2
100
AcDbLine
 10
14604.18714917
 20
882.56113268
 30
0.0
 11
14591.68714917
 21
895.06113268
 31
0.0
  0
LINE
  5
9A
100
AcDbEntity
  8
Ech.1_5
 62
     7
370
    -2
100
AcDbLine
 10
14591.68714917
 20
895.06113268
 30
0.0
 11
14616.68714917
 21
895.06113268
 31
0.0
  0
LINE
  5
9B
100
AcDbEntity
  8
Ech.1_5
 62
     7
370
    -2
100
AcDbLine
 10
14616.68714917
 20
895.06113268
 30
0.0
 11
14604.18714917
 21
882.56113268
 31
0.0
  0
LINE
  5
9C
100
AcDbEntity
  8
Ech.1_5
 62
     7
370
    -2
100
AcDbLine
 10
14616.68714917
 20
882.56113268
 30
0.0
 11
14554.18714917
 21
882.56113268
 31
0.0
  0
ENDBLK
  5
9D
100
AcDbEntity
100
AcDbBlockEnd
  0
BLOCK
  5
9E
100
AcDbEntity
  8
Ech.1_5
100
AcDbBlockBegin
  2
*D9
 70
     1
 10
0.0
 20
0.0
 30
0.0
  3
*D9
  1

  4
Cadwork dimension
  0
TEXT
  5
9F
100
AcDbEntity
  8
Ech.1_5
 62
     7
370
    18
100
AcDbText
 10
13144.02056385
 20
900.06113268
 30
0.0
 40
12.5
  1
niveau terrain naturel %%P 0
  7
ARIAL
 50
0.0
 41
1.0
 51
0.0
100
AcDbText
  0
LINE
  5
A0
100
AcDbEntity
  8
Ech.1_5
 62
     7
370
    -2
100
AcDbLine
 10
13202.68455553
 20
882.56113268
 30
0.0
 11
13190.18455553
 21
895.06113268
 31
0.0
  0
LINE
  5
A1
100
AcDbEntity
  8
Ech.1_5
 62
     7
370
    -2
100
AcDbLine
 10
13190.18455553
 20
895.06113268
 30
0.0
 11
13215.18455553
 21
895.06113268
 31
0.0
  0
LINE
  5
A2
100
AcDbEntity
  8
Ech.1_5
 62
     7
370
    -2
100
AcDbLine
 10
13215.18455553
 20
895.06113268
 30
0.0
 11
13202.68455553
 21
882.56113268
 31
0.0
  0
LINE
  5
A3
100
AcDbEntity
  8
Ech.1_5
 62
     7
370
    -2
100
AcDbLine
 10
13215.18455553
 20
882.56113268
 30
0.0
 11
13152.68455553
 21
882.56113268
 31
0.0
  0
ENDBLK
  5
A4
100
AcDbEntity
100
AcDbBlockEnd
  0
BLOCK
  5
A5
100
AcDbEntity
  8
Ech.1_5
100
AcDbBlockBegin
  2
*D12
 70
     1
 10
0.0
 20
0.0
 30
0.0
  3
*D12
  1

  4
Cadwork dimension
  0
TEXT
  5
A6
100
AcDbEntity
  8
Ech.1_5
 62
     7
370
    18
100
AcDbText
 10
15068.22734761
 20
568.62621095
 30
0.0
 40
12.5
  1
min 200
  7
ARIAL
 50
89.9999975
 41
1.0
 51
0.0
100
AcDbText
  0
LINE
  5
A7
100
AcDbEntity
  8
Ech.1_5
 62
     7
370
    -2
100
AcDbLine
 10
15078.22734761
 20
478.04838845
 30
0.0
 11
15070.71674313
 21
478.04838845
 31
0.0
  0
LINE
  5
A8
100
AcDbEntity
  8
Ech.1_5
 62
     7
370
    -2
100
AcDbLine
 10
15078.22734761
 20
722.55383011
 30
0.0
 11
15105.71686301
 21
722.55383011
 31
0.0
  0
LINE
  5
A9
100
AcDbEntity
  8
Ech.1_5
 62
     7
370
    -2
100
AcDbLine
 10
15073.22734761
 20
473.04838845
 30
0.0
 11
15073.22734761
 21
727.55383011
 31
0.0
  0
LINE
  5
AA
100
AcDbEntity
  8
Ech.1_5
 62
     7
370
    -2
100
AcDbLine
 10
15075.72734761
 20
475.54838845
 30
0.0
 11
15070.72734761
 21
480.54838845
 31
0.0
  0
LINE
  5
AB
100
AcDbEntity
  8
Ech.1_5
 62
     7
370
    -2
100
AcDbLine
 10
15075.72734761
 20
720.05383011
 30
0.0
 11
15070.72734761
 21
725.05383011
 31
0.0
  0
ENDBLK
  5
AC
100
AcDbEntity
100
AcDbBlockEnd
  0
ENDSEC
  0
SECTION
  2
ENTITIES
  0
INSERT
  5
AD
100
AcDbEntity
  8
Ech.1_5
 62
     0
370
    -3
100
AcDbBlockReference
  2
*X1
 10
0.0
 20
0.0
 30
0.0
  0
LINE
  5
AE
100
AcDbEntity
  8
Ech.1_5
 62
     7
  6
CONTINUOUS
370
    -3
100
AcDbLine
 10
15343.71687247
 20
1052.55439618
 30
-497.52014013
 11
15303.71687247
 21
1052.55439618
 31
-497.52014013
  0
LINE
  5
AF
100
AcDbEntity
  8
Ech.1_5
 62
     7
  6
CONTINUOUS
370
    -3
100
AcDbLine
 10
15343.71687247
 20
902.55439618
 30
-647.52014013
 11
15343.71687247
 21
1052.55439618
 31
-497.52014013
  0
LINE
  5
B0
100
AcDbEntity
  8
Ech.1_5
 62
     7
  6
CONTINUOUS
370
    -3
100
AcDbLine
 10
15303.71687247
 20
902.55439618
 30
-647.52014013
 11
15303.71687247
 21
1052.55439618
 31
-497.52014013
  0
LINE
  5
B1
100
AcDbEntity
  8
Ech.1_5
 62
     7
  6
CONTINUOUS
370
    -3
100
AcDbLine
 10
15343.71687247
 20
902.55439618
 30
-647.52014013
 11
15303.71687247
 21
902.55439618
 31
-647.52014013
  0
LINE
  5
B2
100
AcDbEntity
  8
Ech.1_5
 62
     7
  6
CONTINUOUS
370
    -3
100
AcDbLine
 10
15343.71687247
 20
1458.38772952
 30
-91.6868068
 11
15303.71687247
 21
1458.38772952
 31
-91.6868068
  0
LINE
  5
B3
100
AcDbEntity
  8
Ech.1_5
 62
     7
  6
CONTINUOUS
370
    -3
100
AcDbLine
 10
15343.71687247
 20
1458.38772952
 30
-91.6868068
 11
15343.71687247
 21
1347.88772952
 31
-202.1868068
  0
LINE
  5
B4
100
AcDbEntity
  8
Ech.1_5
 62
     7
  6
CONTINUOUS
370
    -3
100
AcDbLine
 10
15303.71687247
 20
1458.38772952
 30
-91.6868068
 11
15303.71687247
 21
1347.88772952
 31
-202.1868068
  0
LINE
  5
B5
100
AcDbEntity
  8
Ech.1_5
 62
     7
  6
CONTINUOUS
370
    -3
100
AcDbLine
 10
15343.71687247
 20
1347.88772952
 30
-202.1868068
 11
15303.71687247
 21
1347.88772952
 31
-202.1868068
  0
LINE
  5
B6
100
AcDbEntity
  8
Ech.1_5
 62
     7
  6
CONTINUOUS
370
    -3
100
AcDbLine
 10
15343.71687247
 20
1292.63772952
 30
-257.4368068
 11
15303.71687247
 21
1292.63772952
 31
-257.4368068
  0
LINE
  5
B7
100
AcDbEntity
  8
Ech.1_5
 62
     7
  6
CONTINUOUS
370
    -3
100
AcDbLine
 10
15343.71687247
 20
1107.80439618
 30
-442.27014013
 11
15343.71687247
 21
1292.63772952
 31
-257.4368068
  0
LINE
  5
B8
100
AcDbEntity
  8
Ech.1_5
 62
     7
  6
CONTINUOUS
370
    -3
100
AcDbLine
 10
15303.71687247
 20
1292.63772952
 30
-257.4368068
 11
15303.71687247
 21
1107.80439618
 31
-442.27014013
  0
LINE
  5
B9
100
AcDbEntity
  8
Ech.1_5
 62
     7
  6
CONTINUOUS
370
    -3
100
AcDbLine
 10
15343.71687247
 20
1107.80439618
 30
-442.27014013
 11
15303.71687247
 21
1107.80439618
 31
-442.27014013
  0
LINE
  5
BA
100
AcDbEntity
  8
Ech.1_5
 62
     7
  6
CONTINUOUS
370
    -3
100
AcDbLine
 10
15333.71687247
 20
1107.80439618
 30
-442.27014013
 11
15313.71687247
 21
1107.80439618
 31
-442.27014013
  0
LINE
  5
BB
100
AcDbEntity
  8
Ech.1_5
 62
     7
  6
CONTINUOUS
370
    -3
100
AcDbLine
 10
15333.71687247
 20
1107.80439618
 30
-442.27014013
 11
15333.71687247
 21
1052.55439618
 31
-497.52014013
  0
LINE
  5
BC
100
AcDbEntity
  8
Ech.1_5
 62
     7
  6
CONTINUOUS
370
    -3
100
AcDbLine
 10
15313.71687247
 20
1052.55439618
 30
-497.52014013
 11
15313.71687247
 21
1107.80439618
 31
-442.27014013
  0
LINE
  5
BD
100
AcDbEntity
  8
Ech.1_5
 62
     7
  6
CONTINUOUS
370
    -3
100
AcDbLine
 10
15333.71687247
 20
1052.55439618
 30
-497.52014013
 11
15313.71687247
 21
1052.55439618
 31
-497.52014013
  0
LINE
  5
BE
100
AcDbEntity
  8
Ech.1_5
 62
     7
  6
CONTINUOUS
370
    -3
100
AcDbLine
 10
15333.71687247
 20
1347.88772952
 30
-202.1868068
 11
15313.71687247
 21
1347.88772952
 31
-202.1868068
  0
LINE
  5
BF
100
AcDbEntity
  8
Ech.1_5
 62
     7
  6
CONTINUOUS
370
    -3
100
AcDbLine
 10
15333.71687247
 20
1347.88772952
 30
-202.1868068
 11
15333.71687247
 21
1292.63772952
 31
-257.4368068
  0
LINE
  5
C0
100
AcDbEntity
  8
Ech.1_5
 62
     7
  6
CONTINUOUS
370
    -3
100
AcDbLine
 10
15313.71687247
 20
1347.88772952
 30
-202.1868068
 11
15313.71687247
 21
1292.63772952
 31
-257.4368068
  0
LINE
  5
C1
100
AcDbEntity
  8
Ech.1_5
 62
     7
  6
CONTINUOUS
370
    -3
100
AcDbLine
 10
15333.71687247
 20
1292.63772952
 30
-257.4368068
 11
15313.71687247
 21
1292.63772952
 31
-257.4368068
  0
LINE
  5
C2
100
AcDbEntity
  8
Ech.1_5
 62
     7
  6
CONTINUOUS
370
    -3
100
AcDbLine
 10
15326.71687247
 20
1458.38772952
 30
-91.6868068
 11
15326.71687247
 21
1527.77898049
 31
-22.29555582
  0
LINE
  5
C3
100
AcDbEntity
  8
Ech.1_5
 62
     7
  6
CONTINUOUS
370
    -3
100
AcDbLine
 10
15320.71687247
 20
1527.77898049
 30
-22.29555582
 11
15320.71687247
 21
1458.38772952
 31
-91.6868068
  0
LINE
  5
C4
100
AcDbEntity
  8
Ech.1_5
 62
     7
  6
CONTINUOUS
370
    -3
100
AcDbLine
 10
15326.71687247
 20
1458.38772952
 30
-91.6868068
 11
15320.71687247
 21
1458.38772952
 31
-91.6868068
  0
LINE
  5
C5
100
AcDbEntity
  8
Ech.1_5
 62
     7
  6
CONTINUOUS
370
    -3
100
AcDbLine
 10
15345.93684956
 20
885.05439618
 30
-665.02014013
 11
15339.44371661
 21
885.05439618
 31
-665.02014013
  0
LINE
  5
C6
100
AcDbEntity
  8
Ech.1_5
 62
     7
  6
CONTINUOUS
370
    -3
100
AcDbLine
 10
15345.93684956
 20
882.55439618
 30
-667.52014013
 11
15345.93684956
 21
885.05439618
 31
-665.02014013
  0
LINE
  5
C7
100
AcDbEntity
  8
Ech.1_5
 62
     7
  6
CONTINUOUS
370
    -3
100
AcDbLine
 10
15347.53684956
 20
882.55439618
 30
-667.52014013
 11
15345.93684956
 21
882.55439618
 31
-667.52014013
  0
LINE
  5
C8
100
AcDbEntity
  8
Ech.1_5
 62
     7
  6
CONTINUOUS
370
    -3
100
AcDbLine
 10
15347.53684956
 20
885.55439618
 30
-664.52014013
 11
15347.53684956
 21
882.55439618
 31
-667.52014013
  0
LINE
  5
C9
100
AcDbEntity
  8
Ech.1_5
 62
     7
  6
CONTINUOUS
370
    -3
100
AcDbLine
 10
15347.53684956
 20
885.55439618
 30
-664.52014013
 11
15347.46072909
 21
885.93707961
 31
-664.1374567
  0
LINE
  5
CA
100
AcDbEntity
  8
Ech.1_5
 62
     7
  6
CONTINUOUS
370
    -3
100
AcDbLine
 10
15347.46072909
 20
885.93707961
 30
-664.1374567
 11
15347.24395634
 21
886.26150296
 31
-663.81303335
  0
LINE
  5
CB
100
AcDbEntity
  8
Ech.1_5
 62
     7
  6
CONTINUOUS
370
    -3
100
AcDbLine
 10
15347.24395634
 20
886.26150296
 30
-663.81303335
 11
15346.91953299
 21
886.47827571
 31
-663.5962606
  0
LINE
  5
CC
100
AcDbEntity
  8
Ech.1_5
 62
     7
  6
CONTINUOUS
370
    -3
100
AcDbLine
 10
15346.91953299
 20
886.47827571
 30
-663.5962606
 11
15346.53684956
 21
886.55439618
 31
-663.52014013
  0
LINE
  5
CD
100
AcDbEntity
  8
Ech.1_5
 62
     7
  6
CONTINUOUS
370
    -3
100
AcDbLine
 10
15342.53684956
 20
902.55439618
 30
-647.52014013
 11
15342.53684956
 21
899.63017673
 31
-650.44435958
  0
LINE
  5
CE
100
AcDbEntity
  8
Ech.1_5
 62
     7
  6
CONTINUOUS
370
    -3
100
AcDbLine
 10
15342.53684956
 20
886.55439618
 30
-663.52014013
 11
15342.5311199
 21
889.52447209
 31
-660.55006422
  0
LINE
  5
CF
100
AcDbEntity
  8
Ech.1_5
 62
     7
  6
CONTINUOUS
370
    -3
100
AcDbLine
 10
15342.5311199
 20
889.52447209
 30
-660.55006422
 11
15342.35264289
 21
889.74287242
 31
-660.33166389
  0
LINE
  5
D0
100
AcDbEntity
  8
Ech.1_5
 62
     7
  6
CONTINUOUS
370
    -3
100
AcDbLine
 10
15342.35264289
 20
889.74287242
 30
-660.33166389
 11
15341.55264289
 21
890.07759277
 31
-659.99694354
  0
LINE
  5
D1
100
AcDbEntity
  8
Ech.1_5
 62
     7
  6
CONTINUOUS
370
    -3
100
AcDbLine
 10
15341.55264289
 20
890.07759277
 30
-659.99694354
 11
15341.29358763
 21
890.0644234
 31
-660.01011292
  0
LINE
  5
D2
100
AcDbEntity
  8
Ech.1_5
 62
     7
  6
CONTINUOUS
370
    -3
100
AcDbLine
 10
15341.29358763
 20
890.0644234
 30
-660.01011292
 11
15341.13684956
 21
889.80084035
 31
-660.27369596
  0
LINE
  5
D3
100
AcDbEntity
  8
Ech.1_5
 62
     7
  6
CONTINUOUS
370
    -3
100
AcDbLine
 10
15341.13684956
 20
887.97286066
 30
-662.10167565
 11
15341.13684956
 21
889.80084035
 31
-660.27369596
  0
LINE
  5
D4
100
AcDbEntity
  8
Ech.1_5
 62
     7
  6
CONTINUOUS
370
    -3
100
AcDbLine
 10
15341.13684956
 20
887.97286066
 30
-662.10167565
 11
15337.72204453
 21
889.38731922
 31
-660.68721709
  0
LINE
  5
D5
100
AcDbEntity
  8
Ech.1_5
 62
     7
  6
CONTINUOUS
370
    -3
100
AcDbLine
 10
15337.72204453
 20
889.38731922
 30
-660.68721709
 11
15337.58740867
 21
889.49781201
 31
-660.5767243
  0
LINE
  5
D6
100
AcDbEntity
  8
Ech.1_5
 62
     7
  6
CONTINUOUS
370
    -3
100
AcDbLine
 10
15337.58740867
 20
889.49781201
 30
-660.5767243
 11
15337.54261397
 21
889.60595599
 31
-660.46858033
  0
LINE
  5
D7
100
AcDbEntity
  8
Ech.1_5
 62
     7
  6
CONTINUOUS
370
    -3
100
AcDbLine
 10
15302.95983443
 20
882.57723232
 30
-667.49730399
 11
15301.35983443
 21
882.57723232
 31
-667.49730399
  0
LINE
  5
D8
100
AcDbEntity
  8
Ech.1_5
 62
     7
  6
CONTINUOUS
370
    -3
100
AcDbLine
 10
15339.44371661
 20
885.05439618
 30
-665.02014013
 11
15339.3891429
 21
885.05940176
 31
-665.01513456
  0
LINE
  5
D9
100
AcDbEntity
  8
Ech.1_5
 62
     7
  6
CONTINUOUS
370
    -3
100
AcDbLine
 10
15339.3891429
 20
885.05940176
 30
-665.01513456
 11
15339.28721931
 21
885.09844971
 31
-664.9760866
  0
LINE
  5
DA
100
AcDbEntity
  8
Ech.1_5
 62
     7
  6
CONTINUOUS
370
    -3
100
AcDbLine
 10
15316.20983443
 20
885.05439618
 30
-665.02014013
 11
15302.95983443
 21
885.05439618
 31
-665.02014013
  0
LINE
  5
DB
100
AcDbEntity
  8
Ech.1_5
 62
     7
  6
CONTINUOUS
370
    -3
100
AcDbLine
 10
15316.20983443
 20
882.55439618
 30
-667.52014013
 11
15316.20983443
 21
885.05439618
 31
-665.02014013
  0
LINE
  5
DC
100
AcDbEntity
  8
Ech.1_5
 62
     7
  6
CONTINUOUS
370
    -3
100
AcDbLine
 10
15317.80983443
 20
882.55439618
 30
-667.52014013
 11
15316.20983443
 21
882.55439618
 31
-667.52014013
  0
LINE
  5
DD
100
AcDbEntity
  8
Ech.1_5
 62
     7
  6
CONTINUOUS
370
    -3
100
AcDbLine
 10
15317.80983443
 20
885.05439618
 30
-665.02014013
 11
15317.80983443
 21
882.55439618
 31
-667.52014013
  0
LINE
  5
DE
100
AcDbEntity
  8
Ech.1_5
 62
     7
  6
CONTINUOUS
370
    -3
100
AcDbLine
 10
15331.05983443
 20
885.05439618
 30
-665.02014013
 11
15317.80983443
 21
885.05439618
 31
-665.02014013
  0
LINE
  5
DF
100
AcDbEntity
  8
Ech.1_5
 62
     7
  6
CONTINUOUS
370
    -3
100
AcDbLine
 10
15331.05983443
 20
882.55439618
 30
-667.52014013
 11
15331.05983443
 21
885.05439618
 31
-665.02014013
  0
LINE
  5
E0
100
AcDbEntity
  8
Ech.1_5
 62
     7
  6
CONTINUOUS
370
    -3
100
AcDbLine
 10
15332.65983443
 20
882.55439618
 30
-667.52014013
 11
15331.05983443
 21
882.55439618
 31
-667.52014013
  0
LINE
  5
E1
100
AcDbEntity
  8
Ech.1_5
 62
     7
  6
CONTINUOUS
370
    -3
100
AcDbLine
 10
15271.93677832
 20
885.63568481
 30
-664.4388515
 11
15271.68764738
 21
885.3638061
 31
-664.71073022
  0
LINE
  5
E2
100
AcDbEntity
  8
Ech.1_5
 62
     7
  6
CONTINUOUS
370
    -3
100
AcDbLine
 10
15334.03421089
 20
885.10750492
 30
-664.9670314
 11
15332.65983443
 21
885.05439618
 31
-665.02014013
  0
LINE
  5
E3
100
AcDbEntity
  8
Ech.1_5
 62
     7
  6
CONTINUOUS
370
    -3
100
AcDbLine
 10
15334.46619338
 20
886.25353711
 30
-663.82099921
 11
15334.03421089
 21
885.10750492
 31
-664.9670314
  0
LINE
  5
E4
100
AcDbEntity
  8
Ech.1_5
 62
     7
  6
CONTINUOUS
370
    -3
100
AcDbLine
 10
15335.49261419
 20
887.2651872
 30
-662.80934912
 11
15334.46619338
 21
886.25353711
 31
-663.82099921
  0
LINE
  5
E5
100
AcDbEntity
  8
Ech.1_5
 62
     7
  6
CONTINUOUS
370
    -3
100
AcDbLine
 10
15336.42038874
 20
887.54290292
 30
-662.5316334
 11
15335.49261419
 21
887.2651872
 31
-662.80934912
  0
LINE
  5
E6
100
AcDbEntity
  8
Ech.1_5
 62
     7
  6
CONTINUOUS
370
    -3
100
AcDbLine
 10
15336.90692106
 20
887.54215586
 30
-662.53238046
 11
15336.42038874
 21
887.54290292
 31
-662.5316334
  0
LINE
  5
E7
100
AcDbEntity
  8
Ech.1_5
 62
     7
  6
CONTINUOUS
370
    -3
100
AcDbLine
 10
15337.83383839
 20
887.2615923
 30
-662.81294401
 11
15336.90692106
 21
887.54215586
 31
-662.53238046
  0
LINE
  5
E8
100
AcDbEntity
  8
Ech.1_5
 62
     7
  6
CONTINUOUS
370
    -3
100
AcDbLine
 10
15338.58458155
 20
886.64981102
 30
-663.4247253
 11
15337.83383839
 21
887.2615923
 31
-662.81294401
  0
LINE
  5
E9
100
AcDbEntity
  8
Ech.1_5
 62
     7
  6
CONTINUOUS
370
    -3
100
AcDbLine
 10
15339.04649204
 20
885.79861754
 30
-664.27591878
 11
15338.58458155
 21
886.64981102
 31
-663.4247253
  0
LINE
  5
EA
100
AcDbEntity
  8
Ech.1_5
 62
     7
  6
CONTINUOUS
370
    -3
100
AcDbLine
 10
15339.28721931
 20
885.09844971
 30
-664.9760866
 11
15339.04649204
 21
885.79861754
 31
-664.27591878
  0
LINE
  5
EB
100
AcDbEntity
  8
Ech.1_5
 62
     7
  6
CONTINUOUS
370
    -3
100
AcDbLine
 10
15337.54261397
 20
889.60595599
 30
-660.46858033
 11
15337.53684956
 21
900.74863177
 31
-649.32590455
  0
LINE
  5
EC
100
AcDbEntity
  8
Ech.1_5
 62
     7
  6
CONTINUOUS
370
    -3
100
AcDbLine
 10
15302.95983443
 20
885.05439618
 30
-665.02014013
 11
15302.95983443
 21
882.57723232
 31
-667.49730399
  0
LINE
  5
ED
100
AcDbEntity
  8
Ech.1_5
 62
     7
  6
CONTINUOUS
370
    -3
100
AcDbLine
 10
15301.35983443
 20
882.57723232
 30
-667.49730399
 11
15301.35983443
 21
885.05439618
 31
-665.02014013
  0
LINE
  5
EE
100
AcDbEntity
  8
Ech.1_5
 62
     7
  6
CONTINUOUS
370
    -3
100
AcDbLine
 10
15334.53684956
 20
900.75439618
 30
-649.32014013
 11
15329.23684956
 21
900.75439618
 31
-649.32014013
  0
LINE
  5
EF
100
AcDbEntity
  8
Ech.1_5
 62
     7
  6
CONTINUOUS
370
    -3
100
AcDbLine
 10
15337.53684956
 20
900.74863177
 30
-649.32590455
 11
15334.53684956
 21
900.75439618
 31
-649.32014013
  0
LINE
  5
F0
100
AcDbEntity
  8
Ech.1_5
 62
     7
  6
CONTINUOUS
370
    -3
100
AcDbLine
 10
15334.53684956
 20
887.55439618
 30
-662.52014013
 11
15334.53684956
 21
900.75439618
 31
-649.32014013
  0
LINE
  5
F1
100
AcDbEntity
  8
Ech.1_5
 62
     7
  6
CONTINUOUS
370
    -3
100
AcDbLine
 10
15334.53684956
 20
887.55439618
 30
-662.52014013
 11
15286.50983443
 21
887.55439618
 31
-662.52014013
  0
LINE
  5
F2
100
AcDbEntity
  8
Ech.1_5
 62
     7
  6
CONTINUOUS
370
    -3
100
AcDbLine
 10
15286.50983443
 20
887.06203585
 30
-663.01250046
 11
15286.50983443
 21
887.55439618
 31
-662.52014013
  0
LINE
  5
F3
100
AcDbEntity
  8
Ech.1_5
 62
     7
  6
CONTINUOUS
370
    -3
100
AcDbLine
 10
15286.50983443
 20
887.06203585
 30
-663.01250046
 11
15272.44969381
 21
885.83193294
 31
-664.24260337
  0
LINE
  5
F4
100
AcDbEntity
  8
Ech.1_5
 62
     7
  6
CONTINUOUS
370
    -3
100
AcDbLine
 10
15272.44969381
 20
885.83193294
 30
-664.24260337
 11
15271.93677832
 21
885.63568481
 31
-664.4388515
  0
LINE
  5
F5
100
AcDbEntity
  8
Ech.1_5
 62
     7
  6
CONTINUOUS
370
    -3
100
AcDbLine
 10
15332.65983443
 20
885.05439618
 30
-665.02014013
 11
15332.65983443
 21
882.55439618
 31
-667.52014013
  0
LINE
  5
F6
100
AcDbEntity
  8
Ech.1_5
 62
     7
  6
CONTINUOUS
370
    -3
100
AcDbLine
 10
15271.68764738
 20
885.3638061
 30
-664.71073022
 11
15271.53684956
 21
884.83573824
 31
-665.23879807
  0
LINE
  5
F7
100
AcDbEntity
  8
Ech.1_5
 62
     7
  6
CONTINUOUS
370
    -3
100
AcDbLine
 10
15271.53684956
 20
882.55439618
 30
-667.52014013
 11
15271.53684956
 21
884.83573824
 31
-665.23879807
  0
LINE
  5
F8
100
AcDbEntity
  8
Ech.1_5
 62
     7
  6
CONTINUOUS
370
    -3
100
AcDbLine
 10
15273.13684956
 20
882.55439618
 30
-667.52014013
 11
15271.53684956
 21
882.55439618
 31
-667.52014013
  0
LINE
  5
F9
100
AcDbEntity
  8
Ech.1_5
 62
     7
  6
CONTINUOUS
370
    -3
100
AcDbLine
 10
15273.13684956
 20
883.8844116
 30
-666.19012471
 11
15273.13684956
 21
882.55439618
 31
-667.52014013
  0
LINE
  5
FA
100
AcDbEntity
  8
Ech.1_5
 62
     7
  6
CONTINUOUS
370
    -3
100
AcDbLine
 10
15286.50983443
 20
885.05439618
 30
-665.02014013
 11
15273.13684956
 21
883.8844116
 31
-666.19012471
  0
LINE
  5
FB
100
AcDbEntity
  8
Ech.1_5
 62
     7
  6
CONTINUOUS
370
    -3
100
AcDbLine
 10
15286.50983443
 20
882.5601606
 30
-667.51437572
 11
15286.50983443
 21
885.05439618
 31
-665.02014013
  0
LINE
  5
FC
100
AcDbEntity
  8
Ech.1_5
 62
     7
  6
CONTINUOUS
370
    -3
100
AcDbLine
 10
15288.10983443
 20
882.5601606
 30
-667.51437572
 11
15286.50983443
 21
882.5601606
 31
-667.51437572
  0
LINE
  5
FD
100
AcDbEntity
  8
Ech.1_5
 62
     7
  6
CONTINUOUS
370
    -3
100
AcDbLine
 10
15288.10983443
 20
885.05439618
 30
-665.02014013
 11
15288.10983443
 21
882.5601606
 31
-667.51437572
  0
LINE
  5
FE
100
AcDbEntity
  8
Ech.1_5
 62
     7
  6
CONTINUOUS
370
    -3
100
AcDbLine
 10
15329.23684956
 20
900.75439618
 30
-649.32014013
 11
15329.12204453
 21
900.73156004
 31
-649.34297627
  0
LINE
  5
FF
100
AcDbEntity
  8
Ech.1_5
 62
     7
  6
CONTINUOUS
370
    -3
100
AcDbLine
 10
15329.12204453
 20
900.73156004
 30
-649.34297627
 11
15328.98740867
 21
900.62106725
 31
-649.45346906
  0
LINE
  5
100
100
AcDbEntity
  8
Ech.1_5
 62
     7
  6
CONTINUOUS
370
    -3
100
AcDbLine
 10
15301.35983443
 20
885.05439618
 30
-665.02014013
 11
15288.10983443
 21
885.05439618
 31
-665.02014013
  0
LINE
  5
101
100
AcDbEntity
  8
Ech.1_5
 62
     7
  6
CONTINUOUS
370
    -3
100
AcDbLine
 10
15341.13684956
 20
900.74863177
 30
-649.32590455
 11
15334.53684956
 21
900.75439618
 31
-649.32014013
  0
LINE
  5
102
100
AcDbEntity
  8
Ech.1_5
 62
     7
  6
CONTINUOUS
370
    -3
100
AcDbLine
 10
15341.13684956
 20
899.29880588
 30
-650.77573043
 11
15341.13684956
 21
900.74863177
 31
-649.32590455
  0
LINE
  5
103
100
AcDbEntity
  8
Ech.1_5
 62
     7
  6
CONTINUOUS
370
    -3
100
AcDbLine
 10
15341.24860886
 20
899.06521342
 30
-651.00932289
 11
15341.13684956
 21
899.29880588
 31
-650.77573043
  0
LINE
  5
104
100
AcDbEntity
  8
Ech.1_5
 62
     7
  6
CONTINUOUS
370
    -3
100
AcDbLine
 10
15341.44755726
 20
898.99899703
 30
-651.07553928
 11
15341.24860886
 21
899.06521342
 31
-651.00932289
  0
LINE
  5
105
100
AcDbEntity
  8
Ech.1_5
 62
     7
  6
CONTINUOUS
370
    -3
100
AcDbLine
 10
15341.55165459
 20
899.02164202
 30
-651.05289429
 11
15341.44755726
 21
898.99899703
 31
-651.07553928
  0
LINE
  5
106
100
AcDbEntity
  8
Ech.1_5
 62
     7
  6
CONTINUOUS
370
    -3
100
AcDbLine
 10
15342.44898159
 20
899.4180447
 30
-650.65649162
 11
15341.55165459
 21
899.02164202
 31
-651.05289429
  0
LINE
  5
107
100
AcDbEntity
  8
Ech.1_5
 62
     7
  6
CONTINUOUS
370
    -3
100
AcDbLine
 10
15342.51401342
 20
899.5153717
 30
-650.55916461
 11
15342.44898159
 21
899.4180447
 31
-650.65649162
  0
LINE
  5
108
100
AcDbEntity
  8
Ech.1_5
 62
     7
  6
CONTINUOUS
370
    -3
100
AcDbLine
 10
15342.53684956
 20
899.63017673
 30
-650.44435958
 11
15342.51401342
 21
899.5153717
 31
-650.55916461
  0
LINE
  5
109
100
AcDbEntity
  8
Ech.1_5
 62
     7
  6
CONTINUOUS
370
    -3
100
AcDbLine
 10
15346.53684956
 20
886.55439618
 30
-663.52014013
 11
15342.53684956
 21
886.55439618
 31
-663.52014013
  0
LINE
  5
10A
100
AcDbEntity
  8
Ech.1_5
 62
     7
  6
CONTINUOUS
370
    -3
100
AcDbLine
 10
15342.53684956
 20
902.55439618
 30
-647.52014013
 11
15327.53685011
 21
902.55439618
 31
-647.52014013
  0
LINE
  5
10B
100
AcDbEntity
  8
Ech.1_5
 62
     7
  6
CONTINUOUS
370
    -3
100
AcDbLine
 10
15327.53685011
 20
896.80469856
 30
-653.26983776
 11
15327.53685011
 21
902.55439618
 31
-647.52014013
  0
LINE
  5
10C
100
AcDbEntity
  8
Ech.1_5
 62
     7
  6
CONTINUOUS
370
    -3
100
AcDbLine
 10
15328.03684983
 20
896.55439618
 30
-653.52014013
 11
15327.53685011
 21
896.80469856
 31
-653.26983776
  0
LINE
  5
10D
100
AcDbEntity
  8
Ech.1_5
 62
     7
  6
CONTINUOUS
370
    -3
100
AcDbLine
 10
15328.43684956
 20
896.55439618
 30
-653.52014013
 11
15328.03684983
 21
896.55439618
 31
-653.52014013
  0
LINE
  5
10E
100
AcDbEntity
  8
Ech.1_5
 62
     7
  6
CONTINUOUS
370
    -3
100
AcDbLine
 10
15328.79040295
 20
896.70084279
 30
-653.37369352
 11
15328.43684956
 21
896.55439618
 31
-653.52014013
  0
LINE
  5
10F
100
AcDbEntity
  8
Ech.1_5
 62
     7
  6
CONTINUOUS
370
    -3
100
AcDbLine
 10
15328.93684956
 20
897.05439618
 30
-653.02014013
 11
15328.79040295
 21
896.70084279
 31
-653.37369352
  0
LINE
  5
110
100
AcDbEntity
  8
Ech.1_5
 62
     7
  6
CONTINUOUS
370
    -3
100
AcDbLine
 10
15328.93684956
 20
900.45439618
 30
-649.62014013
 11
15328.93684956
 21
897.05439618
 31
-653.02014013
  0
LINE
  5
111
100
AcDbEntity
  8
Ech.1_5
 62
     7
  6
CONTINUOUS
370
    -3
100
AcDbLine
 10
15328.98740867
 20
900.62106725
 30
-649.45346906
 11
15328.93684956
 21
900.45439618
 31
-649.62014013
  0
LINE
  5
112
100
AcDbEntity
  8
Ech.1_5
 62
     7
  6
CONTINUOUS
370
    -3
100
AcDbLine
 10
15347.53786524
 20
872.55439618
 30
-677.52014013
 11
15290.71692637
 21
872.55439618
 31
-677.52014013
  0
LINE
  5
113
100
AcDbEntity
  8
Ech.1_5
 62
     7
  6
CONTINUOUS
370
    -3
100
AcDbLine
 10
15347.53786524
 20
872.55439618
 30
-677.52014013
 11
15347.53701843
 21
882.5601606
 31
-667.51437572
  0
LINE
  5
114
100
AcDbEntity
  8
Ech.1_5
 62
     7
  6
CONTINUOUS
370
    -3
100
AcDbLine
 10
15347.53701843
 20
882.5601606
 30
-667.51437572
 11
15290.71692637
 21
882.5601606
 31
-667.51437572
  0
LINE
  5
115
100
AcDbEntity
  8
Ech.1_5
 62
     7
  6
CONTINUOUS
370
    -3
100
AcDbLine
 10
15003.91143603
 20
759.29034068
 30
-790.78419563
 11
15003.91143603
 21
819.29034068
 31
-730.78419563
  0
LINE
  5
116
100
AcDbEntity
  8
Ech.1_5
 62
     7
  6
CONTINUOUS
370
    -3
100
AcDbLine
 10
15003.91143603
 20
819.29034068
 30
-730.78419563
 11
15002.41143603
 21
819.29034068
 31
-730.78419563
  0
LINE
  5
117
100
AcDbEntity
  8
Ech.1_5
 62
     7
  6
CONTINUOUS
370
    -3
100
AcDbLine
 10
15002.41143603
 20
819.29034068
 30
-730.78419563
 11
15002.41143603
 21
759.29034068
 31
-790.78419563
  0
LINE
  5
118
100
AcDbEntity
  8
Ech.1_5
 62
     7
  6
CONTINUOUS
370
    -3
100
AcDbLine
 10
15003.91143603
 20
759.29034068
 30
-790.78419563
 11
15002.41143603
 21
759.29034068
 31
-790.78419563
  0
LINE
  5
119
100
AcDbEntity
  8
Ech.1_5
 62
     7
  6
CONTINUOUS
370
    -3
100
AcDbLine
 10
15006.65441999
 20
763.73174125
 30
-786.34279507
 11
15005.36032476
 21
758.90211211
 31
-791.1724242
  0
LINE
  5
11A
100
AcDbEntity
  8
Ech.1_5
 62
     7
  6
CONTINUOUS
370
    -3
100
AcDbLine
 10
15005.36032476
 20
758.90211211
 30
-791.1724242
 11
15003.91143603
 21
759.29034068
 31
-790.78419563
  0
LINE
  5
11B
100
AcDbEntity
  8
Ech.1_5
 62
     7
  6
CONTINUOUS
370
    -3
100
AcDbLine
 10
15005.20553125
 20
764.11996981
 30
-785.9545665
 11
15003.91143603
 21
759.29034068
 31
-790.78419563
  0
LINE
  5
11C
100
AcDbEntity
  8
Ech.1_5
 62
     7
  6
CONTINUOUS
370
    -3
100
AcDbLine
 10
15006.65441999
 20
763.73174125
 30
-786.34279507
 11
15005.20553125
 21
764.11996981
 31
-785.9545665
  0
LINE
  5
11D
100
AcDbEntity
  8
Ech.1_5
 62
     7
  6
CONTINUOUS
370
    -3
100
AcDbLine
 10
15238.71100367
 20
846.16150398
 30
-703.91303234
 11
15031.64746822
 21
820.7372987
 31
-729.33723762
  0
LINE
  5
11E
100
AcDbEntity
  8
Ech.1_5
 62
     7
  6
CONTINUOUS
370
    -3
100
AcDbLine
 10
15239.2145087
 20
842.06078458
 30
-708.01375174
 11
15238.71100367
 21
846.16150398
 31
-703.91303234
  0
LINE
  5
11F
100
AcDbEntity
  8
Ech.1_5
 62
     7
  6
CONTINUOUS
370
    -3
100
AcDbLine
 10
15239.2145087
 20
842.06078458
 30
-708.01375174
 11
15031.64746822
 21
816.57475665
 31
-733.49977966
  0
LINE
  5
120
100
AcDbEntity
  8
Ech.1_5
 62
     7
  6
CONTINUOUS
370
    -3
100
AcDbLine
 10
15031.64746822
 20
820.7372987
 30
-729.33723762
 11
15031.64746822
 21
816.57475665
 31
-733.49977966
  0
LINE
  5
121
100
AcDbEntity
  8
Ech.1_5
 62
     7
  6
CONTINUOUS
370
    -3
100
AcDbLine
 10
15149.03778439
 20
835.57913168
 30
-714.49540464
 11
15004.09424004
 21
817.80152146
 31
-732.27301486
  0
LINE
  5
122
100
AcDbEntity
  8
Ech.1_5
 62
     7
  6
CONTINUOUS
370
    -3
100
AcDbLine
 10
15149.03778439
 20
837.09039641
 30
-712.9841399
 11
15003.91143603
 21
819.29034068
 31
-730.78419563
  0
LINE
  5
123
100
AcDbEntity
  8
Ech.1_5
 62
     7
  6
CONTINUOUS
370
    -3
100
AcDbLine
 10
15004.09424004
 20
817.80152146
 30
-732.27301486
 11
15003.91143603
 21
819.29034068
 31
-730.78419563
  0
LINE
  5
124
100
AcDbEntity
  8
Ech.1_5
 62
     7
  6
CONTINUOUS
370
    -3
100
AcDbLine
 10
15270.54837839
 20
850.49875661
 30
-699.57577971
 11
15270.36557437
 21
851.98757583
 31
-698.08696048
  0
LINE
  5
125
100
AcDbEntity
  8
Ech.1_5
 62
     7
  6
CONTINUOUS
370
    -3
100
AcDbLine
 10
15270.54837839
 20
850.49875661
 30
-699.57577971
 11
15149.03778439
 21
835.57913168
 31
-714.49540464
  0
LINE
  5
126
100
AcDbEntity
  8
Ech.1_5
 62
     7
  6
CONTINUOUS
370
    -3
100
AcDbLine
 10
15270.36557437
 20
851.98757583
 30
-698.08696048
 11
15149.03778439
 21
837.09039641
 31
-712.9841399
  0
LINE
  5
127
100
AcDbEntity
  8
Ech.1_5
 62
     7
  6
CONTINUOUS
370
    -3
100
AcDbLine
 10
15290.71692637
 20
872.55439618
 30
-677.52014013
 11
15273.78835882
 21
872.55439618
 31
-677.52014013
  0
LINE
  5
128
100
AcDbEntity
  8
Ech.1_5
 62
     7
  6
CONTINUOUS
370
    -3
100
AcDbLine
 10
15290.71692637
 20
882.5601606
 30
-667.51437572
 11
15273.78835882
 21
882.5601606
 31
-667.51437572
  0
LINE
  5
129
100
AcDbEntity
  8
Ech.1_5
 62
     7
  6
CONTINUOUS
370
    -3
100
AcDbLine
 10
15273.78835882
 20
846.30591958
 30
-703.76861673
 11
15273.78835882
 21
872.55439618
 31
-677.52014013
  0
LINE
  5
12A
100
AcDbEntity
  8
Ech.1_5
 62
     7
  6
CONTINUOUS
370
    -3
100
AcDbLine
 10
15347.54215497
 20
822.55439618
 30
-761.39374523
 11
15347.53772228
 21
858.03196136
 31
-692.04257495
  0
LINE
  5
12B
100
AcDbEntity
  8
Ech.1_5
 62
     7
  6
CONTINUOUS
370
    -3
100
AcDbLine
 10
15008.07801007
 20
788.68079108
 30
-761.39374523
 11
15008.07801007
 21
813.68079108
 31
-736.39374523
  0
LINE
  5
12C
100
AcDbEntity
  8
Ech.1_5
 62
     7
  6
CONTINUOUS
370
    -3
100
AcDbLine
 10
15347.54215497
 20
788.68079108
 30
-761.39374523
 11
15008.07801007
 21
788.68079108
 31
-761.39374523
  0
LINE
  5
12D
100
AcDbEntity
  8
Ech.1_5
 62
     7
  6
CONTINUOUS
370
    -3
100
AcDbLine
 10
15273.78835882
 20
846.30591958
 30
-703.76861673
 11
15008.07801007
 21
813.68079108
 31
-736.39374523
  0
LINE
  5
12E
100
AcDbEntity
  8
Ech.1_5
 62
     7
  6
CONTINUOUS
370
    -3
100
AcDbLine
 10
15347.53772228
 20
858.03196136
 30
-692.04257495
 11
15347.53748562
 21
872.55439618
 31
-677.52014013
  0
LINE
  5
12F
100
AcDbEntity
  8
Ech.1_5
 62
     7
  6
CONTINUOUS
370
    -3
100
AcDbLine
 10
15347.53748562
 20
872.55439618
 30
-677.52014013
 11
15273.78835882
 21
872.55439618
 31
-677.52014013
  0
LINE
  5
130
100
AcDbEntity
  8
Ech.1_5
 62
     7
  6
CONTINUOUS
370
    -3
100
AcDbLine
 10
14860.71674313
 20
443.04926889
 30
-1107.02526743
 11
14660.71610648
 21
443.04926889
 31
-1107.02526743
  0
LINE
  5
131
100
AcDbEntity
  8
Ech.1_5
 62
     7
  6
CONTINUOUS
370
    -3
100
AcDbLine
 10
14860.71674313
 20
443.04926889
 30
-1107.02526743
 11
14860.71674313
 21
478.04929449
 31
-1072.02524182
  0
LINE
  5
132
100
AcDbEntity
  8
Ech.1_5
 62
     7
  6
CONTINUOUS
370
    -3
100
AcDbLine
 10
14660.71610648
 20
443.04926889
 30
-1107.02526743
 11
14660.71610648
 21
857.55439618
 31
-692.52014013
  0
LINE
  5
133
100
AcDbEntity
  8
Ech.1_5
 62
     7
  6
CONTINUOUS
370
    -3
100
AcDbLine
 10
14860.71674313
 20
478.04929449
 30
-1072.02524182
 11
14860.71659789
 21
857.55439618
 31
-692.52014013
  0
LINE
  5
134
100
AcDbEntity
  8
Ech.1_5
 62
     7
  6
CONTINUOUS
370
    -3
100
AcDbLine
 10
14860.71659789
 20
857.55439618
 30
-692.52014013
 11
14660.71610648
 21
857.55439618
 31
-692.52014013
  0
LINE
  5
135
100
AcDbEntity
  8
Ech.1_5
 62
     7
  6
CONTINUOUS
370
    -3
100
AcDbLine
 10
15120.71674313
 20
443.04926889
 30
-1107.02526743
 11
14860.71674313
 21
443.04926889
 31
-1107.02526743
  0
LINE
  5
136
100
AcDbEntity
  8
Ech.1_5
 62
     7
  6
CONTINUOUS
370
    -3
100
AcDbLine
 10
14890.71674313
 20
657.54709283
 30
-892.52744349
 11
14865.71674313
 21
657.54709362
 31
-892.5274427
  0
LINE
  5
137
100
AcDbEntity
  8
Ech.1_5
 62
     7
  6
CONTINUOUS
370
    -3
100
AcDbLine
 10
15120.71674313
 20
443.04926889
 30
-1107.02526743
 11
15115.71674313
 21
657.54709362
 31
-892.5274427
  0
LINE
  5
138
100
AcDbEntity
  8
Ech.1_5
 62
     7
  6
CONTINUOUS
370
    -3
100
AcDbLine
 10
14865.71674313
 20
657.54709362
 30
-892.5274427
 11
14860.71674313
 21
443.04926889
 31
-1107.02526743
  0
LINE
  5
139
100
AcDbEntity
  8
Ech.1_5
 62
     7
  6
CONTINUOUS
370
    -3
100
AcDbLine
 10
14895.71674313
 20
478.04927203
 30
-1072.02526428
 11
14890.71674313
 21
657.54709283
 31
-892.52744349
  0
LINE
  5
13A
100
AcDbEntity
  8
Ech.1_5
 62
     7
  6
CONTINUOUS
370
    -3
100
AcDbLine
 10
15085.71674313
 20
478.04927203
 30
-1072.02526428
 11
14990.71674313
 21
478.04928057
 31
-1072.02525575
  0
LINE
  5
13B
100
AcDbEntity
  8
Ech.1_5
 62
     7
  6
CONTINUOUS
370
    -3
100
AcDbLine
 10
14990.71674313
 20
478.04928057
 30
-1072.02525575
 11
14895.71674313
 21
478.04927203
 31
-1072.02526428
  0
LINE
  5
13C
100
AcDbEntity
  8
Ech.1_5
 62
     7
  6
CONTINUOUS
370
    -3
100
AcDbLine
 10
15090.71674313
 20
657.54709283
 30
-892.52744349
 11
15085.71674313
 21
478.04927203
 31
-1072.02526428
  0
LINE
  5
13D
100
AcDbEntity
  8
Ech.1_5
 62
     7
  6
CONTINUOUS
370
    -3
100
AcDbLine
 10
15115.71674313
 20
657.54709362
 30
-892.5274427
 11
15090.71674313
 21
657.54709283
 31
-892.52744349
  0
LINE
  5
13E
100
AcDbEntity
  8
Ech.1_5
 62
     7
  6
CONTINUOUS
370
    -3
100
AcDbLine
 10
14660.71610648
 20
443.04926889
 30
-1107.02526743
 11
14542.02727903
 21
443.04926889
 31
-1107.02526743
  0
LINE
  5
13F
100
AcDbEntity
  8
Ech.1_5
 62
     7
  6
CONTINUOUS
370
    -3
100
AcDbLine
 10
14660.71610648
 20
882.56201625
 30
-667.51252006
 11
14660.71610648
 21
443.04926889
 31
-1107.02526743
  0
LINE
  5
140
100
AcDbEntity
  8
Ech.1_5
 62
     7
  6
CONTINUOUS
370
    -3
100
AcDbLine
 10
14660.71610648
 20
882.56201625
 30
-667.51252006
 11
14542.02727903
 21
882.56201625
 31
-667.51252006
  0
LINE
  5
141
100
AcDbEntity
  8
Ech.1_5
 62
     7
  6
CONTINUOUS
370
    -3
100
AcDbLine
 10
15269.04837839
 20
850.49875661
 30
-699.57577971
 11
15269.04837839
 21
872.55439618
 31
-677.52014013
  0
LINE
  5
142
100
AcDbEntity
  8
Ech.1_5
 62
     7
  6
CONTINUOUS
370
    -3
100
AcDbLine
 10
15270.54837839
 20
872.55439618
 30
-677.52014013
 11
15270.54837839
 21
850.49875661
 31
-699.57577971
  0
LINE
  5
143
100
AcDbEntity
  8
Ech.1_5
 62
     7
  6
CONTINUOUS
370
    -3
100
AcDbLine
 10
15270.54837839
 20
850.49875661
 30
-699.57577971
 11
15269.04837839
 21
850.49875661
 31
-699.57577971
  0
LINE
  5
144
100
AcDbEntity
  8
Ech.1_5
 62
     7
  6
CONTINUOUS
370
    -3
100
AcDbLine
 10
15270.54837839
 20
872.55439618
 30
-677.52014013
 11
15269.04837839
 21
872.55439618
 31
-677.52014013
  0
LINE
  5
145
100
AcDbEntity
  8
Ech.1_5
 62
     7
  6
CONTINUOUS
370
    -3
100
AcDbLine
 10
15320.71692637
 20
443.04926889
 30
-1107.02526743
 11
15120.71679014
 21
443.04926889
 31
-1107.02526743
  0
LINE
  5
146
100
AcDbEntity
  8
Ech.1_5
 62
     7
  6
CONTINUOUS
370
    -3
100
AcDbLine
 10
15120.71679014
 20
592.55471368
 30
-957.51982263
 11
15120.71679014
 21
443.04926889
 31
-1107.02526743
  0
LINE
  5
147
100
AcDbEntity
  8
Ech.1_5
 62
     7
  6
CONTINUOUS
370
    -3
100
AcDbLine
 10
15320.71692637
 20
592.55471368
 30
-957.51982263
 11
15120.71679014
 21
592.55471368
 31
-957.51982263
  0
LINE
  5
148
100
AcDbEntity
  8
Ech.1_5
 62
     7
  6
CONTINUOUS
370
    -3
100
AcDbLine
 10
15320.71692637
 20
592.55471368
 30
-957.51982263
 11
15320.71692637
 21
443.04926889
 31
-1107.02526743
  0
LINE
  5
149
100
AcDbEntity
  8
Ech.1_5
 62
     7
  6
CONTINUOUS
370
    -3
100
AcDbLine
 10
15120.71686301
 20
722.55471369
 30
-827.51982263
 11
15120.71686301
 21
592.55471368
 31
-957.51982263
  0
LINE
  5
14A
100
AcDbEntity
  8
Ech.1_5
 62
     7
  6
CONTINUOUS
370
    -3
100
AcDbLine
 10
15527.02727903
 20
722.55471369
 30
-827.51982263
 11
15120.71686301
 21
722.55471369
 31
-827.51982263
  0
LINE
  5
14B
100
AcDbEntity
  8
Ech.1_5
 62
     7
  6
CONTINUOUS
370
    -3
100
AcDbLine
 10
15527.02727903
 20
592.55471368
 30
-957.51982263
 11
15120.71686301
 21
592.55471368
 31
-957.51982263
  0
LINE
  5
14C
100
AcDbEntity
  8
Ech.1_5
 62
     7
  6
CONTINUOUS
370
    -3
100
AcDbLine
 10
15347.53701843
 20
722.55471369
 30
-827.51982263
 11
15120.71686301
 21
722.55471369
 31
-827.51982263
  0
LINE
  5
14D
100
AcDbEntity
  8
Ech.1_5
 62
     7
  6
CONTINUOUS
370
    -3
100
AcDbLine
 10
15120.71686301
 20
779.24813102
 30
-761.39374523
 11
15120.71686301
 21
722.55471369
 31
-827.51982263
  0
LINE
  5
14E
100
AcDbEntity
  8
Ech.1_5
 62
     7
  6
CONTINUOUS
370
    -3
100
AcDbLine
 10
15345.29657899
 20
788.68079108
 30
-761.39374523
 11
15120.71686301
 21
788.68079108
 31
-761.39374523
  0
LINE
  5
14F
100
AcDbEntity
  8
Ech.1_5
 62
     7
  6
CONTINUOUS
370
    -3
100
AcDbLine
 10
15347.53701843
 20
788.68079108
 30
-761.39374523
 11
15347.53701843
 21
722.55471369
 31
-827.51982263
  0
LINE
  5
150
100
AcDbEntity
  8
Ech.1_5
 62
     7
  6
CONTINUOUS
370
    -3
100
AcDbLine
 10
15527.02727903
 20
882.55439618
 30
-667.52014013
 11
15347.54215497
 21
882.55439618
 31
-667.52014013
  0
LINE
  5
151
100
AcDbEntity
  8
Ech.1_5
 62
     7
  6
CONTINUOUS
370
    -3
100
AcDbLine
 10
15527.02727903
 20
872.55249116
 30
-677.52204515
 11
15347.54215497
 21
872.55249116
 31
-677.52204515
  0
LINE
  5
152
100
AcDbEntity
  8
Ech.1_5
 62
     7
  6
CONTINUOUS
370
    -3
100
AcDbLine
 10
15347.54215497
 20
882.55439618
 30
-667.52014013
 11
15347.54215497
 21
872.55249116
 31
-677.52204515
  0
LINE
  5
153
100
AcDbEntity
  8
Ech.1_5
 62
     7
  6
CONTINUOUS
370
    -3
100
AcDbLine
 10
15349.98156309
 20
872.55249116
 30
-677.52204515
 11
15349.98156309
 21
882.55439618
 31
-667.52014013
  0
LINE
  5
154
100
AcDbEntity
  8
Ech.1_5
 62
     7
  6
CONTINUOUS
370
    -3
100
AcDbLine
 10
15527.02727903
 20
872.55249116
 30
-677.52204515
 11
15347.54215497
 21
872.55249116
 31
-677.52204515
  0
LINE
  5
155
100
AcDbEntity
  8
Ech.1_5
 62
     7
  6
CONTINUOUS
370
    -3
100
AcDbLine
 10
15527.02727903
 20
822.55439618
 30
-727.52014013
 11
15347.54215497
 21
822.55439618
 31
-727.52014013
  0
LINE
  5
156
100
AcDbEntity
  8
Ech.1_5
 62
     7
  6
CONTINUOUS
370
    -3
100
AcDbLine
 10
15347.54215497
 20
872.55249116
 30
-677.52204515
 11
15347.53772228
 21
858.03196136
 31
-727.52014013
  0
LINE
  5
157
100
AcDbEntity
  8
Ech.1_5
 62
     7
  6
CONTINUOUS
370
    -3
100
AcDbLine
 10
15349.98156309
 20
822.55439618
 30
-727.52014013
 11
15349.98156309
 21
872.55249116
 31
-677.52204515
  0
POLYLINE
  5
158
100
AcDbEntity
  8
Ech.1_5
 62
     1
  6
CONTINUOUS
370
    -3
100
AcDb3dPolyline
 66
     1
 70
     8
  0
VERTEX
  5
159
100
AcDbEntity
  8
Ech.1_5
100
AcDbVertex
100
AcDb3dPolylineVertex
 10
15265.04261397
 20
857.22236997
 30
-692.85216635
 70
    32
  0
VERTEX
  5
15A
100
AcDbEntity
  8
Ech.1_5
100
AcDbVertex
100
AcDb3dPolylineVertex
 10
15240.04261397
 20
857.22236997
 30
-692.85216635
 70
    32
  0
VERTEX
  5
15B
100
AcDbEntity
  8
Ech.1_5
100
AcDbVertex
100
AcDb3dPolylineVertex
 10
15240.04261397
 20
854.72236997
 30
-695.35216635
 70
    32
  0
VERTEX
  5
15C
100
AcDbEntity
  8
Ech.1_5
100
AcDbVertex
100
AcDb3dPolylineVertex
 10
15267.54261397
 20
854.72236997
 30
-695.35216635
 70
    32
  0
VERTEX
  5
15D
100
AcDbEntity
  8
Ech.1_5
100
AcDbVertex
100
AcDb3dPolylineVertex
 10
15267.54261397
 20
872.55439618
 30
-677.52014013
 70
    32
  0
VERTEX
  5
15E
100
AcDbEntity
  8
Ech.1_5
100
AcDbVertex
100
AcDb3dPolylineVertex
 10
15293.95487048
 20
872.55439618
 30
-677.52014013
 70
    32
  0
VERTEX
  5
15F
100
AcDbEntity
  8
Ech.1_5
100
AcDbVertex
100
AcDb3dPolylineVertex
 10
15293.95487048
 20
875.05439618
 30
-675.02014013
 70
    32
  0
VERTEX
  5
160
100
AcDbEntity
  8
Ech.1_5
100
AcDbVertex
100
AcDb3dPolylineVertex
 10
15265.04261397
 20
875.05439618
 30
-675.02014013
 70
    32
  0
VERTEX
  5
161
100
AcDbEntity
  8
Ech.1_5
100
AcDbVertex
100
AcDb3dPolylineVertex
 10
15265.04261397
 20
857.22236997
 30
-692.85216635
 70
    32
  0
SEQEND
  5
162
100
AcDbEntity
  8
Ech.1_5
  0
LWPOLYLINE
  5
163
100
AcDbEntity
  8
Ech.1_5
 62
     7
  6
CONTINUOUS
370
    -3
100
AcDbPolyline
 90
        5
 70
     0
 43
0.0
 10
15120.71686301
 20
779.24724744
 10
15347.54215497
 20
779.24724744
 10
15347.54215497
 20
722.55383011
 10
15120.71686301
 20
722.55383011
 10
15120.71686301
 20
779.24724744
  0
LWPOLYLINE
  5
164
100
AcDbEntity
  8
Ech.1_5
 62
     7
  6
CONTINUOUS
370
    -3
100
AcDbPolyline
 90
        6
 70
     1
 43
0.0
 10
15150.47785542
 20
779.24724744
 10
15124.65332434
 20
779.24724744
 10
15120.71686301
 20
779.24724744
 10
15120.71686301
 20
722.55383011
 10
15347.53701843
 20
722.55383011
 10
15347.53701843
 20
779.248131
  0
LWPOLYLINE
  5
165
102
{ACAD_REACTORS
330
166
102
}
100
AcDbEntity
  8
Ech.1_5
 62
     7
  6
CONTINUOUS
370
    -3
100
AcDbPolyline
 90
        5
 70
     1
 43
0.0
 38
2500.0
 39
-2500.0
 10
15270.54837839
 20
872.55351261
 10
15269.04837839
 20
872.55351261
 10
15269.04837839
 20
851.82496093
 10
15270.36557437
 20
851.98669226
 10
15270.54837839
 20
850.49787303
  0
HATCH
  5
166
100
AcDbEntity
  8
Ech.1_5
 62
     7
  6
CONTINUOUS
100
AcDbHatch
 10
0.0
 20
0.0
 30
0.0
210
0.0
220
0.0
230
1.0
  2
AR-CONC
 70
     0
 71
     1
 91
        1
 92
        7
 72
     0
 73
     1
 93
        5
 10
15270.54837839
 20
872.55351261
 10
15269.04837839
 20
872.55351261
 10
15269.04837839
 20
851.82496093
 10
15270.36557437
 20
851.98669226
 10
15270.54837839
 20
850.49787303
 97
        1
330
165
 75
     0
 76
     2
 52
0.0
 41
0.06299252
 77
     0
 78
    13
 53
50.0
 43
0.0
 44
0.0
 45
-10.04951288
 46
0.87921838
 79
     2
 49
1.05082299
 49
-11.55905264
 53
355.0
 43
0.0
 44
0.0
 45
-1.94404139
 46
10.53894322
 79
     2
 49
0.84065802
 49
-9.24724211
 53
100.45140076
 43
0.83745904
 44
-0.073268
 45
-8.10547867
 46
-9.65971878
 79
     2
 49
0.89306201
 49
-9.82368293
 53
46.18420029
 43
0.0
 44
2.80219511
 45
-14.95308477
 46
2.31908205
 79
     2
 49
1.57623401
 49
-17.33857753
 53
96.63559723
 43
1.24609007
 44
2.60893706
 45
-13.09553414
 46
-13.64833836
 79
     2
 49
1.33959307
 49
-14.73552249
 53
351.1842041
 43
0.0
 44
2.80219511
 45
13.09552173
 46
13.64835069
 79
     2
 49
1.26098802
 49
-13.87086317
 53
21.0
 43
1.40109708
 44
2.10164598
 45
-8.36324849
 46
5.64108224
 79
     2
 49
1.05082299
 49
-11.55905264
 53
326.0
 43
1.40109708
 44
2.10164598
 45
3.40908414
 46
10.1600574
 79
     2
 49
0.84065802
 49
-9.24724211
 53
71.45140076
 43
2.09803394
 44
1.63155499
 45
-11.77233597
 46
-4.51896637
 79
     2
 49
0.89306201
 49
-9.82368293
 53
37.5
 43
0.0
 44
0.0
 45
0.17037085
 46
4.66416671
 79
     6
 49
0.01
 49
-9.13515391
 49
0.01
 49
-9.38735213
 49
0.01
 49
-9.28226866
 53
7.5
 43
0.0
 44
0.0
 45
3.68586042
 46
5.52609192
 79
     6
 49
0.01
 49
-5.35219105
 49
0.01
 49
-8.92498888
 49
0.01
 49
-3.53777104
 53
-32.5
 43
-3.12444715
 44
0.0
 45
7.4793711
 46
-0.31601602
 79
     6
 49
0.01
 49
-3.50274306
 49
0.01
 49
-10.92855947
 49
0.01
 49
-14.50135729
 53
-42.5
 43
-4.52554423
 44
0.0
 45
8.17100583
 46
1.40256824
 79
     6
 49
0.01
 49
-4.55356605
 49
0.01
 49
-7.25768434
 49
0.01
 49
-10.29806534
 47
0.775229
 98
        1
 10
0.0
 20
0.0
  0
LINE
  5
167
100
AcDbEntity
  8
Ech.1_5
 62
     7
  6
CONTINUOUS
370
    -3
100
AcDbLine
 10
13709.21433273
 20
812.54621004
 30
-737.5274427
 11
13709.21433273
 21
1241.30576155
 31
-737.5274427
  0
LINE
  5
168
100
AcDbEntity
  8
Ech.1_5
 62
     7
  6
CONTINUOUS
370
    -3
100
AcDbLine
 10
13889.21433273
 20
812.54621004
 30
-737.5274427
 11
13889.21433273
 21
1241.30576155
 31
-737.5274427
  0
LINE
  5
169
100
AcDbEntity
  8
Ech.1_5
 62
     7
  6
CONTINUOUS
370
    -3
100
AcDbLine
 10
13709.21433273
 20
812.54621004
 30
-737.5274427
 11
13889.21433273
 21
812.54621004
 31
-737.5274427
  0
LINE
  5
16A
100
AcDbEntity
  8
Ech.1_5
 62
     7
  6
CONTINUOUS
370
    -3
100
AcDbLine
 10
13709.21433273
 20
812.54621004
 30
-737.5274427
 11
13709.21433273
 21
767.54621004
 31
-782.5274427
  0
LINE
  5
16B
100
AcDbEntity
  8
Ech.1_5
 62
     7
  6
CONTINUOUS
370
    -3
100
AcDbLine
 10
13709.21433273
 20
812.54621004
 30
-737.5274427
 11
13889.21433273
 21
812.54621004
 31
-737.5274427
  0
LINE
  5
16C
100
AcDbEntity
  8
Ech.1_5
 62
     7
  6
CONTINUOUS
370
    -3
100
AcDbLine
 10
13889.21433273
 20
767.54621004
 30
-782.5274427
 11
13889.21433273
 21
812.54621004
 31
-737.5274427
  0
LINE
  5
16D
100
AcDbEntity
  8
Ech.1_5
 62
     7
  6
CONTINUOUS
370
    -3
100
AcDbLine
 10
13709.21433273
 20
767.54621004
 30
-782.5274427
 11
13889.21433273
 21
767.54621004
 31
-782.5274427
  0
LINE
  5
16E
100
AcDbEntity
  8
Ech.1_5
 62
     7
  6
CONTINUOUS
370
    -3
100
AcDbLine
 10
13709.21433273
 20
767.54621004
 30
-782.5274427
 11
13709.21433273
 21
722.54621004
 31
-827.5274427
  0
LINE
  5
16F
100
AcDbEntity
  8
Ech.1_5
 62
     7
  6
CONTINUOUS
370
    -3
100
AcDbLine
 10
13709.21433273
 20
767.54621004
 30
-782.5274427
 11
13889.21433273
 21
767.54621004
 31
-782.5274427
  0
LINE
  5
170
100
AcDbEntity
  8
Ech.1_5
 62
     7
  6
CONTINUOUS
370
    -3
100
AcDbLine
 10
13889.21433273
 20
722.54621004
 30
-827.5274427
 11
13889.21433273
 21
767.54621004
 31
-782.5274427
  0
LINE
  5
171
100
AcDbEntity
  8
Ech.1_5
 62
     7
  6
CONTINUOUS
370
    -3
100
AcDbLine
 10
13709.21433273
 20
722.54621004
 30
-827.5274427
 11
13889.21433273
 21
722.54621004
 31
-827.5274427
  0
LINE
  5
172
100
AcDbEntity
  8
Ech.1_5
 62
     7
  6
CONTINUOUS
370
    -3
100
AcDbLine
 10
13675.21434363
 20
735.54621004
 30
-814.5274427
 11
13700.21433273
 21
735.54621004
 31
-814.5274427
  0
LINE
  5
173
100
AcDbEntity
  8
Ech.1_5
 62
     7
  6
CONTINUOUS
370
    -3
100
AcDbLine
 10
13675.21434363
 20
735.54621004
 30
-814.5274427
 11
13675.21434363
 21
1241.30576155
 31
-814.5274427
  0
LINE
  5
174
100
AcDbEntity
  8
Ech.1_5
 62
     7
  6
CONTINUOUS
370
    -3
100
AcDbLine
 10
13700.21433273
 20
1241.30576155
 30
526.97735231
 11
13700.21433273
 21
735.54621004
 31
526.97735231
  0
LINE
  5
175
100
AcDbEntity
  8
Ech.1_5
 62
     7
  6
CONTINUOUS
370
    -3
100
AcDbLine
 10
13929.21433273
 20
732.54621743
 30
-817.5274353
 11
13942.21433273
 21
732.54621743
 31
-817.5274353
  0
LINE
  5
176
100
AcDbEntity
  8
Ech.1_5
 62
     7
  6
CONTINUOUS
370
    -3
100
AcDbLine
 10
13942.21433273
 20
1241.30576155
 30
817.5274353
 11
13942.21433273
 21
732.54621743
 31
817.5274353
  0
LINE
  5
177
100
AcDbEntity
  8
Ech.1_5
 62
     7
  6
CONTINUOUS
370
    -3
100
AcDbLine
 10
13929.21433273
 20
732.54621743
 30
-817.5274353
 11
13929.21433273
 21
1241.30576155
 31
-817.5274353
  0
LINE
  5
178
100
AcDbEntity
  8
Ech.1_5
 62
     7
  6
CONTINUOUS
370
    -3
100
AcDbLine
 10
13889.21433273
 20
797.54621004
 30
-752.5274427
 11
13889.21433273
 21
752.54621004
 31
-797.5274427
  0
LINE
  5
179
100
AcDbEntity
  8
Ech.1_5
 62
     7
  6
CONTINUOUS
370
    -3
100
AcDbLine
 10
13889.21433273
 20
752.54621004
 30
-797.5274427
 11
13929.21433273
 21
752.54621004
 31
-797.5274427
  0
LINE
  5
17A
100
AcDbEntity
  8
Ech.1_5
 62
     7
  6
CONTINUOUS
370
    -3
100
AcDbLine
 10
13889.21433273
 20
797.54621004
 30
-752.5274427
 11
13929.21433273
 21
797.54621004
 31
-752.5274427
  0
LINE
  5
17B
100
AcDbEntity
  8
Ech.1_5
 62
     7
  6
CONTINUOUS
370
    -3
100
AcDbLine
 10
13929.21433273
 20
797.54621004
 30
-752.5274427
 11
13929.21433273
 21
752.54621004
 31
-797.5274427
  0
LINE
  5
17C
100
AcDbEntity
  8
Ech.1_5
 62
     7
  6
CONTINUOUS
370
    -3
100
AcDbLine
 10
13889.21433273
 20
888.28582093
 30
-661.78783181
 11
13889.21433273
 21
843.28582093
 31
-706.78783181
  0
LINE
  5
17D
100
AcDbEntity
  8
Ech.1_5
 62
     7
  6
CONTINUOUS
370
    -3
100
AcDbLine
 10
13889.21433273
 20
843.28582093
 30
-706.78783181
 11
13929.21433273
 21
843.28582093
 31
-706.78783181
  0
LINE
  5
17E
100
AcDbEntity
  8
Ech.1_5
 62
     7
  6
CONTINUOUS
370
    -3
100
AcDbLine
 10
13889.21433273
 20
888.28582093
 30
-661.78783181
 11
13929.21433273
 21
888.28582093
 31
-661.78783181
  0
LINE
  5
17F
100
AcDbEntity
  8
Ech.1_5
 62
     7
  6
CONTINUOUS
370
    -3
100
AcDbLine
 10
13929.21433273
 20
888.28582093
 30
-661.78783181
 11
13929.21433273
 21
843.28582093
 31
-706.78783181
  0
LINE
  5
180
100
AcDbEntity
  8
Ech.1_5
 62
     7
  6
CONTINUOUS
370
    -3
100
AcDbLine
 10
13669.21433273
 20
959.48504082
 30
-590.58861192
 11
13675.21433273
 21
959.48504082
 31
-590.58861192
  0
LINE
  5
181
100
AcDbEntity
  8
Ech.1_5
 62
     7
  6
CONTINUOUS
370
    -3
100
AcDbLine
 10
13669.21433273
 20
959.48504082
 30
-590.58861192
 11
13669.21433273
 21
968.48504082
 31
-581.58861192
  0
LINE
  5
182
100
AcDbEntity
  8
Ech.1_5
 62
     7
  6
CONTINUOUS
370
    -3
100
AcDbLine
 10
13662.21433273
 20
968.48504082
 30
-581.58861192
 11
13669.21433273
 21
968.48504082
 31
-581.58861192
  0
LINE
  5
183
100
AcDbEntity
  8
Ech.1_5
 62
     7
  6
CONTINUOUS
370
    -3
100
AcDbLine
 10
13675.21433273
 20
986.48504082
 30
-563.58861192
 11
13675.21433273
 21
959.48504082
 31
-590.58861192
  0
LINE
  5
184
100
AcDbEntity
  8
Ech.1_5
 62
     7
  6
CONTINUOUS
370
    -3
100
AcDbLine
 10
13662.21433273
 20
968.48504082
 30
-581.58861192
 11
13662.21433273
 21
941.10157673
 31
-608.97207601
  0
LINE
  5
185
100
AcDbEntity
  8
Ech.1_5
 62
     7
  6
CONTINUOUS
370
    -3
100
AcDbLine
 10
13671.21433273
 20
990.48504082
 30
-559.58861192
 11
13675.21433273
 21
986.48504082
 31
-563.58861192
  0
LINE
  5
186
100
AcDbEntity
  8
Ech.1_5
 62
     7
  6
CONTINUOUS
370
    -3
100
AcDbLine
 10
13671.21433273
 20
990.48504082
 30
-559.58861192
 11
13675.21433273
 21
994.48504082
 31
-555.58861192
  0
LINE
  5
187
100
AcDbEntity
  8
Ech.1_5
 62
     7
  6
CONTINUOUS
370
    -3
100
AcDbLine
 10
13675.21433273
 20
1055.21527655
 30
-494.85837618
 11
13675.21433273
 21
994.48504082
 31
-555.58861192
  0
LINE
  5
188
100
AcDbEntity
  8
Ech.1_5
 62
     7
  6
CONTINUOUS
370
    -3
100
AcDbLine
 10
13673.14326491
 20
1055.21527655
 30
-494.85837618
 11
13675.21433273
 21
1055.21527655
 31
-494.85837618
  0
LINE
  5
189
100
AcDbEntity
  8
Ech.1_5
 62
     7
  6
CONTINUOUS
370
    -3
100
AcDbLine
 10
13673.14326491
 20
1055.21527655
 30
-494.85837618
 11
13675.21433273
 21
1057.28634437
 31
-492.78730837
  0
LINE
  5
18A
100
AcDbEntity
  8
Ech.1_5
 62
     7
  6
CONTINUOUS
370
    -3
100
AcDbLine
 10
13675.21433273
 20
1057.28634437
 30
-492.78730837
 11
13675.21433273
 21
1092.28634437
 31
-457.78730837
  0
LINE
  5
18B
100
AcDbEntity
  8
Ech.1_5
 62
     7
  6
CONTINUOUS
370
    -3
100
AcDbLine
 10
13668.21433273
 20
1092.28634437
 30
-457.78730837
 11
13675.21433273
 21
1092.28634437
 31
-457.78730837
  0
LINE
  5
18C
100
AcDbEntity
  8
Ech.1_5
 62
     7
  6
CONTINUOUS
370
    -3
100
AcDbLine
 10
13668.21433273
 20
1098.28634437
 30
-451.78730837
 11
13668.21433273
 21
1092.28634437
 31
-457.78730837
  0
LINE
  5
18D
100
AcDbEntity
  8
Ech.1_5
 62
     7
  6
CONTINUOUS
370
    -3
100
AcDbLine
 10
13663.21433273
 20
1098.28634437
 30
-451.78730837
 11
13665.71433273
 21
1103.28634437
 31
-446.78730837
  0
LINE
  5
18E
100
AcDbEntity
  8
Ech.1_5
 62
     7
  6
CONTINUOUS
370
    -3
100
AcDbLine
 10
13665.71433273
 20
1103.28634437
 30
-446.78730837
 11
13668.21433273
 21
1098.28634437
 31
-451.78730837
  0
LINE
  5
18F
100
AcDbEntity
  8
Ech.1_5
 62
     7
  6
CONTINUOUS
370
    -3
100
AcDbLine
 10
13662.83373039
 20
1065.44399502
 30
-484.62965772
 11
13663.21433273
 21
1098.28634437
 31
-451.78730837
  0
LINE
  5
190
100
AcDbEntity
  8
Ech.1_5
 62
     7
  6
CONTINUOUS
370
    -3
100
AcDbLine
 10
13656.67879882
 20
1058.75081046
 30
-491.32284228
 11
13662.83373039
 21
1065.44399502
 31
-484.62965772
  0
LINE
  5
191
100
AcDbEntity
  8
Ech.1_5
 62
     7
  6
CONTINUOUS
370
    -3
100
AcDbLine
 10
13655.21433273
 20
1055.21527655
 30
-494.85837618
 11
13656.67879882
 21
1058.75081046
 31
-491.32284228
  0
LINE
  5
192
100
AcDbEntity
  8
Ech.1_5
 62
     7
  6
CONTINUOUS
370
    -3
100
AcDbLine
 10
13655.21433273
 20
1055.21527655
 30
-494.85837618
 11
13655.21433273
 21
945.32722859
 31
-604.74642414
  0
LINE
  5
193
100
AcDbEntity
  8
Ech.1_5
 62
     7
  6
CONTINUOUS
370
    -3
100
AcDbLine
 10
13655.21433273
 20
945.32722859
 30
-604.74642414
 11
13656.17465512
 21
943.69735995
 31
-606.37629278
  0
LINE
  5
194
100
AcDbEntity
  8
Ech.1_5
 62
     7
  6
CONTINUOUS
370
    -3
100
AcDbLine
 10
13656.17465512
 20
943.69735995
 30
-606.37629278
 11
13661.32277735
 21
940.48504082
 31
-609.58861192
  0
LINE
  5
195
100
AcDbEntity
  8
Ech.1_5
 62
     7
  6
CONTINUOUS
370
    -3
100
AcDbLine
 10
13661.32277735
 20
940.48504082
 30
-609.58861192
 11
13662.21433273
 21
941.10157673
 31
-608.97207601
  0
LINE
  5
196
100
AcDbEntity
  8
Ech.1_5
 62
     7
  6
CONTINUOUS
370
    -3
100
AcDbLine
 10
13655.21433273
 20
692.54621004
 30
-857.5274427
 11
13658.64299595
 21
692.54621004
 31
-857.5274427
  0
LINE
  5
197
100
AcDbEntity
  8
Ech.1_5
 62
     7
  6
CONTINUOUS
370
    -3
100
AcDbLine
 10
13655.21433273
 20
783.61267655
 30
-766.46097618
 11
13655.21433273
 21
692.54621004
 31
-857.5274427
  0
LINE
  5
198
100
AcDbEntity
  8
Ech.1_5
 62
     7
  6
CONTINUOUS
370
    -3
100
AcDbLine
 10
13655.21433273
 20
783.61267655
 30
-766.46097618
 11
13656.67879882
 21
787.14821046
 31
-762.92544228
  0
LINE
  5
199
100
AcDbEntity
  8
Ech.1_5
 62
     7
  6
CONTINUOUS
370
    -3
100
AcDbLine
 10
13656.67879882
 20
787.14821046
 30
-762.92544228
 11
13662.83373039
 21
793.84139502
 31
-756.23225772
  0
LINE
  5
19A
100
AcDbEntity
  8
Ech.1_5
 62
     7
  6
CONTINUOUS
370
    -3
100
AcDbLine
 10
13662.83373039
 20
793.84139502
 30
-756.23225772
 11
13663.21433273
 21
826.68374437
 31
-723.38990837
  0
LINE
  5
19B
100
AcDbEntity
  8
Ech.1_5
 62
     7
  6
CONTINUOUS
370
    -3
100
AcDbLine
 10
13665.71433273
 20
831.68374437
 30
-718.38990837
 11
13668.21433273
 21
826.68374437
 31
-723.38990837
  0
LINE
  5
19C
100
AcDbEntity
  8
Ech.1_5
 62
     7
  6
CONTINUOUS
370
    -3
100
AcDbLine
 10
13663.21433273
 20
826.68374437
 30
-723.38990837
 11
13665.71433273
 21
831.68374437
 31
-718.38990837
  0
LINE
  5
19D
100
AcDbEntity
  8
Ech.1_5
 62
     7
  6
CONTINUOUS
370
    -3
100
AcDbLine
 10
13668.21433273
 20
820.68374437
 30
-729.38990837
 11
13668.21433273
 21
826.68374437
 31
-723.38990837
  0
LINE
  5
19E
100
AcDbEntity
  8
Ech.1_5
 62
     7
  6
CONTINUOUS
370
    -3
100
AcDbLine
 10
13668.21433273
 20
820.68374437
 30
-729.38990837
 11
13675.21433273
 21
820.68374437
 31
-729.38990837
  0
LINE
  5
19F
100
AcDbEntity
  8
Ech.1_5
 62
     7
  6
CONTINUOUS
370
    -3
100
AcDbLine
 10
13658.64299595
 20
692.54621004
 30
-857.5274427
 11
13675.21433273
 21
712.66672657
 31
-837.40692617
  0
LINE
  5
1A0
100
AcDbEntity
  8
Ech.1_5
 62
     7
  6
CONTINUOUS
370
    -3
100
AcDbLine
 10
13675.21433273
 20
785.68374437
 30
-764.38990837
 11
13675.21433273
 21
820.68374437
 31
-729.38990837
  0
LINE
  5
1A1
100
AcDbEntity
  8
Ech.1_5
 62
     7
  6
CONTINUOUS
370
    -3
100
AcDbLine
 10
13673.14326491
 20
783.61267655
 30
-766.46097618
 11
13675.21433273
 21
785.68374437
 31
-764.38990837
  0
LINE
  5
1A2
100
AcDbEntity
  8
Ech.1_5
 62
     7
  6
CONTINUOUS
370
    -3
100
AcDbLine
 10
13673.14326491
 20
783.61267655
 30
-766.46097618
 11
13675.21433273
 21
783.61267655
 31
-766.46097618
  0
LINE
  5
1A3
100
AcDbEntity
  8
Ech.1_5
 62
     7
  6
CONTINUOUS
370
    -3
100
AcDbLine
 10
13675.21434363
 20
735.54621004
 30
-766.46097618
 11
13675.21433273
 21
722.88244082
 31
-827.19121192
  0
LINE
  5
1A4
100
AcDbEntity
  8
Ech.1_5
 62
     7
  6
CONTINUOUS
370
    -3
100
AcDbLine
 10
13671.21433273
 20
718.88244082
 30
-831.19121192
 11
13675.21433273
 21
722.88244082
 31
-827.19121192
  0
LINE
  5
1A5
100
AcDbEntity
  8
Ech.1_5
 62
     7
  6
CONTINUOUS
370
    -3
100
AcDbLine
 10
13671.21433273
 20
718.88244082
 30
-831.19121192
 11
13675.21433273
 21
714.88244082
 31
-835.19121192
  0
LINE
  5
1A6
100
AcDbEntity
  8
Ech.1_5
 62
     7
  6
CONTINUOUS
370
    -3
100
AcDbLine
 10
13675.21433273
 20
712.66672657
 30
-837.40692617
 11
13675.21433273
 21
714.88244082
 31
-835.19121192
  0
LINE
  5
1A7
100
AcDbEntity
  8
Ech.1_5
 62
     7
  6
CONTINUOUS
370
    -3
100
AcDbLine
 10
13669.21433273
 20
823.68374082
 30
-726.38991192
 11
13675.21433273
 21
823.68374082
 31
-726.38991192
  0
LINE
  5
1A8
100
AcDbEntity
  8
Ech.1_5
 62
     7
  6
CONTINUOUS
370
    -3
100
AcDbLine
 10
13669.21433273
 20
823.68374082
 30
-726.38991192
 11
13669.21433273
 21
832.68374082
 31
-717.38991192
  0
LINE
  5
1A9
100
AcDbEntity
  8
Ech.1_5
 62
     7
  6
CONTINUOUS
370
    -3
100
AcDbLine
 10
13662.21433273
 20
832.68374082
 30
-717.38991192
 11
13669.21433273
 21
832.68374082
 31
-717.38991192
  0
LINE
  5
1AA
100
AcDbEntity
  8
Ech.1_5
 62
     7
  6
CONTINUOUS
370
    -3
100
AcDbLine
 10
13675.21433273
 20
850.68374082
 30
-699.38991192
 11
13675.21433273
 21
823.68374082
 31
-726.38991192
  0
LINE
  5
1AB
100
AcDbEntity
  8
Ech.1_5
 62
     7
  6
CONTINUOUS
370
    -3
100
AcDbLine
 10
13662.21433273
 20
832.68374082
 30
-717.38991192
 11
13662.21433273
 21
805.30027673
 31
-744.77337601
  0
LINE
  5
1AC
100
AcDbEntity
  8
Ech.1_5
 62
     7
  6
CONTINUOUS
370
    -3
100
AcDbLine
 10
13671.21433273
 20
854.68374082
 30
-695.38991192
 11
13675.21433273
 21
850.68374082
 31
-699.38991192
  0
LINE
  5
1AD
100
AcDbEntity
  8
Ech.1_5
 62
     7
  6
CONTINUOUS
370
    -3
100
AcDbLine
 10
13671.21433273
 20
854.68374082
 30
-695.38991192
 11
13675.21433273
 21
858.68374082
 31
-691.38991192
  0
LINE
  5
1AE
100
AcDbEntity
  8
Ech.1_5
 62
     7
  6
CONTINUOUS
370
    -3
100
AcDbLine
 10
13675.21433273
 20
919.41397655
 30
-630.65967618
 11
13675.21433273
 21
858.68374082
 31
-691.38991192
  0
LINE
  5
1AF
100
AcDbEntity
  8
Ech.1_5
 62
     7
  6
CONTINUOUS
370
    -3
100
AcDbLine
 10
13673.14326491
 20
919.41397655
 30
-630.65967618
 11
13675.21433273
 21
919.41397655
 31
-630.65967618
  0
LINE
  5
1B0
100
AcDbEntity
  8
Ech.1_5
 62
     7
  6
CONTINUOUS
370
    -3
100
AcDbLine
 10
13673.14326491
 20
919.41397655
 30
-630.65967618
 11
13675.21433273
 21
921.48504437
 31
-628.58860837
  0
LINE
  5
1B1
100
AcDbEntity
  8
Ech.1_5
 62
     7
  6
CONTINUOUS
370
    -3
100
AcDbLine
 10
13675.21433273
 20
921.48504437
 30
-628.58860837
 11
13675.21433273
 21
956.48504437
 31
-593.58860837
  0
LINE
  5
1B2
100
AcDbEntity
  8
Ech.1_5
 62
     7
  6
CONTINUOUS
370
    -3
100
AcDbLine
 10
13668.21433273
 20
956.48504437
 30
-593.58860837
 11
13675.21433273
 21
956.48504437
 31
-593.58860837
  0
LINE
  5
1B3
100
AcDbEntity
  8
Ech.1_5
 62
     7
  6
CONTINUOUS
370
    -3
100
AcDbLine
 10
13668.21433273
 20
962.48504437
 30
-587.58860837
 11
13668.21433273
 21
956.48504437
 31
-593.58860837
  0
LINE
  5
1B4
100
AcDbEntity
  8
Ech.1_5
 62
     7
  6
CONTINUOUS
370
    -3
100
AcDbLine
 10
13663.21433273
 20
962.48504437
 30
-587.58860837
 11
13665.71433273
 21
967.48504437
 31
-582.58860837
  0
LINE
  5
1B5
100
AcDbEntity
  8
Ech.1_5
 62
     7
  6
CONTINUOUS
370
    -3
100
AcDbLine
 10
13665.71433273
 20
967.48504437
 30
-582.58860837
 11
13668.21433273
 21
962.48504437
 31
-587.58860837
  0
LINE
  5
1B6
100
AcDbEntity
  8
Ech.1_5
 62
     7
  6
CONTINUOUS
370
    -3
100
AcDbLine
 10
13662.83373039
 20
929.64269502
 30
-620.43095772
 11
13663.21433273
 21
962.48504437
 31
-587.58860837
  0
LINE
  5
1B7
100
AcDbEntity
  8
Ech.1_5
 62
     7
  6
CONTINUOUS
370
    -3
100
AcDbLine
 10
13656.67879882
 20
922.94951046
 30
-627.12414228
 11
13662.83373039
 21
929.64269502
 31
-620.43095772
  0
LINE
  5
1B8
100
AcDbEntity
  8
Ech.1_5
 62
     7
  6
CONTINUOUS
370
    -3
100
AcDbLine
 10
13655.21433273
 20
919.41397655
 30
-630.65967618
 11
13656.67879882
 21
922.94951046
 31
-627.12414228
  0
LINE
  5
1B9
100
AcDbEntity
  8
Ech.1_5
 62
     7
  6
CONTINUOUS
370
    -3
100
AcDbLine
 10
13655.21433273
 20
919.41397655
 30
-630.65967618
 11
13655.21433273
 21
809.52592859
 31
-740.54772414
  0
LINE
  5
1BA
100
AcDbEntity
  8
Ech.1_5
 62
     7
  6
CONTINUOUS
370
    -3
100
AcDbLine
 10
13655.21433273
 20
809.52592859
 30
-740.54772414
 11
13656.17465512
 21
807.89605995
 31
-742.17759278
  0
LINE
  5
1BB
100
AcDbEntity
  8
Ech.1_5
 62
     7
  6
CONTINUOUS
370
    -3
100
AcDbLine
 10
13656.17465512
 20
807.89605995
 30
-742.17759278
 11
13661.32277735
 21
804.68374082
 31
-745.38991192
  0
LINE
  5
1BC
100
AcDbEntity
  8
Ech.1_5
 62
     7
  6
CONTINUOUS
370
    -3
100
AcDbLine
 10
13661.32277735
 20
804.68374082
 30
-745.38991192
 11
13662.21433273
 21
805.30027673
 31
-744.77337601
  0
LINE
  5
1BD
100
AcDbEntity
  8
Ech.1_5
 62
     7
  6
CONTINUOUS
370
    -3
100
AcDbLine
 10
13259.21351283
 20
882.56113268
 30
-667.51252006
 11
13259.21351283
 21
443.04838531
 31
-1107.02526743
  0
LINE
  5
1BE
100
AcDbEntity
  8
Ech.1_5
 62
     7
  6
CONTINUOUS
370
    -3
100
AcDbLine
 10
13459.21414949
 20
478.04841091
 30
-1072.02524182
 11
13459.21414949
 21
443.04838531
 31
-1107.02526743
  0
LINE
  5
1BF
100
AcDbEntity
  8
Ech.1_5
 62
     7
  6
CONTINUOUS
370
    -3
100
AcDbLine
 10
13259.21351283
 20
443.04838531
 30
-1107.02526743
 11
13459.21414949
 21
443.04838531
 31
-1107.02526743
  0
LINE
  5
1C0
100
AcDbEntity
  8
Ech.1_5
 62
     7
  6
CONTINUOUS
370
    -3
100
AcDbLine
 10
13459.21414949
 20
443.04838531
 30
-1107.02526743
 11
13719.21414949
 21
443.04838531
 31
-1107.02526743
  0
LINE
  5
1C1
100
AcDbEntity
  8
Ech.1_5
 62
     7
  6
CONTINUOUS
370
    -3
100
AcDbLine
 10
13464.21414949
 20
657.54621004
 30
-892.5274427
 11
13489.21414949
 21
657.54620925
 31
-892.52744349
  0
LINE
  5
1C2
100
AcDbEntity
  8
Ech.1_5
 62
     7
  6
CONTINUOUS
370
    -3
100
AcDbLine
 10
13714.21414949
 20
657.54621004
 30
-892.5274427
 11
13719.21414949
 21
443.04838531
 31
-1107.02526743
  0
LINE
  5
1C3
100
AcDbEntity
  8
Ech.1_5
 62
     7
  6
CONTINUOUS
370
    -3
100
AcDbLine
 10
13459.21414949
 20
443.04838531
 30
-1107.02526743
 11
13464.21414949
 21
657.54621004
 31
-892.5274427
  0
LINE
  5
1C4
100
AcDbEntity
  8
Ech.1_5
 62
     7
  6
CONTINUOUS
370
    -3
100
AcDbLine
 10
13489.21414949
 20
657.54620925
 30
-892.52744349
 11
13494.21414949
 21
478.04838845
 31
-1072.02526428
  0
LINE
  5
1C5
100
AcDbEntity
  8
Ech.1_5
 62
     7
  6
CONTINUOUS
370
    -3
100
AcDbLine
 10
13589.21414949
 20
478.04839699
 30
-1072.02525575
 11
13684.21414949
 21
478.04838845
 31
-1072.02526428
  0
LINE
  5
1C6
100
AcDbEntity
  8
Ech.1_5
 62
     7
  6
CONTINUOUS
370
    -3
100
AcDbLine
 10
13494.21414949
 20
478.04838845
 30
-1072.02526428
 11
13589.21414949
 21
478.04839699
 31
-1072.02525575
  0
LINE
  5
1C7
100
AcDbEntity
  8
Ech.1_5
 62
     7
  6
CONTINUOUS
370
    -3
100
AcDbLine
 10
13684.21414949
 20
478.04838845
 30
-1072.02526428
 11
13689.21414949
 21
657.54620925
 31
-892.52744349
  0
LINE
  5
1C8
100
AcDbEntity
  8
Ech.1_5
 62
     7
  6
CONTINUOUS
370
    -3
100
AcDbLine
 10
13711.21414949
 20
657.54621004
 30
-892.52744349
 11
13714.21414949
 21
657.54621004
 31
-892.5274427
  0
LINE
  5
1C9
100
AcDbEntity
  8
Ech.1_5
 62
     7
  6
CONTINUOUS
370
    -3
100
AcDbLine
 10
13140.52468538
 20
443.04838531
 30
-1107.02526743
 11
13259.21351283
 21
443.04838531
 31
-1107.02526743
  0
LINE
  5
1CA
100
AcDbEntity
  8
Ech.1_5
 62
     7
  6
CONTINUOUS
370
    -3
100
AcDbLine
 10
13259.21351283
 20
443.04838531
 30
-1107.02526743
 11
13259.21351283
 21
882.56113268
 31
-667.51252006
  0
LINE
  5
1CB
100
AcDbEntity
  8
Ech.1_5
 62
     7
  6
CONTINUOUS
370
    -3
100
AcDbLine
 10
13140.52468538
 20
882.56113268
 30
-667.51252006
 11
13259.21351283
 21
882.56113268
 31
-667.51252006
  0
LINE
  5
1CC
100
AcDbEntity
  8
Ech.1_5
 62
     7
  6
CONTINUOUS
370
    -3
100
AcDbLine
 10
13669.21433273
 20
1231.08764082
 30
-318.98601192
 11
13675.21433273
 21
1231.08764082
 31
-318.98601192
  0
LINE
  5
1CD
100
AcDbEntity
  8
Ech.1_5
 62
     7
  6
CONTINUOUS
370
    -3
100
AcDbLine
 10
13669.21433273
 20
1231.08764082
 30
-318.98601192
 11
13669.21433273
 21
1240.08764082
 31
-309.98601192
  0
LINE
  5
1CE
100
AcDbEntity
  8
Ech.1_5
 62
     7
  6
CONTINUOUS
370
    -3
100
AcDbLine
 10
13662.21433273
 20
1240.08764082
 30
-309.98601192
 11
13669.21433273
 21
1240.08764082
 31
-309.98601192
  0
LINE
  5
1CF
100
AcDbEntity
  8
Ech.1_5
 62
     7
  6
CONTINUOUS
370
    -3
100
AcDbLine
 10
13675.21434363
 20
1241.30576155
 30
-291.98601192
 11
13675.21433273
 21
1231.08764082
 31
-318.98601192
  0
LINE
  5
1D0
100
AcDbEntity
  8
Ech.1_5
 62
     7
  6
CONTINUOUS
370
    -3
100
AcDbLine
 10
13662.21433273
 20
1240.08764082
 30
-309.98601192
 11
13662.21433273
 21
1212.70417673
 31
-337.36947601
  0
LINE
  5
1D1
100
AcDbEntity
  8
Ech.1_5
 62
     7
  6
CONTINUOUS
370
    -3
100
AcDbLine
 10
13655.21433273
 20
1241.30576155
 30
-223.25577618
 11
13655.21433273
 21
1216.92982859
 31
-223.25577618
  0
LINE
  5
1D2
100
AcDbEntity
  8
Ech.1_5
 62
     7
  6
CONTINUOUS
370
    -3
100
AcDbLine
 10
13655.21433273
 20
1216.92982859
 30
-333.14382414
 11
13656.17465512
 21
1215.29995995
 31
-334.77369278
  0
LINE
  5
1D3
100
AcDbEntity
  8
Ech.1_5
 62
     7
  6
CONTINUOUS
370
    -3
100
AcDbLine
 10
13656.17465512
 20
1215.29995995
 30
-334.77369278
 11
13661.32277735
 21
1212.08764082
 31
-337.98601192
  0
LINE
  5
1D4
100
AcDbEntity
  8
Ech.1_5
 62
     7
  6
CONTINUOUS
370
    -3
100
AcDbLine
 10
13661.32277735
 20
1212.08764082
 30
-337.98601192
 11
13662.21433273
 21
1212.70417673
 31
-337.36947601
  0
LINE
  5
1D5
100
AcDbEntity
  8
Ech.1_5
 62
     7
  6
CONTINUOUS
370
    -3
100
AcDbLine
 10
13669.21433273
 20
1095.28634082
 30
-454.78731192
 11
13675.21433273
 21
1095.28634082
 31
-454.78731192
  0
LINE
  5
1D6
100
AcDbEntity
  8
Ech.1_5
 62
     7
  6
CONTINUOUS
370
    -3
100
AcDbLine
 10
13669.21433273
 20
1095.28634082
 30
-454.78731192
 11
13669.21433273
 21
1104.28634082
 31
-445.78731192
  0
LINE
  5
1D7
100
AcDbEntity
  8
Ech.1_5
 62
     7
  6
CONTINUOUS
370
    -3
100
AcDbLine
 10
13662.21433273
 20
1104.28634082
 30
-445.78731192
 11
13669.21433273
 21
1104.28634082
 31
-445.78731192
  0
LINE
  5
1D8
100
AcDbEntity
  8
Ech.1_5
 62
     7
  6
CONTINUOUS
370
    -3
100
AcDbLine
 10
13675.21433273
 20
1122.28634082
 30
-427.78731192
 11
13675.21433273
 21
1095.28634082
 31
-454.78731192
  0
LINE
  5
1D9
100
AcDbEntity
  8
Ech.1_5
 62
     7
  6
CONTINUOUS
370
    -3
100
AcDbLine
 10
13662.21433273
 20
1104.28634082
 30
-445.78731192
 11
13662.21433273
 21
1076.90287673
 31
-473.17077601
  0
LINE
  5
1DA
100
AcDbEntity
  8
Ech.1_5
 62
     7
  6
CONTINUOUS
370
    -3
100
AcDbLine
 10
13671.21433273
 20
1126.28634082
 30
-423.78731192
 11
13675.21433273
 21
1122.28634082
 31
-427.78731192
  0
LINE
  5
1DB
100
AcDbEntity
  8
Ech.1_5
 62
     7
  6
CONTINUOUS
370
    -3
100
AcDbLine
 10
13671.21433273
 20
1126.28634082
 30
-423.78731192
 11
13675.21433273
 21
1130.28634082
 31
-419.78731192
  0
LINE
  5
1DC
100
AcDbEntity
  8
Ech.1_5
 62
     7
  6
CONTINUOUS
370
    -3
100
AcDbLine
 10
13675.21433273
 20
1191.01657655
 30
-359.05707618
 11
13675.21433273
 21
1130.28634082
 31
-419.78731192
  0
LINE
  5
1DD
100
AcDbEntity
  8
Ech.1_5
 62
     7
  6
CONTINUOUS
370
    -3
100
AcDbLine
 10
13673.14326491
 20
1191.01657655
 30
-359.05707618
 11
13675.21433273
 21
1191.01657655
 31
-359.05707618
  0
LINE
  5
1DE
100
AcDbEntity
  8
Ech.1_5
 62
     7
  6
CONTINUOUS
370
    -3
100
AcDbLine
 10
13673.14326491
 20
1191.01657655
 30
-359.05707618
 11
13675.21433273
 21
1193.08764437
 31
-356.98600837
  0
LINE
  5
1DF
100
AcDbEntity
  8
Ech.1_5
 62
     7
  6
CONTINUOUS
370
    -3
100
AcDbLine
 10
13675.21433273
 20
1193.08764437
 30
-356.98600837
 11
13675.21433273
 21
1228.08764437
 31
-321.98600837
  0
LINE
  5
1E0
100
AcDbEntity
  8
Ech.1_5
 62
     7
  6
CONTINUOUS
370
    -3
100
AcDbLine
 10
13668.21433273
 20
1228.08764437
 30
-321.98600837
 11
13675.21433273
 21
1228.08764437
 31
-321.98600837
  0
LINE
  5
1E1
100
AcDbEntity
  8
Ech.1_5
 62
     7
  6
CONTINUOUS
370
    -3
100
AcDbLine
 10
13668.21433273
 20
1234.08764437
 30
-315.98600837
 11
13668.21433273
 21
1228.08764437
 31
-321.98600837
  0
LINE
  5
1E2
100
AcDbEntity
  8
Ech.1_5
 62
     7
  6
CONTINUOUS
370
    -3
100
AcDbLine
 10
13663.21433273
 20
1234.08764437
 30
-315.98600837
 11
13665.71433273
 21
1239.08764437
 31
-310.98600837
  0
LINE
  5
1E3
100
AcDbEntity
  8
Ech.1_5
 62
     7
  6
CONTINUOUS
370
    -3
100
AcDbLine
 10
13665.71433273
 20
1239.08764437
 30
-310.98600837
 11
13668.21433273
 21
1234.08764437
 31
-315.98600837
  0
LINE
  5
1E4
100
AcDbEntity
  8
Ech.1_5
 62
     7
  6
CONTINUOUS
370
    -3
100
AcDbLine
 10
13662.83373039
 20
1201.24529502
 30
-348.82835772
 11
13663.21433273
 21
1234.08764437
 31
-315.98600837
  0
LINE
  5
1E5
100
AcDbEntity
  8
Ech.1_5
 62
     7
  6
CONTINUOUS
370
    -3
100
AcDbLine
 10
13656.67879882
 20
1194.55211046
 30
-355.52154228
 11
13662.83373039
 21
1201.24529502
 31
-348.82835772
  0
LINE
  5
1E6
100
AcDbEntity
  8
Ech.1_5
 62
     7
  6
CONTINUOUS
370
    -3
100
AcDbLine
 10
13655.21433273
 20
1191.01657655
 30
-359.05707618
 11
13656.67879882
 21
1194.55211046
 31
-355.52154228
  0
LINE
  5
1E7
100
AcDbEntity
  8
Ech.1_5
 62
     7
  6
CONTINUOUS
370
    -3
100
AcDbLine
 10
13655.21433273
 20
1191.01657655
 30
-359.05707618
 11
13655.21433273
 21
1081.12852859
 31
-468.94512414
  0
LINE
  5
1E8
100
AcDbEntity
  8
Ech.1_5
 62
     7
  6
CONTINUOUS
370
    -3
100
AcDbLine
 10
13655.21433273
 20
1081.12852859
 30
-468.94512414
 11
13656.17465512
 21
1079.49865995
 31
-470.57499278
  0
LINE
  5
1E9
100
AcDbEntity
  8
Ech.1_5
 62
     7
  6
CONTINUOUS
370
    -3
100
AcDbLine
 10
13656.17465512
 20
1079.49865995
 30
-470.57499278
 11
13661.32277735
 21
1076.28634082
 31
-473.78731192
  0
LINE
  5
1EA
100
AcDbEntity
  8
Ech.1_5
 62
     7
  6
CONTINUOUS
370
    -3
100
AcDbLine
 10
13661.32277735
 20
1076.28634082
 30
-473.78731192
 11
13662.21433273
 21
1076.90287673
 31
-473.17077601
  0
LINE
  5
1EB
100
AcDbEntity
  8
Ech.1_5
 62
     7
  6
CONTINUOUS
370
    -3
100
AcDbLine
 10
13942.21433273
 20
872.55160759
 30
-677.52204515
 11
13942.21433273
 21
882.55351261
 31
-667.52014013
  0
LINE
  5
1EC
100
AcDbEntity
  8
Ech.1_5
 62
     7
  6
CONTINUOUS
370
    -3
100
AcDbLine
 10
13942.21433273
 20
872.55160759
 30
-677.52204515
 11
14125.52468538
 21
872.55160759
 31
-677.52204515
  0
LINE
  5
1ED
100
AcDbEntity
  8
Ech.1_5
 62
     7
  6
CONTINUOUS
370
    -3
100
AcDbLine
 10
13942.21433273
 20
882.55351261
 30
-667.52014013
 11
14125.52468538
 21
882.5535126
 31
-667.52014013
  0
LINE
  5
1EE
100
AcDbEntity
  8
Ech.1_5
 62
     7
  6
CONTINUOUS
370
    -3
100
AcDbLine
 10
13942.21433273
 20
872.55160759
 30
-677.52204515
 11
14125.52468538
 21
872.55160759
 31
-677.52204515
  0
LINE
  5
1EF
100
AcDbEntity
  8
Ech.1_5
 62
     7
  6
CONTINUOUS
370
    -3
100
AcDbLine
 10
13942.21433273
 20
822.55351261
 30
-727.52014013
 11
14125.52468538
 21
822.55351261
 31
-727.52014013
  0
LINE
  5
1F0
100
AcDbEntity
  8
Ech.1_5
 62
     7
  6
CONTINUOUS
370
    -3
100
AcDbLine
 10
13942.21433273
 20
822.55351261
 30
-727.52014013
 11
13942.21433273
 21
872.55160759
 31
-677.52204515
  0
LINE
  5
1F1
100
AcDbEntity
  8
Ech.1_5
 62
     7
  6
CONTINUOUS
370
    -3
100
AcDbLine
 10
13942.21433273
 20
722.55383011
 30
-827.51982263
 11
13942.21433273
 21
822.55351261
 31
-727.52014013
  0
LINE
  5
1F2
100
AcDbEntity
  8
Ech.1_5
 62
     7
  6
CONTINUOUS
370
    -3
100
AcDbLine
 10
13942.21433273
 20
822.55351261
 30
-727.52014013
 11
14125.52468538
 21
822.55351261
 31
-727.52014013
  0
LINE
  5
1F3
100
AcDbEntity
  8
Ech.1_5
 62
     7
  6
CONTINUOUS
370
    -3
100
AcDbLine
 10
13942.21433273
 20
722.55383011
 30
-827.51982263
 11
14125.52468538
 21
722.55383011
 31
-827.51982263
  0
LINE
  5
1F4
100
AcDbEntity
  8
Ech.1_5
 62
     7
  6
CONTINUOUS
370
    -3
100
AcDbLine
 10
13719.21419649
 20
443.04838531
 30
-1107.02526743
 11
13919.21433273
 21
443.04838531
 31
-1107.02526743
  0
LINE
  5
1F5
100
AcDbEntity
  8
Ech.1_5
 62
     7
  6
CONTINUOUS
370
    -3
100
AcDbLine
 10
13719.21419649
 20
443.04838531
 30
-1107.02526743
 11
13719.21419649
 21
592.5538301
 31
-957.51982263
  0
LINE
  5
1F6
100
AcDbEntity
  8
Ech.1_5
 62
     7
  6
CONTINUOUS
370
    -3
100
AcDbLine
 10
13719.21419649
 20
592.5538301
 30
-957.51982263
 11
13919.21433273
 21
592.5538301
 31
-957.51982263
  0
LINE
  5
1F7
100
AcDbEntity
  8
Ech.1_5
 62
     7
  6
CONTINUOUS
370
    -3
100
AcDbLine
 10
13919.21433273
 20
592.5538301
 30
-957.51982263
 11
13919.21433273
 21
443.04838531
 31
-1107.02526743
  0
LINE
  5
1F8
100
AcDbEntity
  8
Ech.1_5
 62
     7
  6
CONTINUOUS
370
    -3
100
AcDbLine
 10
13719.21426936
 20
592.5538301
 30
-957.51982263
 11
14125.52468538
 21
592.5538301
 31
-957.51982263
  0
LINE
  5
1F9
100
AcDbEntity
  8
Ech.1_5
 62
     7
  6
CONTINUOUS
370
    -3
100
AcDbLine
 10
13719.21426936
 20
722.55383011
 30
-827.51982263
 11
14125.52468538
 21
722.55383011
 31
-827.51982263
  0
LINE
  5
1FA
100
AcDbEntity
  8
Ech.1_5
 62
     7
  6
CONTINUOUS
370
    -3
100
AcDbLine
 10
13719.21426936
 20
592.5538301
 30
-957.51982263
 11
13719.21426936
 21
722.55383011
 31
-827.51982263
  0
LWPOLYLINE
  5
1FB
100
AcDbEntity
  8
Ech.1_5
 62
     7
  6
CONTINUOUS
370
    -3
100
AcDbPolyline
 90
        5
 70
     0
 43
0.0
 10
14125.52468538
 20
1527.77809691
 10
13140.52468538
 20
1527.77809691
 10
13140.52468538
 20
172.77809691
 10
14125.52468538
 20
172.77809691
 10
14125.52468538
 20
1527.77809691
  0
LWPOLYLINE
  5
1FC
102
{ACAD_REACTORS
330
1FD
102
}
100
AcDbEntity
  8
Ech.1_5
 62
     7
  6
CONTINUOUS
370
    -3
100
AcDbPolyline
 90
        4
 70
     1
 43
0.0
 10
15257.54261397
 20
882.56113268
 10
14660.71610648
 20
882.56113268
 10
14660.71610648
 20
857.55351261
 10
15257.54261397
 20
857.55351261
  0
HATCH
  5
1FD
100
AcDbEntity
  8
Ech.1_5
 62
     7
  6
CONTINUOUS
100
AcDbHatch
 10
0.0
 20
0.0
 30
0.0
210
0.0
220
0.0
230
1.0
  2
ANSI37
 70
     0
 71
     1
 91
        1
 92
        7
 72
     0
 73
     1
 93
        4
 10
15257.54261397
 20
882.56113268
 10
14660.71610648
 20
882.56113268
 10
14660.71610648
 20
857.55351261
 10
15257.54261397
 20
857.55351261
 97
        1
330
1FC
 75
     0
 76
     2
 52
0.0
 41
3.14960635
 77
     0
 78
     2
 53
45.0
 43
0.0
 44
0.0
 45
7.07106781
 46
-7.07106781
 79
     0
 53
-45.0
 43
0.0
 44
0.0
 45
7.07106781
 46
7.07106781
 79
     0
 47
0.775229
 98
        1
 10
0.0
 20
0.0
  0
LWPOLYLINE
  5
1FE
100
AcDbEntity
  8
Ech.1_5
 62
     7
  6
CONTINUOUS
370
    -3
100
AcDbPolyline
 90
        5
 70
     0
 43
0.0
 10
15527.02727903
 20
1527.77809691
 10
14542.02727903
 20
1527.77809691
 10
14542.02727903
 20
172.77809691
 10
15527.02727903
 20
172.77809691
 10
15527.02727903
 20
1527.77809691
  0
LWPOLYLINE
  5
1FF
102
{ACAD_REACTORS
330
200
102
}
100
AcDbEntity
  8
Ech.1_5
 62
     7
  6
CONTINUOUS
370
    -3
100
AcDbPolyline
 90
        4
 70
     1
 43
0.0
 10
13467.21414949
 20
682.55383011
 10
13467.21414949
 20
657.54621004
 10
13711.21414949
 20
657.54621004
 10
13711.21414949
 20
682.55383011
  0
HATCH
  5
200
100
AcDbEntity
  8
Ech.1_5
 62
     7
  6
CONTINUOUS
100
AcDbHatch
 10
0.0
 20
0.0
 30
0.0
210
0.0
220
0.0
230
1.0
  2
ANSI37
 70
     0
 71
     1
 91
        1
 92
        7
 72
     0
 73
     1
 93
        4
 10
13467.21414949
 20
682.55383011
 10
13467.21414949
 20
657.54621004
 10
13711.21414949
 20
657.54621004
 10
13711.21414949
 20
682.55383011
 97
        1
330
1FF
 75
     0
 76
     2
 52
0.0
 41
3.14960635
 77
     0
 78
     2
 53
45.0
 43
0.0
 44
0.0
 45
7.07106781
 46
-7.07106781
 79
     0
 53
-45.0
 43
0.0
 44
0.0
 45
7.07106781
 46
7.07106781
 79
     0
 47
0.775229
 98
        1
 10
0.0
 20
0.0
  0
LWPOLYLINE
  5
201
102
{ACAD_REACTORS
330
202
102
}
100
AcDbEntity
  8
Ech.1_5
 62
     7
  6
CONTINUOUS
370
    -3
100
AcDbPolyline
 90
        9
 70
     1
 43
0.0
 38
2500.0
 39
-2500.0
 10
13822.08668686
 20
460.83198995
 10
13807.11839716
 20
419.94229203
 10
13821.83943164
 20
439.11064274
 10
13825.45040174
 20
443.04838531
 10
13919.21433273
 20
443.04838531
 10
13919.21426936
 20
592.5538301
 10
13719.21426936
 20
592.5538301
 10
13719.21433273
 20
443.04838531
 10
13806.58848452
 20
443.04838531
  0
HATCH
  5
202
100
AcDbEntity
  8
Ech.1_5
 62
     7
  6
CONTINUOUS
100
AcDbHatch
 10
0.0
 20
0.0
 30
0.0
210
0.0
220
0.0
230
1.0
  2
AR-CONC
 70
     0
 71
     1
 91
        1
 92
        7
 72
     0
 73
     1
 93
        9
 10
13822.08668686
 20
460.83198995
 10
13807.11839716
 20
419.94229203
 10
13821.83943164
 20
439.11064274
 10
13825.45040174
 20
443.04838531
 10
13919.21433273
 20
443.04838531
 10
13919.21426936
 20
592.5538301
 10
13719.21426936
 20
592.5538301
 10
13719.21433273
 20
443.04838531
 10
13806.58848452
 20
443.04838531
 97
        1
330
201
 75
     0
 76
     2
 52
45.0
 41
0.11811097
 77
     0
 78
    13
 53
50.0
 43
0.0
 44
0.0
 45
-18.84283637
 46
1.64853443
 79
     2
 49
1.97029307
 49
-21.67322338
 53
355.0
 43
0.0
 44
0.0
 45
-3.64507756
 46
19.76051824
 79
     2
 49
1.57623377
 49
-17.3385787
 53
100.45140076
 43
1.57023568
 44
-0.13737749
 45
-15.19777228
 46
-18.11197244
 79
     2
 49
1.67449124
 49
-18.41940522
 53
46.18420029
 43
0.0
 44
5.25411576
 45
-28.03703353
 46
4.34827878
 79
     2
 49
2.95543872
 49
-32.50983238
 53
96.63559723
 43
2.33641885
 44
4.89175692
 45
-24.55412615
 46
-25.59063404
 79
     2
 49
2.51173697
 49
-27.62910426
 53
351.1842041
 43
0.0
 44
5.25411576
 45
24.55410288
 46
25.59065715
 79
     2
 49
2.36435249
 49
-26.00786805
 53
21.0
 43
2.62705699
 44
3.94058615
 45
-15.68109068
 46
10.57702905
 79
     2
 49
1.97029307
 49
-21.67322338
 53
326.0
 43
2.62705699
 44
3.94058615
 45
6.39203268
 46
19.05010734
 79
     2
 49
1.57623377
 49
-17.3385787
 53
71.45140076
 43
3.93381357
 44
3.05916555
 45
-22.07312962
 46
-8.47306182
 79
     2
 49
1.67449124
 49
-18.41940522
 53
37.5
 43
0.0
 44
0.0
 45
0.31944534
 46
8.74531245
 79
     6
 49
0.01875
 49
-17.12841332
 49
0.01875
 49
-17.60128498
 49
0.01875
 49
-17.40425348
 53
7.5
 43
0.0
 44
0.0
 45
6.91098818
 46
10.3614222
 79
     6
 49
0.01875
 49
-10.03535807
 49
0.01875
 49
-16.7343539
 49
0.01875
 49
-6.6333206
 53
-32.5
 43
-5.85833833
 44
0.0
 45
14.02382061
 46
-0.59253003
 79
     6
 49
0.01875
 49
-6.56764314
 49
0.01875
 49
-20.49104869
 49
0.01875
 49
-27.19004452
 53
-42.5
 43
-8.48539531
 44
0.0
 45
15.32063571
 46
2.62981542
 79
     6
 49
0.01875
 49
-8.53793621
 49
0.01875
 49
-13.60815793
 49
0.01875
 49
-19.30887222
 47
0.775229
 98
        1
 10
0.0
 20
0.0
  0
3DFACE
  5
203
102
{ACAD_REACTORS
330
204
102
}
100
AcDbEntity
  8
Ech.1_5
 62
     7
  6
CONTINUOUS
370
    -3
100
AcDbFace
 70
     0
 10
14125.52468538
 20
822.55382999
 30
2500.0
 11
14125.52468538
 21
872.55382999
 31
2500.0
 12
13946.14645632
 22
872.55382999
 32
2500.0
 13
13946.14645632
 23
822.55383
 33
2500.0
  0
HATCH
  5
204
100
AcDbEntity
  8
Ech.1_5
 62
     7
  6
CONTINUOUS
100
AcDbHatch
 10
0.0
 20
0.0
 30
0.0
210
0.0
220
0.0
230
1.0
  2
AR-CONC
 70
     0
 71
     1
 91
        1
 92
        7
 72
     0
 73
     1
 93
        4
 10
14125.52468538
 20
822.55382999
 10
14125.52468538
 20
872.55382999
 10
13946.14645632
 20
872.55382999
 10
13946.14645632
 20
822.55383
 97
        1
330
203
 75
     0
 76
     2
 52
45.0
 41
0.06299252
 77
     0
 78
    13
 53
50.0
 43
0.0
 44
0.0
 45
-10.04951288
 46
0.87921838
 79
     2
 49
1.05082299
 49
-11.55905264
 53
355.0
 43
0.0
 44
0.0
 45
-1.94404139
 46
10.53894322
 79
     2
 49
0.84065802
 49
-9.24724211
 53
100.45140076
 43
0.83745904
 44
-0.073268
 45
-8.10547867
 46
-9.65971878
 79
     2
 49
0.89306201
 49
-9.82368293
 53
46.18420029
 43
0.0
 44
2.80219511
 45
-14.95308477
 46
2.31908205
 79
     2
 49
1.57623401
 49
-17.33857753
 53
96.63559723
 43
1.24609007
 44
2.60893706
 45
-13.09553414
 46
-13.64833836
 79
     2
 49
1.33959307
 49
-14.73552249
 53
351.1842041
 43
0.0
 44
2.80219511
 45
13.09552173
 46
13.64835069
 79
     2
 49
1.26098802
 49
-13.87086317
 53
21.0
 43
1.40109708
 44
2.10164598
 45
-8.36324849
 46
5.64108224
 79
     2
 49
1.05082299
 49
-11.55905264
 53
326.0
 43
1.40109708
 44
2.10164598
 45
3.40908414
 46
10.1600574
 79
     2
 49
0.84065802
 49
-9.24724211
 53
71.45140076
 43
2.09803394
 44
1.63155499
 45
-11.77233597
 46
-4.51896637
 79
     2
 49
0.89306201
 49
-9.82368293
 53
37.5
 43
0.0
 44
0.0
 45
0.17037085
 46
4.66416671
 79
     6
 49
0.01
 49
-9.13515391
 49
0.01
 49
-9.38735213
 49
0.01
 49
-9.28226866
 53
7.5
 43
0.0
 44
0.0
 45
3.68586042
 46
5.52609192
 79
     6
 49
0.01
 49
-5.35219105
 49
0.01
 49
-8.92498888
 49
0.01
 49
-3.53777104
 53
-32.5
 43
-3.12444715
 44
0.0
 45
7.4793711
 46
-0.31601602
 79
     6
 49
0.01
 49
-3.50274306
 49
0.01
 49
-10.92855947
 49
0.01
 49
-14.50135729
 53
-42.5
 43
-4.52554423
 44
0.0
 45
8.17100583
 46
1.40256824
 79
     6
 49
0.01
 49
-4.55356605
 49
0.01
 49
-7.25768434
 49
0.01
 49
-10.29806534
 47
0.775229
 98
        1
 10
0.0
 20
0.0
  0
LWPOLYLINE
  5
205
102
{ACAD_REACTORS
330
206
102
}
100
AcDbEntity
  8
Ech.1_5
 62
     7
  6
CONTINUOUS
370
    -3
100
AcDbPolyline
 90
        5
 70
     1
 43
0.0
 38
2500.0
 39
-2500.0
 10
13719.21433273
 20
722.55383011
 10
13719.21426936
 20
592.5538301
 10
14125.52468538
 20
592.5538301
 10
14125.52468538
 20
722.55498925
 10
13919.21456706
 20
722.55573513
  0
HATCH
  5
206
100
AcDbEntity
  8
Ech.1_5
 62
     7
  6
CONTINUOUS
100
AcDbHatch
 10
0.0
 20
0.0
 30
0.0
210
0.0
220
0.0
230
1.0
  2
AR-CONC
 70
     0
 71
     1
 91
        1
 92
        7
 72
     0
 73
     1
 93
        5
 10
13719.21433273
 20
722.55383011
 10
13719.21426936
 20
592.5538301
 10
14125.52468538
 20
592.5538301
 10
14125.52468538
 20
722.55498925
 10
13919.21456706
 20
722.55573513
 97
        1
330
205
 75
     0
 76
     2
 52
0.0
 41
0.11811097
 77
     0
 78
    13
 53
50.0
 43
0.0
 44
0.0
 45
-18.84283637
 46
1.64853443
 79
     2
 49
1.97029307
 49
-21.67322338
 53
355.0
 43
0.0
 44
0.0
 45
-3.64507756
 46
19.76051824
 79
     2
 49
1.57623377
 49
-17.3385787
 53
100.45140076
 43
1.57023568
 44
-0.13737749
 45
-15.19777228
 46
-18.11197244
 79
     2
 49
1.67449124
 49
-18.41940522
 53
46.18420029
 43
0.0
 44
5.25411576
 45
-28.03703353
 46
4.34827878
 79
     2
 49
2.95543872
 49
-32.50983238
 53
96.63559723
 43
2.33641885
 44
4.89175692
 45
-24.55412615
 46
-25.59063404
 79
     2
 49
2.51173697
 49
-27.62910426
 53
351.1842041
 43
0.0
 44
5.25411576
 45
24.55410288
 46
25.59065715
 79
     2
 49
2.36435249
 49
-26.00786805
 53
21.0
 43
2.62705699
 44
3.94058615
 45
-15.68109068
 46
10.57702905
 79
     2
 49
1.97029307
 49
-21.67322338
 53
326.0
 43
2.62705699
 44
3.94058615
 45
6.39203268
 46
19.05010734
 79
     2
 49
1.57623377
 49
-17.3385787
 53
71.45140076
 43
3.93381357
 44
3.05916555
 45
-22.07312962
 46
-8.47306182
 79
     2
 49
1.67449124
 49
-18.41940522
 53
37.5
 43
0.0
 44
0.0
 45
0.31944534
 46
8.74531245
 79
     6
 49
0.01875
 49
-17.12841332
 49
0.01875
 49
-17.60128498
 49
0.01875
 49
-17.40425348
 53
7.5
 43
0.0
 44
0.0
 45
6.91098818
 46
10.3614222
 79
     6
 49
0.01875
 49
-10.03535807
 49
0.01875
 49
-16.7343539
 49
0.01875
 49
-6.6333206
 53
-32.5
 43
-5.85833833
 44
0.0
 45
14.02382061
 46
-0.59253003
 79
     6
 49
0.01875
 49
-6.56764314
 49
0.01875
 49
-20.49104869
 49
0.01875
 49
-27.19004452
 53
-42.5
 43
-8.48539531
 44
0.0
 45
15.32063571
 46
2.62981542
 79
     6
 49
0.01875
 49
-8.53793621
 49
0.01875
 49
-13.60815793
 49
0.01875
 49
-19.30887222
 47
0.775229
 98
        1
 10
0.0
 20
0.0
  0
LWPOLYLINE
  5
207
102
{ACAD_REACTORS
330
208
102
}
100
AcDbEntity
  8
Ech.1_5
 62
     7
  6
CONTINUOUS
370
    -3
100
AcDbPolyline
 90
        4
 70
     1
 43
0.0
 10
13952.75167047
 20
882.55351261
 10
13952.75167047
 20
872.55382999
 10
14125.52468538
 20
872.55389155
 10
14125.52468538
 20
882.55351261
  0
HATCH
  5
208
100
AcDbEntity
  8
Ech.1_5
 62
     7
  6
CONTINUOUS
100
AcDbHatch
 10
0.0
 20
0.0
 30
0.0
210
0.0
220
0.0
230
1.0
  2
ANSI31
 70
     0
 71
     1
 91
        1
 92
        7
 72
     0
 73
     1
 93
        4
 10
13952.75167047
 20
882.55351261
 10
13952.75167047
 20
872.55382999
 10
14125.52468538
 20
872.55389155
 10
14125.52468538
 20
882.55351261
 97
        1
330
207
 75
     0
 76
     2
 52
90.0
 41
3.14962605
 77
     0
 78
     1
 53
-45.0
 43
0.0
 44
0.0
 45
7.07106781
 46
7.07106781
 79
     0
 47
0.775229
 98
        1
 10
0.0
 20
0.0
  0
LWPOLYLINE
  5
209
102
{ACAD_REACTORS
330
20A
102
}
100
AcDbEntity
  8
Ech.1_5
 62
     7
  6
CONTINUOUS
370
    -3
100
AcDbPolyline
 90
        4
 70
     1
 43
0.0
 10
13259.21351283
 20
882.56113268
 10
13140.52468538
 20
882.56113268
 10
13140.52468538
 20
443.04838531
 10
13259.21365808
 20
443.04838531
  0
HATCH
  5
20A
100
AcDbEntity
  8
Ech.1_5
 62
     7
  6
CONTINUOUS
100
AcDbHatch
 10
0.0
 20
0.0
 30
0.0
210
0.0
220
0.0
230
1.0
  2
ANSI31
 70
     0
 71
     1
 91
        1
 92
        7
 72
     0
 73
     1
 93
        4
 10
13259.21351283
 20
882.56113268
 10
13140.52468538
 20
882.56113268
 10
13140.52468538
 20
443.04838531
 10
13259.21365808
 20
443.04838531
 97
        1
330
209
 75
     0
 76
     2
 52
0.0
 41
6.2992521
 77
     0
 78
     1
 53
45.0
 43
0.0
 44
0.0
 45
14.14213562
 46
-14.14213562
 79
     0
 47
0.775229
 98
        1
 10
0.0
 20
0.0
  0
LWPOLYLINE
  5
20B
100
AcDbEntity
  8
Ech.1_5
 62
     7
  6
CONTINUOUS
100
AcDbPolyline
 90
        6
 70
     0
 43
0.0
 10
13942.21574791
 20
952.21106189
 10
13945.21433271
 20
952.21099296
 42
-0.41421356
 10
13955.21433271
 20
942.21099296
 10
13955.21433271
 20
886.54621965
 10
13942.21433273
 20
886.54621732
 10
13942.21433273
 20
952.21099063
  0
LWPOLYLINE
  5
20C
102
{ACAD_REACTORS
330
20D
102
}
100
AcDbEntity
  8
Ech.1_5
 62
     7
  6
CONTINUOUS
370
    -3
100
AcDbPolyline
 90
        4
 70
     1
 43
0.0
 10
13942.21433273
 20
1241.79598241
 10
13929.21433273
 20
1241.79598241
 10
13929.21433273
 20
732.54621743
 10
13942.21433273
 20
732.54621743
  0
HATCH
  5
20D
100
AcDbEntity
  8
Ech.1_5
 62
     7
  6
CONTINUOUS
100
AcDbHatch
 10
0.0
 20
0.0
 30
0.0
210
0.0
220
0.0
230
1.0
  2
DOTS2
 70
     0
 71
     1
 91
        1
 92
        7
 72
     0
 73
     1
 93
        4
 10
13942.21433273
 20
1241.79598241
 10
13929.21433273
 20
1241.79598241
 10
13929.21433273
 20
732.54621743
 10
13942.21433273
 20
732.54621743
 97
        1
330
20C
 75
     0
 76
     2
 52
0.0
 41
4.72440952
 77
     0
 78
     1
 53
0.0
 43
0.0
 44
0.0
 45
3.75
 46
3.535
 79
     2
 49
0.0
 49
-3.535
 47
0.775229
 98
        1
 10
0.0
 20
0.0
  0
LWPOLYLINE
  5
20E
100
AcDbEntity
  8
Ech.1_5
 62
     7
  6
CONTINUOUS
370
    25
100
AcDbPolyline
 90
        5
 70
     0
 43
0.0
 38
2500.0
 10
13965.093731
 20
723.03580231
 10
13947.38547202
 20
723.03580231
 10
13947.38547202
 20
890.19941023
 10
13944.78066847
 20
893.15078739
 10
13944.78066847
 20
914.2883684
  0
LINE
  5
20F
100
AcDbEntity
  8
Ech.1_5
 62
     7
  6
CONTINUOUS
370
    70
100
AcDbLine
 10
13943.68225883
 20
889.79985106
 30
2500.0
 11
13943.68225883
 21
722.83465117
 31
2500.0
  0
LWPOLYLINE
  5
210
100
AcDbEntity
  8
Ech.1_5
 62
     7
  6
CONTINUOUS
370
    35
100
AcDbPolyline
 90
        3
 70
     0
 43
0.0
 38
2500.0
 10
13964.33009932
 20
824.23270199
 10
13949.78934704
 20
824.23270199
 10
13949.78934704
 20
841.99127793
  0
LWPOLYLINE
  5
211
102
{ACAD_REACTORS
330
212
102
}
100
AcDbEntity
  8
Ech.1_5
 62
     7
  6
CONTINUOUS
370
    -3
100
AcDbPolyline
 90
       10
 70
     1
 43
0.0
 38
2500.0
 39
-2500.0
 10
13489.21414949
 20
657.54620925
 10
13464.21414949
 20
657.54621004
 10
13459.21414949
 20
443.04838531
 10
13719.21414949
 20
443.04838531
 10
13714.21414949
 20
657.54621004
 10
13711.21414949
 20
657.54620995
 10
13689.21414949
 20
657.54620996
 10
13684.21414949
 20
478.04838845
 10
13589.21414949
 20
478.04839699
 10
13494.21414949
 20
478.04838845
  0
HATCH
  5
212
100
AcDbEntity
  8
Ech.1_5
 62
     7
  6
CONTINUOUS
100
AcDbHatch
 10
0.0
 20
0.0
 30
0.0
210
0.0
220
0.0
230
1.0
  2
AR-CONC
 70
     0
 71
     1
 91
        1
 92
        7
 72
     0
 73
     1
 93
       10
 10
13489.21414949
 20
657.54620925
 10
13464.21414949
 20
657.54621004
 10
13459.21414949
 20
443.04838531
 10
13719.21414949
 20
443.04838531
 10
13714.21414949
 20
657.54621004
 10
13711.21414949
 20
657.54620995
 10
13689.21414949
 20
657.54620996
 10
13684.21414949
 20
478.04838845
 10
13589.21414949
 20
478.04839699
 10
13494.21414949
 20
478.04838845
 97
        1
330
211
 75
     0
 76
     2
 52
0.0
 41
0.11811097
 77
     0
 78
    13
 53
50.0
 43
0.0
 44
0.0
 45
-18.84283637
 46
1.64853443
 79
     2
 49
1.97029307
 49
-21.67322338
 53
355.0
 43
0.0
 44
0.0
 45
-3.64507756
 46
19.76051824
 79
     2
 49
1.57623377
 49
-17.3385787
 53
100.45140076
 43
1.57023568
 44
-0.13737749
 45
-15.19777228
 46
-18.11197244
 79
     2
 49
1.67449124
 49
-18.41940522
 53
46.18420029
 43
0.0
 44
5.25411576
 45
-28.03703353
 46
4.34827878
 79
     2
 49
2.95543872
 49
-32.50983238
 53
96.63559723
 43
2.33641885
 44
4.89175692
 45
-24.55412615
 46
-25.59063404
 79
     2
 49
2.51173697
 49
-27.62910426
 53
351.1842041
 43
0.0
 44
5.25411576
 45
24.55410288
 46
25.59065715
 79
     2
 49
2.36435249
 49
-26.00786805
 53
21.0
 43
2.62705699
 44
3.94058615
 45
-15.68109068
 46
10.57702905
 79
     2
 49
1.97029307
 49
-21.67322338
 53
326.0
 43
2.62705699
 44
3.94058615
 45
6.39203268
 46
19.05010734
 79
     2
 49
1.57623377
 49
-17.3385787
 53
71.45140076
 43
3.93381357
 44
3.05916555
 45
-22.07312962
 46
-8.47306182
 79
     2
 49
1.67449124
 49
-18.41940522
 53
37.5
 43
0.0
 44
0.0
 45
0.31944534
 46
8.74531245
 79
     6
 49
0.01875
 49
-17.12841332
 49
0.01875
 49
-17.60128498
 49
0.01875
 49
-17.40425348
 53
7.5
 43
0.0
 44
0.0
 45
6.91098818
 46
10.3614222
 79
     6
 49
0.01875
 49
-10.03535807
 49
0.01875
 49
-16.7343539
 49
0.01875
 49
-6.6333206
 53
-32.5
 43
-5.85833833
 44
0.0
 45
14.02382061
 46
-0.59253003
 79
     6
 49
0.01875
 49
-6.56764314
 49
0.01875
 49
-20.49104869
 49
0.01875
 49
-27.19004452
 53
-42.5
 43
-8.48539531
 44
0.0
 45
15.32063571
 46
2.62981542
 79
     6
 49
0.01875
 49
-8.53793621
 49
0.01875
 49
-13.60815793
 49
0.01875
 49
-19.30887222
 47
0.775229
 98
        1
 10
0.0
 20
0.0
  0
LWPOLYLINE
  5
213
100
AcDbEntity
  8
Ech.1_5
 62
     7
  6
CONTINUOUS
370
    -3
100
AcDbPolyline
 90
        4
 70
     0
 43
0.0
 10
13709.21433273
 20
722.54621004
 10
13889.21433273
 20
767.54621004
 10
13889.21433273
 20
722.54621004
 10
13709.21433273
 20
767.54621004
  0
LWPOLYLINE
  5
214
100
AcDbEntity
  8
Ech.1_5
 62
     7
  6
CONTINUOUS
370
    -3
100
AcDbPolyline
 90
        4
 70
     0
 43
0.0
 10
13709.21433273
 20
767.54621004
 10
13889.21433273
 20
812.54621004
 10
13889.21433273
 20
767.54621004
 10
13709.21433273
 20
812.54621004
  0
LWPOLYLINE
  5
215
100
AcDbEntity
  8
Ech.1_5
 62
     7
  6
CONTINUOUS
370
    -3
100
AcDbPolyline
 90
        5
 70
     0
 43
0.0
 10
13709.21433273
 20
812.54621004
 10
13889.21433273
 20
812.54621004
 10
13889.21433273
 20
767.54621004
 10
13709.21433273
 20
767.54621004
 10
13709.21433273
 20
812.54621004
  0
CIRCLE
  5
216
100
AcDbEntity
  8
Ech.1_5
 62
     7
  6
CONTINUOUS
100
AcDbCircle
 10
13934.88604418
 20
726.68890957
 30
0.0
 40
6.16444121
  0
HATCH
  5
217
100
AcDbEntity
  8
Ech.1_5
 62
     7
100
AcDbHatch
 10
0.0
 20
0.0
 30
0.0
210
0.0
220
0.0
230
1.0
  2
ANSI31
 70
     0
 71
     0
 91
        1
 92
        7
 72
     1
 73
     1
 93
        2
 10
13941.05048539
 20
726.68890957
 42
1.0
 10
13928.72160297
 20
726.68890957
 42
1.0
 97
        0
 75
     0
 76
     2
 52
0.0
 41
0.94488785
 77
     0
 78
     1
 53
45.0
 43
0.0
 44
0.0
 45
2.12132043
 46
-2.12132043
 79
     0
 47
0.775229
 98
        1
 10
0.0
 20
0.0
  0
LWPOLYLINE
  5
218
102
{ACAD_REACTORS
330
219
102
}
100
AcDbEntity
  8
Ech.1_5
 62
     7
  6
CONTINUOUS
370
    -3
100
AcDbPolyline
 90
        4
 70
     1
 43
0.0
 10
13709.21433273
 20
1241.30576155
 10
13700.21433273
 20
1241.30576155
 10
13700.21433273
 20
732.54621004
 10
13709.21433273
 20
732.54621004
  0
HATCH
  5
219
100
AcDbEntity
  8
Ech.1_5
 62
     7
  6
CONTINUOUS
100
AcDbHatch
 10
0.0
 20
0.0
 30
0.0
210
0.0
220
0.0
230
1.0
  2
CDWK10A
 70
     0
 71
     1
 91
        1
 92
        7
 72
     0
 73
     1
 93
        4
 10
13709.21433273
 20
1241.30576155
 10
13700.21433273
 20
1241.30576155
 10
13700.21433273
 20
732.54621004
 10
13709.21433273
 20
732.54621004
 97
        1
330
218
 75
     0
 76
     2
 52
0.0
 41
1.0
 77
     0
 78
     3
 53
45.0
 43
0.0
 44
0.0
 45
0.0
 46
42.00000167
 79
     0
 53
45.0
 43
0.0
 44
10.80000043
 45
0.0
 46
42.00000167
 79
     0
 53
45.0
 43
0.0
 44
21.60000086
 45
0.0
 46
42.00000167
 79
     0
 47
0.775229
 98
        1
 10
0.0
 20
0.0
  0
LWPOLYLINE
  5
21A
100
AcDbEntity
  8
Ech.1_5
 62
     7
  6
CONTINUOUS
370
    -3
100
AcDbPolyline
 90
        5
 70
     0
 43
0.0
 10
13889.21433273
 20
752.54621004
 10
13929.21433273
 20
752.54621004
 10
13929.21433273
 20
797.54621004
 10
13889.21433273
 20
797.54621004
 10
13889.21433273
 20
752.54621004
  0
LWPOLYLINE
  5
21B
100
AcDbEntity
  8
Ech.1_5
 62
     7
  6
CONTINUOUS
370
    -3
100
AcDbPolyline
 90
        4
 70
     0
 43
0.0
 10
13889.21433273
 20
797.54621004
 10
13929.21433273
 20
752.54621004
 10
13929.21433273
 20
797.54621004
 10
13889.21433273
 20
752.54621004
  0
LWPOLYLINE
  5
21C
100
AcDbEntity
  8
Ech.1_5
 62
     7
  6
CONTINUOUS
370
    -3
100
AcDbPolyline
 90
        5
 70
     0
 43
0.0
 10
13709.21433273
 20
767.54621004
 10
13889.21433273
 20
767.54621004
 10
13889.21433273
 20
722.54621004
 10
13709.21433273
 20
722.54621004
 10
13709.21433273
 20
767.54621004
  0
LWPOLYLINE
  5
21D
100
AcDbEntity
  8
Ech.1_5
 62
     7
  6
BYBLOCK
100
AcDbPolyline
 90
        5
 70
     0
 43
0.0
 10
13809.73731557
 20
713.11404568
 10
13835.56184665
 20
713.11404568
 10
13835.56184665
 20
722.54670574
 10
13809.73731557
 20
722.54670574
 10
13809.73731557
 20
713.11404568
  0
LWPOLYLINE
  5
21E
100
AcDbEntity
  8
Ech.1_5
 62
     7
  6
CONTINUOUS
370
    70
100
AcDbPolyline
 90
        3
 70
     0
 43
0.0
 10
13678.11006129
 20
721.84441706
 10
13696.6048701
 20
721.84441706
 10
13696.6048701
 20
760.09217789
  0
LWPOLYLINE
  5
21F
100
AcDbEntity
  8
Ech.1_5
 62
   204
  6
DASHDOT
370
    70
100
AcDbPolyline
 90
       11
 70
     0
 43
0.0
 38
2500.0
 10
13696.1742467
 20
720.12237406
 10
13702.04781289
 20
720.12237406
 10
13738.4638546
 20
720.12237406
 10
13743.34350801
 20
720.12237406
 10
13770.76157121
 20
720.12237406
 10
13776.04201058
 20
720.11879254
 10
13802.61696039
 20
720.11692106
 10
13808.66735588
 20
720.12237406
 10
13837.00575518
 20
720.12237406
 10
13842.70490412
 20
720.11510114
 10
13887.41510411
 20
720.11541694
  0
HATCH
  5
220
100
AcDbEntity
  8
Ech.1_5
 62
     7
100
AcDbHatch
 10
0.0
 20
0.0
 30
0.0
210
0.0
220
0.0
230
1.0
  2
ANSI37
 70
     0
 71
     0
 91
        1
 92
        7
 72
     0
 73
     1
 93
        4
 10
13743.97398486
 20
713.11404568
 10
13769.79851595
 20
713.11404568
 10
13769.79851595
 20
722.54670574
 10
13743.97398486
 20
722.54670574
 97
        0
 75
     0
 76
     2
 52
0.0
 41
1.87498831
 77
     0
 78
     2
 53
45.0
 43
0.0
 44
0.0
 45
4.20946876
 46
-4.20946876
 79
     0
 53
-45.0
 43
0.0
 44
0.0
 45
4.20946876
 46
4.20946876
 79
     0
 47
0.775229
 98
        1
 10
0.0
 20
0.0
  0
HATCH
  5
221
100
AcDbEntity
  8
Ech.1_5
 62
     7
100
AcDbHatch
 10
0.0
 20
0.0
 30
0.0
210
0.0
220
0.0
230
1.0
  2
ANSI37
 70
     0
 71
     0
 91
        1
 92
        7
 72
     0
 73
     1
 93
        4
 10
13809.73731557
 20
713.11404568
 10
13835.56184665
 20
713.11404568
 10
13835.56184665
 20
722.54670574
 10
13809.73731557
 20
722.54670574
 97
        0
 75
     0
 76
     2
 52
0.0
 41
1.87498831
 77
     0
 78
     2
 53
45.0
 43
0.0
 44
0.0
 45
4.20946876
 46
-4.20946876
 79
     0
 53
-45.0
 43
0.0
 44
0.0
 45
4.20946876
 46
4.20946876
 79
     0
 47
0.775229
 98
        1
 10
0.0
 20
0.0
  0
LINE
  5
222
100
AcDbEntity
  8
Ech.1_5
 62
   150
  6
CADWORK_22
370
    35
100
AcDbLine
 10
13698.71434363
 20
1241.30576155
 30
2500.0
 11
13698.71434363
 21
722.54621004
 31
2500.0
  0
LWPOLYLINE
  5
223
100
AcDbEntity
  8
Ech.1_5
 62
     7
  6
CONTINUOUS
370
    -3
100
AcDbPolyline
 90
        5
 70
     0
 43
0.0
 10
13889.21433273
 20
843.28582093
 10
13929.21433273
 20
843.28582093
 10
13929.21433273
 20
888.28582093
 10
13889.21433273
 20
888.28582093
 10
13889.21433273
 20
843.28582093
  0
LWPOLYLINE
  5
224
100
AcDbEntity
  8
Ech.1_5
 62
     7
  6
CONTINUOUS
370
    -3
100
AcDbPolyline
 90
        4
 70
     0
 43
0.0
 10
13889.21433273
 20
888.28582093
 10
13929.21433273
 20
843.28582093
 10
13929.21433273
 20
888.28582093
 10
13889.21433273
 20
843.28582093
  0
LWPOLYLINE
  5
225
100
AcDbEntity
  8
Ech.1_5
 62
     1
  6
CADWORK_22
370
    35
100
AcDbPolyline
 90
        6
 70
     0
 43
0.0
 10
13890.71433273
 20
1241.30613783
 10
13890.71433273
 20
724.04811506
 10
13928.10698887
 20
724.04811506
 10
13936.3147512
 20
732.14830825
 10
13942.89410861
 20
724.04829414
 10
13969.55326049
 20
724.04829414
  0
LWPOLYLINE
  5
226
100
AcDbEntity
  8
Ech.1_5
 62
     7
  6
CONTINUOUS
370
    -3
100
AcDbPolyline
 90
       28
 70
     0
 43
0.0
 10
13739.21433273
 20
1241.30576155
 42
1.14028181
 10
13746.97892156
 20
1182.32799144
 10
13851.44974389
 20
1210.28353165
 42
-1.30322619
 10
13851.44974389
 20
1152.32799144
 10
13746.97892156
 20
1180.28353165
 42
1.30322619
 10
13746.97892156
 20
1122.32799144
 10
13851.44974389
 20
1150.28353165
 42
-1.30322619
 10
13851.44974389
 20
1092.32799144
 10
13746.97892156
 20
1120.28353165
 42
1.30322619
 10
13746.97892156
 20
1062.32799144
 10
13851.44974389
 20
1090.28353165
 42
-1.30322619
 10
13851.44974389
 20
1032.32799144
 10
13746.97892156
 20
1060.28353165
 42
1.30322619
 10
13746.97892156
 20
1002.32799144
 10
13851.44974389
 20
1030.28353165
 42
-1.30322619
 10
13851.44974389
 20
972.32799144
 10
13746.97892156
 20
1000.28353165
 42
1.30322619
 10
13746.97892156
 20
942.32799144
 10
13851.44974389
 20
970.28353165
 42
-1.30322619
 10
13851.44974389
 20
912.32799144
 10
13746.97892156
 20
940.28353165
 42
1.30322619
 10
13746.97892156
 20
882.32799144
 10
13851.44974389
 20
910.28353165
 42
-1.30322619
 10
13851.44974389
 20
852.32799144
 10
13746.97892156
 20
880.28353165
 42
1.30322619
 10
13746.97892156
 20
822.32799144
 10
13851.44974389
 20
850.28353165
 42
-0.58890908
 10
13887.90701921
 20
812.54621004
  0
LWPOLYLINE
  5
227
100
AcDbEntity
  8
Ech.1_5
 62
     7
  6
CONTINUOUS
370
    -3
100
AcDbPolyline
 90
        6
 70
     0
 43
0.0
 10
13622.46641215
 20
1241.30576155
 10
13765.8951491
 20
1241.30576155
 10
13782.38065226
 20
1259.28310995
 10
13768.27071224
 20
1223.32740994
 10
13784.75706632
 20
1241.30576155
 10
13965.24453067
 20
1241.30639013
  0
LINE
  5
228
100
AcDbEntity
  8
Ech.1_5
 62
     7
  6
CONTINUOUS
370
    -3
100
AcDbLine
 10
13633.57386828
 20
692.55383011
 30
0.0
 11
13633.57386828
 21
478.048393
 31
0.0
  0
LINE
  5
229
100
AcDbEntity
  8
Ech.1_5
 62
     7
  6
CONTINUOUS
370
    -3
100
AcDbLine
 10
13653.27517664
 20
692.55383011
 30
0.0
 11
13633.45636828
 21
692.55383011
 31
0.0
  0
LINE
  5
22A
100
AcDbEntity
  8
Ech.1_5
 62
     7
  6
CONTINUOUS
370
    -3
100
AcDbLine
 10
13700.30303737
 20
722.55383011
 30
0.0
 11
13633.45636828
 21
722.55383011
 31
0.0
  0
LINE
  5
22B
100
AcDbEntity
  8
Ech.1_5
 62
     7
  6
CONTINUOUS
370
    -3
100
AcDbLine
 10
13633.63636828
 20
692.55383011
 30
0.0
 11
13633.63636828
 21
722.55383011
 31
0.0
  0
LINE
  5
22C
100
AcDbEntity
  8
Ech.1_5
 62
     7
  6
CONTINUOUS
370
    -3
100
AcDbLine
 10
13630.07386824
 20
481.54839296
 30
0.0
 11
13637.07386832
 21
474.54839305
 31
0.0
  0
LINE
  5
22D
100
AcDbEntity
  8
Ech.1_5
 62
     7
  6
CONTINUOUS
370
    -3
100
AcDbLine
 10
13630.07386824
 20
696.05383007
 30
0.0
 11
13637.07386832
 21
689.05383015
 31
0.0
  0
LINE
  5
22E
100
AcDbEntity
  8
Ech.1_5
 62
     7
  6
CONTINUOUS
370
    -3
100
AcDbLine
 10
13637.13636843
 20
719.05383026
 30
0.0
 11
13630.13636813
 21
726.05382996
 31
0.0
  0
LWPOLYLINE
  5
22F
102
{ACAD_REACTORS
330
230
102
}
100
AcDbEntity
  8
Ech.1_5
 62
     7
  6
CONTINUOUS
370
    -3
100
AcDbPolyline
 90
        5
 70
     1
 43
0.0
 38
2500.0
 39
-2500.0
 10
15270.54837839
 20
872.55351261
 10
15269.04837839
 20
872.55351261
 10
15269.04837839
 20
851.82496093
 10
15270.36557437
 20
851.98669226
 10
15270.54837839
 20
850.49787303
  0
HATCH
  5
230
100
AcDbEntity
  8
Ech.1_5
 62
     7
  6
CONTINUOUS
100
AcDbHatch
 10
0.0
 20
0.0
 30
0.0
210
0.0
220
0.0
230
1.0
  2
AR-CONC
 70
     0
 71
     1
 91
        1
 92
        7
 72
     0
 73
     1
 93
        5
 10
15270.54837839
 20
872.55351261
 10
15269.04837839
 20
872.55351261
 10
15269.04837839
 20
851.82496093
 10
15270.36557437
 20
851.98669226
 10
15270.54837839
 20
850.49787303
 97
        1
330
22F
 75
     0
 76
     2
 52
0.0
 41
0.06299252
 77
     0
 78
    13
 53
50.0
 43
0.0
 44
0.0
 45
-10.04951288
 46
0.87921838
 79
     2
 49
1.05082299
 49
-11.55905264
 53
355.0
 43
0.0
 44
0.0
 45
-1.94404139
 46
10.53894322
 79
     2
 49
0.84065802
 49
-9.24724211
 53
100.45140076
 43
0.83745904
 44
-0.073268
 45
-8.10547867
 46
-9.65971878
 79
     2
 49
0.89306201
 49
-9.82368293
 53
46.18420029
 43
0.0
 44
2.80219511
 45
-14.95308477
 46
2.31908205
 79
     2
 49
1.57623401
 49
-17.33857753
 53
96.63559723
 43
1.24609007
 44
2.60893706
 45
-13.09553414
 46
-13.64833836
 79
     2
 49
1.33959307
 49
-14.73552249
 53
351.1842041
 43
0.0
 44
2.80219511
 45
13.09552173
 46
13.64835069
 79
     2
 49
1.26098802
 49
-13.87086317
 53
21.0
 43
1.40109708
 44
2.10164598
 45
-8.36324849
 46
5.64108224
 79
     2
 49
1.05082299
 49
-11.55905264
 53
326.0
 43
1.40109708
 44
2.10164598
 45
3.40908414
 46
10.1600574
 79
     2
 49
0.84065802
 49
-9.24724211
 53
71.45140076
 43
2.09803394
 44
1.63155499
 45
-11.77233597
 46
-4.51896637
 79
     2
 49
0.89306201
 49
-9.82368293
 53
37.5
 43
0.0
 44
0.0
 45
0.17037085
 46
4.66416671
 79
     6
 49
0.01
 49
-9.13515391
 49
0.01
 49
-9.38735213
 49
0.01
 49
-9.28226866
 53
7.5
 43
0.0
 44
0.0
 45
3.68586042
 46
5.52609192
 79
     6
 49
0.01
 49
-5.35219105
 49
0.01
 49
-8.92498888
 49
0.01
 49
-3.53777104
 53
-32.5
 43
-3.12444715
 44
0.0
 45
7.4793711
 46
-0.31601602
 79
     6
 49
0.01
 49
-3.50274306
 49
0.01
 49
-10.92855947
 49
0.01
 49
-14.50135729
 53
-42.5
 43
-4.52554423
 44
0.0
 45
8.17100583
 46
1.40256824
 79
     6
 49
0.01
 49
-4.55356605
 49
0.01
 49
-7.25768434
 49
0.01
 49
-10.29806534
 47
0.775229
 98
        1
 10
0.0
 20
0.0
  0
3DFACE
  5
231
102
{ACAD_REACTORS
330
232
102
}
100
AcDbEntity
  8
Ech.1_5
 62
     7
  6
CONTINUOUS
370
    -3
100
AcDbFace
 70
     0
 10
15270.36557437
 20
851.98669226
 30
2500.0
 11
15269.04837839
 21
851.82496093
 31
2500.0
 12
15269.04837839
 22
850.49787303
 32
2500.0
 13
15270.54837839
 23
850.49787303
 33
2500.0
  0
HATCH
  5
232
100
AcDbEntity
  8
Ech.1_5
 62
     7
  6
CONTINUOUS
100
AcDbHatch
 10
0.0
 20
0.0
 30
0.0
210
0.0
220
0.0
230
1.0
  2
AR-CONC
 70
     0
 71
     1
 91
        1
 92
        7
 72
     0
 73
     1
 93
        4
 10
15270.36557437
 20
851.98669226
 10
15269.04837839
 20
851.82496093
 10
15269.04837839
 20
850.49787303
 10
15270.54837839
 20
850.49787303
 97
        1
330
231
 75
     0
 76
     2
 52
0.0
 41
0.06299252
 77
     0
 78
    13
 53
50.0
 43
0.0
 44
0.0
 45
-10.04951288
 46
0.87921838
 79
     2
 49
1.05082299
 49
-11.55905264
 53
355.0
 43
0.0
 44
0.0
 45
-1.94404139
 46
10.53894322
 79
     2
 49
0.84065802
 49
-9.24724211
 53
100.45140076
 43
0.83745904
 44
-0.073268
 45
-8.10547867
 46
-9.65971878
 79
     2
 49
0.89306201
 49
-9.82368293
 53
46.18420029
 43
0.0
 44
2.80219511
 45
-14.95308477
 46
2.31908205
 79
     2
 49
1.57623401
 49
-17.33857753
 53
96.63559723
 43
1.24609007
 44
2.60893706
 45
-13.09553414
 46
-13.64833836
 79
     2
 49
1.33959307
 49
-14.73552249
 53
351.1842041
 43
0.0
 44
2.80219511
 45
13.09552173
 46
13.64835069
 79
     2
 49
1.26098802
 49
-13.87086317
 53
21.0
 43
1.40109708
 44
2.10164598
 45
-8.36324849
 46
5.64108224
 79
     2
 49
1.05082299
 49
-11.55905264
 53
326.0
 43
1.40109708
 44
2.10164598
 45
3.40908414
 46
10.1600574
 79
     2
 49
0.84065802
 49
-9.24724211
 53
71.45140076
 43
2.09803394
 44
1.63155499
 45
-11.77233597
 46
-4.51896637
 79
     2
 49
0.89306201
 49
-9.82368293
 53
37.5
 43
0.0
 44
0.0
 45
0.17037085
 46
4.66416671
 79
     6
 49
0.01
 49
-9.13515391
 49
0.01
 49
-9.38735213
 49
0.01
 49
-9.28226866
 53
7.5
 43
0.0
 44
0.0
 45
3.68586042
 46
5.52609192
 79
     6
 49
0.01
 49
-5.35219105
 49
0.01
 49
-8.92498888
 49
0.01
 49
-3.53777104
 53
-32.5
 43
-3.12444715
 44
0.0
 45
7.4793711
 46
-0.31601602
 79
     6
 49
0.01
 49
-3.50274306
 49
0.01
 49
-10.92855947
 49
0.01
 49
-14.50135729
 53
-42.5
 43
-4.52554423
 44
0.0
 45
8.17100583
 46
1.40256824
 79
     6
 49
0.01
 49
-4.55356605
 49
0.01
 49
-7.25768434
 49
0.01
 49
-10.29806534
 47
0.775229
 98
        1
 10
0.0
 20
0.0
  0
LWPOLYLINE
  5
233
102
{ACAD_REACTORS
330
234
102
}
100
AcDbEntity
  8
Ech.1_5
 62
     7
  6
CONTINUOUS
370
    -3
100
AcDbPolyline
 90
        7
 70
     1
 43
0.0
 38
2500.0
 39
-2500.0
 10
15270.54837839
 20
850.49787303
 10
15269.04837839
 20
850.49787303
 10
15269.04837839
 20
851.82496093
 10
15149.03778439
 20
837.08951284
 10
15003.91143603
 20
819.28945711
 10
15004.09424004
 20
817.80063788
 10
15149.03778439
 20
835.5782481
  0
HATCH
  5
234
100
AcDbEntity
  8
Ech.1_5
 62
     7
  6
CONTINUOUS
100
AcDbHatch
 10
0.0
 20
0.0
 30
0.0
210
0.0
220
0.0
230
1.0
  2
AR-CONC
 70
     0
 71
     1
 91
        1
 92
        7
 72
     0
 73
     1
 93
        7
 10
15270.54837839
 20
850.49787303
 10
15269.04837839
 20
850.49787303
 10
15269.04837839
 20
851.82496093
 10
15149.03778439
 20
837.08951284
 10
15003.91143603
 20
819.28945711
 10
15004.09424004
 20
817.80063788
 10
15149.03778439
 20
835.5782481
 97
        1
330
233
 75
     0
 76
     2
 52
0.0
 41
0.06299252
 77
     0
 78
    13
 53
50.0
 43
0.0
 44
0.0
 45
-10.04951288
 46
0.87921838
 79
     2
 49
1.05082299
 49
-11.55905264
 53
355.0
 43
0.0
 44
0.0
 45
-1.94404139
 46
10.53894322
 79
     2
 49
0.84065802
 49
-9.24724211
 53
100.45140076
 43
0.83745904
 44
-0.073268
 45
-8.10547867
 46
-9.65971878
 79
     2
 49
0.89306201
 49
-9.82368293
 53
46.18420029
 43
0.0
 44
2.80219511
 45
-14.95308477
 46
2.31908205
 79
     2
 49
1.57623401
 49
-17.33857753
 53
96.63559723
 43
1.24609007
 44
2.60893706
 45
-13.09553414
 46
-13.64833836
 79
     2
 49
1.33959307
 49
-14.73552249
 53
351.1842041
 43
0.0
 44
2.80219511
 45
13.09552173
 46
13.64835069
 79
     2
 49
1.26098802
 49
-13.87086317
 53
21.0
 43
1.40109708
 44
2.10164598
 45
-8.36324849
 46
5.64108224
 79
     2
 49
1.05082299
 49
-11.55905264
 53
326.0
 43
1.40109708
 44
2.10164598
 45
3.40908414
 46
10.1600574
 79
     2
 49
0.84065802
 49
-9.24724211
 53
71.45140076
 43
2.09803394
 44
1.63155499
 45
-11.77233597
 46
-4.51896637
 79
     2
 49
0.89306201
 49
-9.82368293
 53
37.5
 43
0.0
 44
0.0
 45
0.17037085
 46
4.66416671
 79
     6
 49
0.01
 49
-9.13515391
 49
0.01
 49
-9.38735213
 49
0.01
 49
-9.28226866
 53
7.5
 43
0.0
 44
0.0
 45
3.68586042
 46
5.52609192
 79
     6
 49
0.01
 49
-5.35219105
 49
0.01
 49
-8.92498888
 49
0.01
 49
-3.53777104
 53
-32.5
 43
-3.12444715
 44
0.0
 45
7.4793711
 46
-0.31601602
 79
     6
 49
0.01
 49
-3.50274306
 49
0.01
 49
-10.92855947
 49
0.01
 49
-14.50135729
 53
-42.5
 43
-4.52554423
 44
0.0
 45
8.17100583
 46
1.40256824
 79
     6
 49
0.01
 49
-4.55356605
 49
0.01
 49
-7.25768434
 49
0.01
 49
-10.29806534
 47
0.775229
 98
        1
 10
0.0
 20
0.0
  0
3DFACE
  5
235
102
{ACAD_REACTORS
330
236
102
}
100
AcDbEntity
  8
Ech.1_5
 62
     7
  6
CONTINUOUS
370
    -3
100
AcDbFace
 70
     0
 10
15003.91143603
 20
819.28945711
 30
2500.0
 11
15002.41143603
 21
819.28945711
 31
2500.0
 12
15002.41143603
 22
759.28945711
 32
2500.0
 13
15003.91143603
 23
759.28945711
 33
2500.0
  0
HATCH
  5
236
100
AcDbEntity
  8
Ech.1_5
 62
     7
  6
CONTINUOUS
100
AcDbHatch
 10
0.0
 20
0.0
 30
0.0
210
0.0
220
0.0
230
1.0
  2
AR-CONC
 70
     0
 71
     1
 91
        1
 92
        7
 72
     0
 73
     1
 93
        4
 10
15003.91143603
 20
819.28945711
 10
15002.41143603
 20
819.28945711
 10
15002.41143603
 20
759.28945711
 10
15003.91143603
 20
759.28945711
 97
        1
330
235
 75
     0
 76
     2
 52
0.0
 41
0.06299252
 77
     0
 78
    13
 53
50.0
 43
0.0
 44
0.0
 45
-10.04951288
 46
0.87921838
 79
     2
 49
1.05082299
 49
-11.55905264
 53
355.0
 43
0.0
 44
0.0
 45
-1.94404139
 46
10.53894322
 79
     2
 49
0.84065802
 49
-9.24724211
 53
100.45140076
 43
0.83745904
 44
-0.073268
 45
-8.10547867
 46
-9.65971878
 79
     2
 49
0.89306201
 49
-9.82368293
 53
46.18420029
 43
0.0
 44
2.80219511
 45
-14.95308477
 46
2.31908205
 79
     2
 49
1.57623401
 49
-17.33857753
 53
96.63559723
 43
1.24609007
 44
2.60893706
 45
-13.09553414
 46
-13.64833836
 79
     2
 49
1.33959307
 49
-14.73552249
 53
351.1842041
 43
0.0
 44
2.80219511
 45
13.09552173
 46
13.64835069
 79
     2
 49
1.26098802
 49
-13.87086317
 53
21.0
 43
1.40109708
 44
2.10164598
 45
-8.36324849
 46
5.64108224
 79
     2
 49
1.05082299
 49
-11.55905264
 53
326.0
 43
1.40109708
 44
2.10164598
 45
3.40908414
 46
10.1600574
 79
     2
 49
0.84065802
 49
-9.24724211
 53
71.45140076
 43
2.09803394
 44
1.63155499
 45
-11.77233597
 46
-4.51896637
 79
     2
 49
0.89306201
 49
-9.82368293
 53
37.5
 43
0.0
 44
0.0
 45
0.17037085
 46
4.66416671
 79
     6
 49
0.01
 49
-9.13515391
 49
0.01
 49
-9.38735213
 49
0.01
 49
-9.28226866
 53
7.5
 43
0.0
 44
0.0
 45
3.68586042
 46
5.52609192
 79
     6
 49
0.01
 49
-5.35219105
 49
0.01
 49
-8.92498888
 49
0.01
 49
-3.53777104
 53
-32.5
 43
-3.12444715
 44
0.0
 45
7.4793711
 46
-0.31601602
 79
     6
 49
0.01
 49
-3.50274306
 49
0.01
 49
-10.92855947
 49
0.01
 49
-14.50135729
 53
-42.5
 43
-4.52554423
 44
0.0
 45
8.17100583
 46
1.40256824
 79
     6
 49
0.01
 49
-4.55356605
 49
0.01
 49
-7.25768434
 49
0.01
 49
-10.29806534
 47
0.775229
 98
        1
 10
0.0
 20
0.0
  0
LWPOLYLINE
  5
237
100
AcDbEntity
  8
Ech.1_5
 62
     7
  6
CONTINUOUS
370
    -3
100
AcDbPolyline
 90
        4
 70
     0
 43
0.0
 10
15347.54261397
 20
882.58461948
 10
15293.95487048
 20
872.57797149
 10
15293.95487048
 20
882.58373591
 10
15347.54261397
 20
872.57885507
  0
LWPOLYLINE
  5
238
102
{ACAD_REACTORS
330
239
102
}
100
AcDbEntity
  8
Ech.1_5
 62
     7
  6
CONTINUOUS
370
     5
100
AcDbPolyline
 90
        4
 70
     1
 43
0.0
 10
15280.57735001
 20
882.55927702
 10
15273.78835882
 20
882.55927702
 10
15273.78835882
 20
872.55351261
 10
15280.57735001
 20
872.55351261
  0
HATCH
  5
239
100
AcDbEntity
  8
Ech.1_5
 62
     2
  6
CONTINUOUS
100
AcDbHatch
 10
0.0
 20
0.0
 30
0.0
210
0.0
220
0.0
230
1.0
  2
SOLID
 70
     1
 71
     1
 91
        1
 92
        7
 72
     0
 73
     1
 93
        4
 10
15280.57735001
 20
882.55927702
 10
15273.78835882
 20
882.55927702
 10
15273.78835882
 20
872.55351261
 10
15280.57735001
 20
872.55351261
 97
        1
330
238
 75
     0
 76
     2
 47
0.775229
 98
        1
 10
0.0
 20
0.0
  0
HATCH
  5
23A
100
AcDbEntity
  8
Ech.1_5
 62
     7
  6
CONTINUOUS
100
AcDbHatch
 10
0.0
 20
0.0
 30
0.0
210
0.0
220
0.0
230
1.0
  2
ANSI31
 70
     0
 71
     1
 91
        1
 92
        7
 72
     0
 73
     1
 93
        4
 10
15280.57735001
 20
882.55927702
 10
15273.78835882
 20
882.55927702
 10
15273.78835882
 20
872.55351261
 10
15280.57735001
 20
872.55351261
 97
        1
330
239
 75
     0
 76
     2
 52
0.0
 41
0.94488785
 77
     0
 78
     1
 53
45.0
 43
0.0
 44
0.0
 45
2.12132043
 46
-2.12132043
 79
     0
 47
0.775229
 98
        1
 10
0.0
 20
0.0
  0
LINE
  5
23B
100
AcDbEntity
  8
Ech.1_5
 62
     7
  6
CONTINUOUS
370
    -3
100
AcDbLine
 10
15273.78835882
 20
846.305036
 30
0.0
 11
15273.78835882
 21
788.67990751
 31
0.0
  0
LWPOLYLINE
  5
23C
100
AcDbEntity
  8
Ech.1_5
 62
     7
  6
CONTINUOUS
370
    -3
100
AcDbPolyline
 90
        4
 70
     0
 43
0.0
 10
15209.16444928
 20
788.68079108
 10
15150.47785542
 20
779.24724744
 10
15150.47785542
 20
788.67990751
 10
15209.16444928
 20
779.24813102
  0
LWPOLYLINE
  5
23D
100
AcDbEntity
  8
Ech.1_5
 62
     7
  6
CONTINUOUS
370
    -3
100
AcDbPolyline
 90
        8
 70
     0
 43
0.0
 10
15273.78835882
 20
872.55351261
 10
15273.78835882
 20
846.305036
 10
15008.07801007
 20
813.67990751
 10
15008.07801007
 20
788.67990751
 10
15273.78835882
 20
788.67990751
 10
15347.54215497
 20
788.68079108
 10
15347.54215497
 20
872.55351261
 10
15273.78835882
 20
872.55351261
  0
HATCH
  5
23E
100
AcDbEntity
  8
Ech.1_5
 62
     7
100
AcDbHatch
 10
0.0
 20
0.0
 30
0.0
210
0.0
220
0.0
230
1.0
  2
ANSI37
 70
     0
 71
     0
 91
        1
 92
        7
 72
     0
 73
     1
 93
        4
 10
15124.65332434
 20
779.24724744
 10
15150.47785542
 20
779.24724744
 10
15150.47785542
 20
788.67990751
 10
15124.65332434
 20
788.67990751
 97
        0
 75
     0
 76
     2
 52
0.0
 41
1.87498831
 77
     0
 78
     2
 53
45.0
 43
0.0
 44
0.0
 45
4.20946876
 46
-4.20946876
 79
     0
 53
-45.0
 43
0.0
 44
0.0
 45
4.20946876
 46
4.20946876
 79
     0
 47
0.775229
 98
        1
 10
0.0
 20
0.0
  0
LWPOLYLINE
  5
23F
102
{ACAD_REACTORS
330
240
102
}
100
AcDbEntity
  8
Ech.1_5
 62
     7
  6
CONTINUOUS
370
    -3
100
AcDbPolyline
 90
        9
 70
     1
 43
0.0
 38
2500.0
 39
-2500.0
 10
15115.71674313
 20
657.54621004
 10
15090.71674313
 20
657.54620925
 10
15085.71674313
 20
478.04838845
 10
14990.71674313
 20
478.04839699
 10
14895.71674313
 20
478.04838845
 10
14890.71674313
 20
657.54620925
 10
14865.71674313
 20
657.54621004
 10
14860.71674313
 20
443.04838531
 10
15120.71674313
 20
443.04838531
  0
HATCH
  5
240
100
AcDbEntity
  8
Ech.1_5
 62
     7
  6
CONTINUOUS
100
AcDbHatch
 10
0.0
 20
0.0
 30
0.0
210
0.0
220
0.0
230
1.0
  2
AR-CONC
 70
     0
 71
     1
 91
        1
 92
        7
 72
     0
 73
     1
 93
        9
 10
15115.71674313
 20
657.54621004
 10
15090.71674313
 20
657.54620925
 10
15085.71674313
 20
478.04838845
 10
14990.71674313
 20
478.04839699
 10
14895.71674313
 20
478.04838845
 10
14890.71674313
 20
657.54620925
 10
14865.71674313
 20
657.54621004
 10
14860.71674313
 20
443.04838531
 10
15120.71674313
 20
443.04838531
 97
        1
330
23F
 75
     0
 76
     2
 52
0.0
 41
0.11811097
 77
     0
 78
    13
 53
50.0
 43
0.0
 44
0.0
 45
-18.84283637
 46
1.64853443
 79
     2
 49
1.97029307
 49
-21.67322338
 53
355.0
 43
0.0
 44
0.0
 45
-3.64507756
 46
19.76051824
 79
     2
 49
1.57623377
 49
-17.3385787
 53
100.45140076
 43
1.57023568
 44
-0.13737749
 45
-15.19777228
 46
-18.11197244
 79
     2
 49
1.67449124
 49
-18.41940522
 53
46.18420029
 43
0.0
 44
5.25411576
 45
-28.03703353
 46
4.34827878
 79
     2
 49
2.95543872
 49
-32.50983238
 53
96.63559723
 43
2.33641885
 44
4.89175692
 45
-24.55412615
 46
-25.59063404
 79
     2
 49
2.51173697
 49
-27.62910426
 53
351.1842041
 43
0.0
 44
5.25411576
 45
24.55410288
 46
25.59065715
 79
     2
 49
2.36435249
 49
-26.00786805
 53
21.0
 43
2.62705699
 44
3.94058615
 45
-15.68109068
 46
10.57702905
 79
     2
 49
1.97029307
 49
-21.67322338
 53
326.0
 43
2.62705699
 44
3.94058615
 45
6.39203268
 46
19.05010734
 79
     2
 49
1.57623377
 49
-17.3385787
 53
71.45140076
 43
3.93381357
 44
3.05916555
 45
-22.07312962
 46
-8.47306182
 79
     2
 49
1.67449124
 49
-18.41940522
 53
37.5
 43
0.0
 44
0.0
 45
0.31944534
 46
8.74531245
 79
     6
 49
0.01875
 49
-17.12841332
 49
0.01875
 49
-17.60128498
 49
0.01875
 49
-17.40425348
 53
7.5
 43
0.0
 44
0.0
 45
6.91098818
 46
10.3614222
 79
     6
 49
0.01875
 49
-10.03535807
 49
0.01875
 49
-16.7343539
 49
0.01875
 49
-6.6333206
 53
-32.5
 43
-5.85833833
 44
0.0
 45
14.02382061
 46
-0.59253003
 79
     6
 49
0.01875
 49
-6.56764314
 49
0.01875
 49
-20.49104869
 49
0.01875
 49
-27.19004452
 53
-42.5
 43
-8.48539531
 44
0.0
 45
15.32063571
 46
2.62981542
 79
     6
 49
0.01875
 49
-8.53793621
 49
0.01875
 49
-13.60815793
 49
0.01875
 49
-19.30887222
 47
0.775229
 98
        1
 10
0.0
 20
0.0
  0
LWPOLYLINE
  5
241
102
{ACAD_REACTORS
330
242
102
}
100
AcDbEntity
  8
Ech.1_5
 62
     7
  6
CONTINUOUS
370
    -3
100
AcDbPolyline
 90
        5
 70
     1
 43
0.0
 38
2500.0
 39
-2500.0
 10
15527.02727903
 20
722.55383011
 10
15120.71686301
 20
722.55383011
 10
15120.71679014
 20
592.5538301
 10
15320.71692637
 20
592.5538301
 10
15527.02727903
 20
592.5538301
  0
HATCH
  5
242
100
AcDbEntity
  8
Ech.1_5
 62
     7
  6
CONTINUOUS
100
AcDbHatch
 10
0.0
 20
0.0
 30
0.0
210
0.0
220
0.0
230
1.0
  2
AR-CONC
 70
     0
 71
     1
 91
        1
 92
        7
 72
     0
 73
     1
 93
        5
 10
15527.02727903
 20
722.55383011
 10
15120.71686301
 20
722.55383011
 10
15120.71679014
 20
592.5538301
 10
15320.71692637
 20
592.5538301
 10
15527.02727903
 20
592.5538301
 97
        1
330
241
 75
     0
 76
     2
 52
0.0
 41
0.11811097
 77
     0
 78
    13
 53
50.0
 43
0.0
 44
0.0
 45
-18.84283637
 46
1.64853443
 79
     2
 49
1.97029307
 49
-21.67322338
 53
355.0
 43
0.0
 44
0.0
 45
-3.64507756
 46
19.76051824
 79
     2
 49
1.57623377
 49
-17.3385787
 53
100.45140076
 43
1.57023568
 44
-0.13737749
 45
-15.19777228
 46
-18.11197244
 79
     2
 49
1.67449124
 49
-18.41940522
 53
46.18420029
 43
0.0
 44
5.25411576
 45
-28.03703353
 46
4.34827878
 79
     2
 49
2.95543872
 49
-32.50983238
 53
96.63559723
 43
2.33641885
 44
4.89175692
 45
-24.55412615
 46
-25.59063404
 79
     2
 49
2.51173697
 49
-27.62910426
 53
351.1842041
 43
0.0
 44
5.25411576
 45
24.55410288
 46
25.59065715
 79
     2
 49
2.36435249
 49
-26.00786805
 53
21.0
 43
2.62705699
 44
3.94058615
 45
-15.68109068
 46
10.57702905
 79
     2
 49
1.97029307
 49
-21.67322338
 53
326.0
 43
2.62705699
 44
3.94058615
 45
6.39203268
 46
19.05010734
 79
     2
 49
1.57623377
 49
-17.3385787
 53
71.45140076
 43
3.93381357
 44
3.05916555
 45
-22.07312962
 46
-8.47306182
 79
     2
 49
1.67449124
 49
-18.41940522
 53
37.5
 43
0.0
 44
0.0
 45
0.31944534
 46
8.74531245
 79
     6
 49
0.01875
 49
-17.12841332
 49
0.01875
 49
-17.60128498
 49
0.01875
 49
-17.40425348
 53
7.5
 43
0.0
 44
0.0
 45
6.91098818
 46
10.3614222
 79
     6
 49
0.01875
 49
-10.03535807
 49
0.01875
 49
-16.7343539
 49
0.01875
 49
-6.6333206
 53
-32.5
 43
-5.85833833
 44
0.0
 45
14.02382061
 46
-0.59253003
 79
     6
 49
0.01875
 49
-6.56764314
 49
0.01875
 49
-20.49104869
 49
0.01875
 49
-27.19004452
 53
-42.5
 43
-8.48539531
 44
0.0
 45
15.32063571
 46
2.62981542
 79
     6
 49
0.01875
 49
-8.53793621
 49
0.01875
 49
-13.60815793
 49
0.01875
 49
-19.30887222
 47
0.775229
 98
        1
 10
0.0
 20
0.0
  0
LINE
  5
243
100
AcDbEntity
  8
Ech.1_5
 62
     7
  6
CONTINUOUS
370
    -3
100
AcDbLine
 10
15150.47785542
 20
779.24724744
 30
2500.0
 11
15347.53701843
 21
779.24724744
 31
2500.0
  0
3DFACE
  5
244
102
{ACAD_REACTORS
330
245
102
}
100
AcDbEntity
  8
Ech.1_5
 62
     7
  6
CONTINUOUS
370
    -3
100
AcDbFace
 70
     0
 10
15527.02727903
 20
822.55351261
 30
2500.0
 11
15527.02727903
 21
872.5535126
 31
2500.0
 12
15349.98156309
 22
872.5535126
 32
2500.0
 13
15349.98156309
 23
822.55351261
 33
2500.0
  0
HATCH
  5
245
100
AcDbEntity
  8
Ech.1_5
 62
     7
  6
CONTINUOUS
100
AcDbHatch
 10
0.0
 20
0.0
 30
0.0
210
0.0
220
0.0
230
1.0
  2
AR-CONC
 70
     0
 71
     1
 91
        1
 92
        7
 72
     0
 73
     1
 93
        4
 10
15527.02727903
 20
822.55351261
 10
15527.02727903
 20
872.5535126
 10
15349.98156309
 20
872.5535126
 10
15349.98156309
 20
822.55351261
 97
        1
330
244
 75
     0
 76
     2
 52
45.0
 41
0.06299252
 77
     0
 78
    13
 53
50.0
 43
0.0
 44
0.0
 45
-10.04951288
 46
0.87921838
 79
     2
 49
1.05082299
 49
-11.55905264
 53
355.0
 43
0.0
 44
0.0
 45
-1.94404139
 46
10.53894322
 79
     2
 49
0.84065802
 49
-9.24724211
 53
100.45140076
 43
0.83745904
 44
-0.073268
 45
-8.10547867
 46
-9.65971878
 79
     2
 49
0.89306201
 49
-9.82368293
 53
46.18420029
 43
0.0
 44
2.80219511
 45
-14.95308477
 46
2.31908205
 79
     2
 49
1.57623401
 49
-17.33857753
 53
96.63559723
 43
1.24609007
 44
2.60893706
 45
-13.09553414
 46
-13.64833836
 79
     2
 49
1.33959307
 49
-14.73552249
 53
351.1842041
 43
0.0
 44
2.80219511
 45
13.09552173
 46
13.64835069
 79
     2
 49
1.26098802
 49
-13.87086317
 53
21.0
 43
1.40109708
 44
2.10164598
 45
-8.36324849
 46
5.64108224
 79
     2
 49
1.05082299
 49
-11.55905264
 53
326.0
 43
1.40109708
 44
2.10164598
 45
3.40908414
 46
10.1600574
 79
     2
 49
0.84065802
 49
-9.24724211
 53
71.45140076
 43
2.09803394
 44
1.63155499
 45
-11.77233597
 46
-4.51896637
 79
     2
 49
0.89306201
 49
-9.82368293
 53
37.5
 43
0.0
 44
0.0
 45
0.17037085
 46
4.66416671
 79
     6
 49
0.01
 49
-9.13515391
 49
0.01
 49
-9.38735213
 49
0.01
 49
-9.28226866
 53
7.5
 43
0.0
 44
0.0
 45
3.68586042
 46
5.52609192
 79
     6
 49
0.01
 49
-5.35219105
 49
0.01
 49
-8.92498888
 49
0.01
 49
-3.53777104
 53
-32.5
 43
-3.12444715
 44
0.0
 45
7.4793711
 46
-0.31601602
 79
     6
 49
0.01
 49
-3.50274306
 49
0.01
 49
-10.92855947
 49
0.01
 49
-14.50135729
 53
-42.5
 43
-4.52554423
 44
0.0
 45
8.17100583
 46
1.40256824
 79
     6
 49
0.01
 49
-4.55356605
 49
0.01
 49
-7.25768434
 49
0.01
 49
-10.29806534
 47
0.775229
 98
        1
 10
0.0
 20
0.0
  0
LWPOLYLINE
  5
246
102
{ACAD_REACTORS
330
247
102
}
100
AcDbEntity
  8
Ech.1_5
 62
     7
  6
CONTINUOUS
370
    -3
100
AcDbPolyline
 90
        4
 70
     1
 43
0.0
 10
15356.58677724
 20
882.55319522
 10
15356.58677724
 20
872.5535126
 10
15527.02727903
 20
872.55357333
 10
15527.02727903
 20
882.55319522
  0
HATCH
  5
247
100
AcDbEntity
  8
Ech.1_5
 62
     7
  6
CONTINUOUS
100
AcDbHatch
 10
0.0
 20
0.0
 30
0.0
210
0.0
220
0.0
230
1.0
  2
ANSI31
 70
     0
 71
     1
 91
        1
 92
        7
 72
     0
 73
     1
 93
        4
 10
15356.58677724
 20
882.55319522
 10
15356.58677724
 20
872.5535126
 10
15527.02727903
 20
872.55357333
 10
15527.02727903
 20
882.55319522
 97
        1
330
246
 75
     0
 76
     2
 52
90.0
 41
3.14962605
 77
     0
 78
     1
 53
-45.0
 43
0.0
 44
0.0
 45
7.07106781
 46
7.07106781
 79
     0
 47
0.775229
 98
        1
 10
0.0
 20
0.0
  0
LWPOLYLINE
  5
248
100
AcDbEntity
  8
Ech.1_5
 62
     7
  6
CONTINUOUS
370
    25
100
AcDbPolyline
 90
        5
 70
     0
 43
0.0
 38
2500.0
 10
15368.92883778
 20
723.03548492
 10
15351.22057879
 20
723.03548492
 10
15351.22057879
 20
890.19909284
 10
15348.61577525
 20
893.15047
 10
15348.61577525
 20
914.28805101
  0
LINE
  5
249
100
AcDbEntity
  8
Ech.1_5
 62
     7
  6
CONTINUOUS
370
    70
100
AcDbLine
 10
15347.5173656
 20
889.79953367
 30
2500.0
 11
15347.5173656
 21
722.83433378
 31
2500.0
  0
LWPOLYLINE
  5
24A
100
AcDbEntity
  8
Ech.1_5
 62
     7
  6
CONTINUOUS
370
    35
100
AcDbPolyline
 90
        3
 70
     0
 43
0.0
 38
2500.0
 10
15368.16520609
 20
824.2323846
 10
15353.62445381
 20
824.2323846
 10
15353.62445381
 20
841.99096055
  0
LWPOLYLINE
  5
24B
100
AcDbEntity
  8
Ech.1_5
 62
     7
  6
CONTINUOUS
370
    -3
100
AcDbPolyline
 90
       20
 70
     0
 43
0.0
 38
2500.0
 10
15347.53701843
 20
739.22044386
 42
1.14028181
 10
15380.30234223
 20
743.53409063
 10
15364.77153587
 20
801.57325209
 42
-1.30322619
 10
15396.96895598
 20
801.57325209
 10
15381.43814962
 20
743.53409063
 42
1.30322619
 10
15413.63556973
 20
743.53409063
 10
15398.10476337
 20
801.57325209
 42
-1.30322619
 10
15430.30218348
 20
801.57325209
 10
15414.77137712
 20
743.53409063
 42
1.30322619
 10
15446.96879723
 20
743.53409063
 10
15431.43799087
 20
801.57325209
 42
-1.30322619
 10
15463.63541098
 20
801.57325209
 10
15448.10460462
 20
743.53409063
 42
1.30322619
 10
15480.30202472
 20
743.53409063
 10
15464.77121836
 20
801.57325209
 42
-1.30322619
 10
15496.96863847
 20
801.57325209
 10
15481.43783211
 20
743.53409063
 42
1.30322619
 10
15513.63525222
 20
743.53409063
 10
15498.10444586
 20
801.57325209
 42
-0.80477196
 10
15527.02727903
 20
816.531986
  0
LWPOLYLINE
  5
24C
102
{ACAD_REACTORS
330
24D
102
}
100
AcDbEntity
  8
Ech.1_5
 62
     7
  6
CONTINUOUS
370
    -3
100
AcDbPolyline
 90
        4
 70
     1
 43
0.0
 10
14660.71610648
 20
882.56113268
 10
14542.02727903
 20
882.56113268
 10
14542.02727903
 20
443.04838531
 10
14660.71625173
 20
443.04838531
  0
HATCH
  5
24D
100
AcDbEntity
  8
Ech.1_5
 62
     7
  6
CONTINUOUS
100
AcDbHatch
 10
0.0
 20
0.0
 30
0.0
210
0.0
220
0.0
230
1.0
  2
ANSI31
 70
     0
 71
     1
 91
        1
 92
        7
 72
     0
 73
     1
 93
        4
 10
14660.71610648
 20
882.56113268
 10
14542.02727903
 20
882.56113268
 10
14542.02727903
 20
443.04838531
 10
14660.71625173
 20
443.04838531
 97
        1
330
24C
 75
     0
 76
     2
 52
0.0
 41
6.2992521
 77
     0
 78
     1
 53
45.0
 43
0.0
 44
0.0
 45
14.14213562
 46
-14.14213562
 79
     0
 47
0.775229
 98
        1
 10
0.0
 20
0.0
  0
LWPOLYLINE
  5
24E
100
AcDbEntity
  8
Ech.1_5
 62
     7
  6
CONTINUOUS
370
    -3
100
AcDbPolyline
 90
       20
 70
     0
 43
0.0
 38
2500.0
 10
13942.21433273
 20
739.22049676
 42
1.14028181
 10
13974.97976052
 20
743.53415722
 10
13959.44890487
 20
801.57350289
 42
-1.30322619
 10
13991.64642717
 20
801.57350289
 10
13976.11557152
 20
743.53415722
 42
1.30322619
 10
14008.31309382
 20
743.53415722
 10
13992.78223816
 20
801.57350289
 42
-1.30322619
 10
14024.97976047
 20
801.57350289
 10
14009.44890481
 20
743.53415722
 42
1.30322619
 10
14041.64642711
 20
743.53415722
 10
14026.11557146
 20
801.57350289
 42
-1.30322619
 10
14058.31309376
 20
801.57350289
 10
14042.78223811
 20
743.53415722
 42
1.30322619
 10
14074.97976041
 20
743.53415722
 10
14059.44890475
 20
801.57350289
 42
-1.30322619
 10
14091.64642706
 20
801.57350289
 10
14076.1155714
 20
743.53415722
 42
1.30322619
 10
14108.3130937
 20
743.53415722
 10
14092.78223805
 20
801.57350289
 42
-1.11052377
 10
14125.52468538
 20
806.76208476
  0
LWPOLYLINE
  5
24F
102
{ACAD_REACTORS
330
250
102
}
100
AcDbEntity
  8
Ech.1_5
 62
     7
  6
CONTINUOUS
370
    -3
100
AcDbPolyline
 90
        9
 70
     1
 43
0.0
 38
2500.0
 39
-2500.0
 10
15223.58928051
 20
460.83198995
 10
15208.6209908
 20
419.94229203
 10
15223.34202528
 20
439.11064274
 10
15226.95299538
 20
443.04838531
 10
15320.71692637
 20
443.04838531
 10
15320.71686301
 20
592.5538301
 10
15120.71686301
 20
592.5538301
 10
15120.71692637
 20
443.04838531
 10
15208.09107816
 20
443.04838531
  0
HATCH
  5
250
100
AcDbEntity
  8
Ech.1_5
 62
     7
  6
CONTINUOUS
100
AcDbHatch
 10
0.0
 20
0.0
 30
0.0
210
0.0
220
0.0
230
1.0
  2
AR-CONC
 70
     0
 71
     1
 91
        1
 92
        7
 72
     0
 73
     1
 93
        9
 10
15223.58928051
 20
460.83198995
 10
15208.6209908
 20
419.94229203
 10
15223.34202528
 20
439.11064274
 10
15226.95299538
 20
443.04838531
 10
15320.71692637
 20
443.04838531
 10
15320.71686301
 20
592.5538301
 10
15120.71686301
 20
592.5538301
 10
15120.71692637
 20
443.04838531
 10
15208.09107816
 20
443.04838531
 97
        1
330
24F
 75
     0
 76
     2
 52
45.0
 41
0.11811097
 77
     0
 78
    13
 53
50.0
 43
0.0
 44
0.0
 45
-18.84283637
 46
1.64853443
 79
     2
 49
1.97029307
 49
-21.67322338
 53
355.0
 43
0.0
 44
0.0
 45
-3.64507756
 46
19.76051824
 79
     2
 49
1.57623377
 49
-17.3385787
 53
100.45140076
 43
1.57023568
 44
-0.13737749
 45
-15.19777228
 46
-18.11197244
 79
     2
 49
1.67449124
 49
-18.41940522
 53
46.18420029
 43
0.0
 44
5.25411576
 45
-28.03703353
 46
4.34827878
 79
     2
 49
2.95543872
 49
-32.50983238
 53
96.63559723
 43
2.33641885
 44
4.89175692
 45
-24.55412615
 46
-25.59063404
 79
     2
 49
2.51173697
 49
-27.62910426
 53
351.1842041
 43
0.0
 44
5.25411576
 45
24.55410288
 46
25.59065715
 79
     2
 49
2.36435249
 49
-26.00786805
 53
21.0
 43
2.62705699
 44
3.94058615
 45
-15.68109068
 46
10.57702905
 79
     2
 49
1.97029307
 49
-21.67322338
 53
326.0
 43
2.62705699
 44
3.94058615
 45
6.39203268
 46
19.05010734
 79
     2
 49
1.57623377
 49
-17.3385787
 53
71.45140076
 43
3.93381357
 44
3.05916555
 45
-22.07312962
 46
-8.47306182
 79
     2
 49
1.67449124
 49
-18.41940522
 53
37.5
 43
0.0
 44
0.0
 45
0.31944534
 46
8.74531245
 79
     6
 49
0.01875
 49
-17.12841332
 49
0.01875
 49
-17.60128498
 49
0.01875
 49
-17.40425348
 53
7.5
 43
0.0
 44
0.0
 45
6.91098818
 46
10.3614222
 79
     6
 49
0.01875
 49
-10.03535807
 49
0.01875
 49
-16.7343539
 49
0.01875
 49
-6.6333206
 53
-32.5
 43
-5.85833833
 44
0.0
 45
14.02382061
 46
-0.59253003
 79
     6
 49
0.01875
 49
-6.56764314
 49
0.01875
 49
-20.49104869
 49
0.01875
 49
-27.19004452
 53
-42.5
 43
-8.48539531
 44
0.0
 45
15.32063571
 46
2.62981542
 79
     6
 49
0.01875
 49
-8.53793621
 49
0.01875
 49
-13.60815793
 49
0.01875
 49
-19.30887222
 47
0.775229
 98
        1
 10
0.0
 20
0.0
  0
LWPOLYLINE
  5
251
100
AcDbEntity
  8
Ech.1_5
 62
     7
  6
BYBLOCK
100
AcDbPolyline
 90
        5
 70
     0
 43
0.0
 10
15211.23990921
 20
713.11404568
 10
15237.0644403
 20
713.11404568
 10
15237.0644403
 20
722.54670574
 10
15211.23990921
 20
722.54670574
 10
15211.23990921
 20
713.11404568
  0
LWPOLYLINE
  5
252
100
AcDbEntity
  8
Ech.1_5
 62
   204
  6
DASHDOT
370
    70
100
AcDbPolyline
 90
       11
 70
     0
 43
0.0
 38
2500.0
 10
15114.11417707
 20
720.12237406
 10
15116.72823276
 20
720.12237406
 10
15139.96644824
 20
720.12237406
 10
15144.84610166
 20
720.12237406
 10
15172.26416486
 20
720.12237406
 10
15177.54460423
 20
720.11879254
 10
15204.11955403
 20
720.11692106
 10
15210.16994953
 20
720.12237406
 10
15238.50834882
 20
720.12237406
 10
15244.20749777
 20
720.11510114
 10
15370.98967172
 20
720.11541694
  0
HATCH
  5
253
100
AcDbEntity
  8
Ech.1_5
 62
     7
100
AcDbHatch
 10
0.0
 20
0.0
 30
0.0
210
0.0
220
0.0
230
1.0
  2
ANSI37
 70
     0
 71
     0
 91
        1
 92
        7
 72
     0
 73
     1
 93
        4
 10
15145.47657851
 20
713.11404568
 10
15171.30110959
 20
713.11404568
 10
15171.30110959
 20
722.54670574
 10
15145.47657851
 20
722.54670574
 97
        0
 75
     0
 76
     2
 52
0.0
 41
1.87498831
 77
     0
 78
     2
 53
45.0
 43
0.0
 44
0.0
 45
4.20946876
 46
-4.20946876
 79
     0
 53
-45.0
 43
0.0
 44
0.0
 45
4.20946876
 46
4.20946876
 79
     0
 47
0.775229
 98
        1
 10
0.0
 20
0.0
  0
HATCH
  5
254
100
AcDbEntity
  8
Ech.1_5
 62
     7
100
AcDbHatch
 10
0.0
 20
0.0
 30
0.0
210
0.0
220
0.0
230
1.0
  2
ANSI37
 70
     0
 71
     0
 91
        1
 92
        7
 72
     0
 73
     1
 93
        4
 10
15211.23990921
 20
713.11404568
 10
15237.0644403
 20
713.11404568
 10
15237.0644403
 20
722.54670574
 10
15211.23990921
 20
722.54670574
 97
        0
 75
     0
 76
     2
 52
0.0
 41
1.87498831
 77
     0
 78
     2
 53
45.0
 43
0.0
 44
0.0
 45
4.20946876
 46
-4.20946876
 79
     0
 53
-45.0
 43
0.0
 44
0.0
 45
4.20946876
 46
4.20946876
 79
     0
 47
0.775229
 98
        1
 10
0.0
 20
0.0
  0
LWPOLYLINE
  5
255
100
AcDbEntity
  8
Ech.1_5
 62
     7
  6
CONTINUOUS
370
    -3
100
AcDbPolyline
 90
        4
 70
     0
 43
0.0
 10
15347.54215497
 20
788.68079108
 10
15288.85556111
 20
779.24724744
 10
15288.85556111
 20
788.67990751
 10
15347.54215497
 20
779.24813102
  0
LWPOLYLINE
  5
256
100
AcDbEntity
  8
Ech.1_5
 62
     7
  6
CONTINUOUS
370
    -3
100
AcDbPolyline
 90
        4
 70
     0
 43
0.0
 10
15278.40816352
 20
788.68079108
 10
15219.72156967
 20
779.24724744
 10
15219.72156967
 20
788.67990751
 10
15278.40816352
 20
779.24813102
  0
LWPOLYLINE
  5
257
102
{ACAD_REACTORS
330
258
102
}
100
AcDbEntity
  8
Ech.1_5
 62
     7
  6
CONTINUOUS
370
    -3
100
AcDbPolyline
 90
        6
 70
     1
 43
0.0
 10
13459.21414949
 20
478.04841091
 10
13459.2140694
 20
832.56113268
 10
13409.2140581
 20
882.56113268
 10
13259.2136359
 20
882.56113268
 10
13259.21351283
 20
443.04838531
 10
13459.21414949
 20
443.04838531
  0
HATCH
  5
258
100
AcDbEntity
  8
Ech.1_5
 62
     7
  6
CONTINUOUS
100
AcDbHatch
 10
0.0
 20
0.0
 30
0.0
210
0.0
220
0.0
230
1.0
  2
AR-CONC
 70
     0
 71
     1
 91
        1
 92
        7
 72
     0
 73
     1
 93
        6
 10
13459.21414949
 20
478.04841091
 10
13459.2140694
 20
832.56113268
 10
13409.2140581
 20
882.56113268
 10
13259.2136359
 20
882.56113268
 10
13259.21351283
 20
443.04838531
 10
13459.21414949
 20
443.04838531
 97
        1
330
257
 75
     0
 76
     2
 52
0.0
 41
0.11811097
 77
     0
 78
    13
 53
50.0
 43
0.0
 44
0.0
 45
-18.84283637
 46
1.64853443
 79
     2
 49
1.97029307
 49
-21.67322338
 53
355.0
 43
0.0
 44
0.0
 45
-3.64507756
 46
19.76051824
 79
     2
 49
1.57623377
 49
-17.3385787
 53
100.45140076
 43
1.57023568
 44
-0.13737749
 45
-15.19777228
 46
-18.11197244
 79
     2
 49
1.67449124
 49
-18.41940522
 53
46.18420029
 43
0.0
 44
5.25411576
 45
-28.03703353
 46
4.34827878
 79
     2
 49
2.95543872
 49
-32.50983238
 53
96.63559723
 43
2.33641885
 44
4.89175692
 45
-24.55412615
 46
-25.59063404
 79
     2
 49
2.51173697
 49
-27.62910426
 53
351.1842041
 43
0.0
 44
5.25411576
 45
24.55410288
 46
25.59065715
 79
     2
 49
2.36435249
 49
-26.00786805
 53
21.0
 43
2.62705699
 44
3.94058615
 45
-15.68109068
 46
10.57702905
 79
     2
 49
1.97029307
 49
-21.67322338
 53
326.0
 43
2.62705699
 44
3.94058615
 45
6.39203268
 46
19.05010734
 79
     2
 49
1.57623377
 49
-17.3385787
 53
71.45140076
 43
3.93381357
 44
3.05916555
 45
-22.07312962
 46
-8.47306182
 79
     2
 49
1.67449124
 49
-18.41940522
 53
37.5
 43
0.0
 44
0.0
 45
0.31944534
 46
8.74531245
 79
     6
 49
0.01875
 49
-17.12841332
 49
0.01875
 49
-17.60128498
 49
0.01875
 49
-17.40425348
 53
7.5
 43
0.0
 44
0.0
 45
6.91098818
 46
10.3614222
 79
     6
 49
0.01875
 49
-10.03535807
 49
0.01875
 49
-16.7343539
 49
0.01875
 49
-6.6333206
 53
-32.5
 43
-5.85833833
 44
0.0
 45
14.02382061
 46
-0.59253003
 79
     6
 49
0.01875
 49
-6.56764314
 49
0.01875
 49
-20.49104869
 49
0.01875
 49
-27.19004452
 53
-42.5
 43
-8.48539531
 44
0.0
 45
15.32063571
 46
2.62981542
 79
     6
 49
0.01875
 49
-8.53793621
 49
0.01875
 49
-13.60815793
 49
0.01875
 49
-19.30887222
 47
0.775229
 98
        1
 10
0.0
 20
0.0
  0
LWPOLYLINE
  5
259
102
{ACAD_REACTORS
330
25A
102
}
100
AcDbEntity
  8
Ech.1_5
 62
     7
  6
CONTINUOUS
370
    -3
100
AcDbPolyline
 90
        6
 70
     1
 43
0.0
 10
14860.71666304
 20
832.56113268
 10
14835.72427747
 20
857.55351261
 10
14660.71622254
 20
857.55351261
 10
14660.71610648
 20
443.04838531
 10
14860.71674313
 20
443.04838531
 10
14860.71674313
 20
478.04841091
  0
HATCH
  5
25A
100
AcDbEntity
  8
Ech.1_5
 62
     7
  6
CONTINUOUS
100
AcDbHatch
 10
0.0
 20
0.0
 30
0.0
210
0.0
220
0.0
230
1.0
  2
AR-CONC
 70
     0
 71
     1
 91
        1
 92
        7
 72
     0
 73
     1
 93
        6
 10
14860.71666304
 20
832.56113268
 10
14835.72427747
 20
857.55351261
 10
14660.71622254
 20
857.55351261
 10
14660.71610648
 20
443.04838531
 10
14860.71674313
 20
443.04838531
 10
14860.71674313
 20
478.04841091
 97
        1
330
259
 75
     0
 76
     2
 52
0.0
 41
0.11811097
 77
     0
 78
    13
 53
50.0
 43
0.0
 44
0.0
 45
-18.84283637
 46
1.64853443
 79
     2
 49
1.97029307
 49
-21.67322338
 53
355.0
 43
0.0
 44
0.0
 45
-3.64507756
 46
19.76051824
 79
     2
 49
1.57623377
 49
-17.3385787
 53
100.45140076
 43
1.57023568
 44
-0.13737749
 45
-15.19777228
 46
-18.11197244
 79
     2
 49
1.67449124
 49
-18.41940522
 53
46.18420029
 43
0.0
 44
5.25411576
 45
-28.03703353
 46
4.34827878
 79
     2
 49
2.95543872
 49
-32.50983238
 53
96.63559723
 43
2.33641885
 44
4.89175692
 45
-24.55412615
 46
-25.59063404
 79
     2
 49
2.51173697
 49
-27.62910426
 53
351.1842041
 43
0.0
 44
5.25411576
 45
24.55410288
 46
25.59065715
 79
     2
 49
2.36435249
 49
-26.00786805
 53
21.0
 43
2.62705699
 44
3.94058615
 45
-15.68109068
 46
10.57702905
 79
     2
 49
1.97029307
 49
-21.67322338
 53
326.0
 43
2.62705699
 44
3.94058615
 45
6.39203268
 46
19.05010734
 79
     2
 49
1.57623377
 49
-17.3385787
 53
71.45140076
 43
3.93381357
 44
3.05916555
 45
-22.07312962
 46
-8.47306182
 79
     2
 49
1.67449124
 49
-18.41940522
 53
37.5
 43
0.0
 44
0.0
 45
0.31944534
 46
8.74531245
 79
     6
 49
0.01875
 49
-17.12841332
 49
0.01875
 49
-17.60128498
 49
0.01875
 49
-17.40425348
 53
7.5
 43
0.0
 44
0.0
 45
6.91098818
 46
10.3614222
 79
     6
 49
0.01875
 49
-10.03535807
 49
0.01875
 49
-16.7343539
 49
0.01875
 49
-6.6333206
 53
-32.5
 43
-5.85833833
 44
0.0
 45
14.02382061
 46
-0.59253003
 79
     6
 49
0.01875
 49
-6.56764314
 49
0.01875
 49
-20.49104869
 49
0.01875
 49
-27.19004452
 53
-42.5
 43
-8.48539531
 44
0.0
 45
15.32063571
 46
2.62981542
 79
     6
 49
0.01875
 49
-8.53793621
 49
0.01875
 49
-13.60815793
 49
0.01875
 49
-19.30887222
 47
0.775229
 98
        1
 10
0.0
 20
0.0
  0
MTEXT
  5
25B
100
AcDbEntity
  8
Ech.1_5
 62
     4
100
AcDbMText
 10
13150.52468538
 20
1431.96712815
 30
0.0
 11
1.0
 21
0.0
 31
0.0
 40
20.0
 41
965.0
 71
     1
 72
     1
  1
\fArial|b0|i0|c0|p18;\H20;\W1;\C7;Niveau fini sol extérieur avoisinant le niveau fini du sol intérieur
  0
MTEXT
  5
25C
100
AcDbEntity
  8
Ech.1_5
 62
     4
100
AcDbMText
 10
14552.02727903
 20
1431.96712815
 30
0.0
 11
1.0
 21
0.0
 31
0.0
 40
20.0
 41
965.0
 71
     1
 72
     1
  1
\fArial|b0|i0|c0|p18;\H20;\W1;\C7;Niveau fini sol extérieur avoisinant le niveau fini du sol intérieur
  0
LWPOLYLINE
  5
25D
100
AcDbEntity
  8
Ech.1_5
 62
     7
  6
CONTINUOUS
370
    -3
100
AcDbPolyline
 90
        8
 70
     0
 43
0.0
 10
15273.78835882
 20
872.55439618
 10
15273.78835882
 20
846.30591958
 10
15008.07801007
 20
813.68079108
 10
15008.07801007
 20
788.68079108
 10
15273.78835882
 20
788.68079108
 10
15347.54215497
 20
788.68167466
 10
15347.54215497
 20
872.55439618
 10
15273.78835882
 20
872.55439618
  0
LWPOLYLINE
  5
25E
100
AcDbEntity
  8
Ech.1_5
 62
     7
  6
CONTINUOUS
370
    -3
100
AcDbPolyline
 90
        5
 70
     0
 43
0.0
 10
13889.21433273
 20
752.54621004
 10
13929.21433273
 20
752.54621004
 10
13929.21433273
 20
797.54621004
 10
13889.21433273
 20
797.54621004
 10
13889.21433273
 20
752.54621004
  0
LWPOLYLINE
  5
25F
100
AcDbEntity
  8
Ech.1_5
 62
     7
  6
CONTINUOUS
370
    -3
100
AcDbPolyline
 90
       13
 70
     0
 43
0.0
 10
13709.21433273
 20
767.54621004
 10
13709.21433273
 20
722.54621004
 10
13743.97398486
 20
722.54621004
 10
13743.97402283
 20
722.54659059
 10
13769.79855391
 20
722.54659059
 10
13769.79851595
 20
722.54621004
 10
13819.03590062
 20
722.54621004
 10
13819.03593858
 20
722.54725999
 10
13809.86046966
 20
722.54725999
 10
13809.8604317
 20
722.54621004
 10
13889.21433273
 20
722.54621004
 10
13889.21433273
 20
767.54621004
 10
13709.21433273
 20
767.54621004
  0
LWPOLYLINE
  5
260
100
AcDbEntity
  8
Ech.1_5
 62
     7
  6
CONTINUOUS
370
    -3
100
AcDbPolyline
 90
        9
 70
     0
 43
0.0
 10
13709.21433273
 20
812.54621004
 10
13889.21433273
 20
812.54621004
 10
13889.21433273
 20
1241.30613251
 10
13784.75706632
 20
1241.30576155
 10
13768.27071224
 20
1223.32740994
 10
13782.38065226
 20
1259.28310995
 10
13765.8951491
 20
1241.30576155
 10
13709.21433273
 20
1241.30576155
 10
13709.21433273
 20
812.54621004
  0
LWPOLYLINE
  5
261
100
AcDbEntity
  8
Ech.1_5
 62
     7
  6
CONTINUOUS
370
    -3
100
AcDbPolyline
 90
        5
 70
     0
 43
0.0
 10
13709.21433273
 20
812.54621004
 10
13889.21433273
 20
812.54621004
 10
13889.21433273
 20
767.54621004
 10
13709.21433273
 20
767.54621004
 10
13709.21433273
 20
812.54621004
  0
LWPOLYLINE
  5
262
100
AcDbEntity
  8
Ech.1_5
 62
     7
  6
CONTINUOUS
370
    -3
100
AcDbPolyline
 90
       21
 70
     0
 43
0.0
 10
13655.21433273
 20
692.54621004
 10
13655.21433273
 20
783.61267655
 10
13656.67879882
 20
787.14821046
 10
13662.83373039
 20
793.84139502
 10
13663.21433273
 20
795.75481218
 10
13663.21433273
 20
826.68374437
 10
13665.71433273
 20
831.68374437
 10
13668.21433273
 20
826.68374437
 10
13668.21433273
 20
821.68374437
 10
13675.21433273
 20
821.68374437
 10
13675.21433273
 20
785.68374437
 10
13671.21433273
 20
781.68374437
 10
13675.21433273
 20
777.68374437
 10
13675.21433273
 20
722.88244082
 10
13671.21433273
 20
718.88244082
 10
13675.21433273
 20
714.88244082
 10
13675.21433273
 20
712.66672657
 10
13658.64299595
 20
692.54621004
 10
13658.64299595
 20
692.54621004
 10
13655.21433273
 20
692.54621004
 10
13655.21433273
 20
692.54621004
  0
LWPOLYLINE
  5
263
100
AcDbEntity
  8
Ech.1_5
 62
     7
  6
CONTINUOUS
370
    -3
100
AcDbPolyline
 90
        5
 70
     0
 43
0.0
 10
13700.21433273
 20
1241.30576155
 10
13675.21433273
 20
1241.30576155
 10
13675.21434363
 20
735.54621004
 10
13700.21434363
 20
735.54621004
 10
13700.21433273
 20
1241.30576155
  0
LWPOLYLINE
  5
264
100
AcDbEntity
  8
Ech.1_5
 62
     7
  6
CONTINUOUS
370
     5
100
AcDbPolyline
 90
        4
 70
     0
 43
0.0
 10
13941.05048539
 20
726.68890957
 42
1.0
 10
13928.72160297
 20
726.68890957
 10
13928.72160297
 20
726.68890957
 42
1.0
 10
13941.05048539
 20
726.68890957
  0
LWPOLYLINE
  5
265
100
AcDbEntity
  8
Ech.1_5
 62
     7
  6
CONTINUOUS
370
     5
100
AcDbPolyline
 90
        5
 70
     0
 43
0.0
 10
13743.97398486
 20
713.11404568
 10
13769.79851595
 20
713.11404568
 10
13769.79851595
 20
722.54670574
 10
13743.97398486
 20
722.54670574
 10
13743.97398486
 20
713.11404568
  0
LWPOLYLINE
  5
266
100
AcDbEntity
  8
Ech.1_5
 62
     7
  6
CONTINUOUS
370
     5
100
AcDbPolyline
 90
        5
 70
     0
 43
0.0
 10
13809.73731557
 20
713.11404568
 10
13835.56184665
 20
713.11404568
 10
13835.56184665
 20
722.54670574
 10
13809.73731557
 20
722.54670574
 10
13809.73731557
 20
713.11404568
  0
LWPOLYLINE
  5
267
100
AcDbEntity
  8
Ech.1_5
 62
     7
  6
CONTINUOUS
370
    -3
100
AcDbPolyline
 90
        5
 70
     0
 43
0.0
 10
13889.21433273
 20
843.28582093
 10
13929.21433273
 20
843.28582093
 10
13929.21433273
 20
888.28582093
 10
13889.21433273
 20
888.28582093
 10
13889.21433273
 20
843.28582093
  0
LWPOLYLINE
  5
268
100
AcDbEntity
  8
Ech.1_5
 62
     7
  6
CONTINUOUS
370
    -3
100
AcDbPolyline
 90
       23
 70
     0
 43
0.0
 10
13675.21433273
 20
858.68374082
 10
13675.21433273
 20
919.41397655
 10
13673.14326491
 20
919.41397655
 10
13675.21433273
 20
921.48504437
 10
13675.21433273
 20
956.48504437
 10
13668.21433273
 20
956.48504437
 10
13668.21433273
 20
962.48504437
 10
13665.71433273
 20
967.48504437
 10
13663.21433273
 20
962.48504437
 10
13662.83373039
 20
929.64269502
 10
13656.67879882
 20
922.94951046
 10
13655.21433273
 20
919.41397655
 10
13655.21433273
 20
809.52592859
 10
13656.17465512
 20
807.89605995
 10
13661.32277735
 20
804.68374082
 10
13662.21433273
 20
805.30027673
 10
13662.21433273
 20
832.68374082
 10
13669.21433273
 20
832.68374082
 10
13669.21433273
 20
823.68374082
 10
13675.21433273
 20
823.68374082
 10
13675.21433273
 20
850.68374082
 10
13671.21433273
 20
854.68374082
 10
13675.21433273
 20
858.68374082
  0
LWPOLYLINE
  5
269
100
AcDbEntity
  8
Ech.1_5
 62
     7
  6
CONTINUOUS
370
    -3
100
AcDbPolyline
 90
       23
 70
     0
 43
0.0
 10
13671.21433273
 20
990.48504082
 10
13675.21433273
 20
994.48504082
 10
13675.21433273
 20
1055.21527655
 10
13673.14326491
 20
1055.21527655
 10
13675.21433273
 20
1057.28634437
 10
13675.21433273
 20
1092.28634437
 10
13668.21433273
 20
1092.28634437
 10
13668.21433273
 20
1098.28634437
 10
13665.71433273
 20
1103.28634437
 10
13663.21433273
 20
1098.28634437
 10
13662.83373039
 20
1065.44399502
 10
13656.67879882
 20
1058.75081046
 10
13655.21433273
 20
1055.21527655
 10
13655.21433273
 20
945.32722859
 10
13656.17465512
 20
943.69735995
 10
13661.32277735
 20
940.48504082
 10
13662.21433273
 20
941.10157673
 10
13662.21433273
 20
968.48504082
 10
13669.21433273
 20
968.48504082
 10
13669.21433273
 20
959.48504082
 10
13675.21433273
 20
959.48504082
 10
13675.21433273
 20
986.48504082
 10
13671.21433273
 20
990.48504082
  0
LWPOLYLINE
  5
26A
100
AcDbEntity
  8
Ech.1_5
 62
     7
  6
CONTINUOUS
370
    -3
100
AcDbPolyline
 90
       23
 70
     0
 43
0.0
 10
13675.21433273
 20
1191.01657655
 10
13673.14326491
 20
1191.01657655
 10
13675.21433273
 20
1193.08764437
 10
13675.21433273
 20
1228.08764437
 10
13668.21433273
 20
1228.08764437
 10
13668.21433273
 20
1234.08764437
 10
13665.71433273
 20
1239.08764437
 10
13663.21433273
 20
1234.08764437
 10
13662.83373039
 20
1201.24529502
 10
13656.67879882
 20
1194.55211046
 10
13655.21433273
 20
1191.01657655
 10
13655.21433273
 20
1081.12852859
 10
13656.17465512
 20
1079.49865995
 10
13661.32277735
 20
1076.28634082
 10
13662.21433273
 20
1076.90287673
 10
13662.21433273
 20
1104.28634082
 10
13669.21433273
 20
1104.28634082
 10
13669.21433273
 20
1095.28634082
 10
13675.21433273
 20
1095.28634082
 10
13675.21433273
 20
1122.28634082
 10
13671.21433273
 20
1126.28634082
 10
13675.21433273
 20
1130.28634082
 10
13675.21433273
 20
1191.01657655
  0
LWPOLYLINE
  5
26B
100
AcDbEntity
  8
Ech.1_5
 62
     7
  6
CONTINUOUS
370
    -3
100
AcDbPolyline
 90
       11
 70
     0
 43
0.0
 10
13656.17465512
 20
1215.29995995
 10
13661.32277735
 20
1212.08764082
 10
13662.21433273
 20
1212.70417673
 10
13662.21433273
 20
1240.08764082
 10
13669.21433273
 20
1240.08764082
 10
13669.21433273
 20
1231.08764082
 10
13675.21433273
 20
1231.08764082
 10
13675.21433273
 20
1241.30576155
 10
13655.21433273
 20
1241.30576155
 10
13655.21433273
 20
1216.92982859
 10
13656.17465512
 20
1215.29995995
  0
LWPOLYLINE
  5
26C
100
AcDbEntity
  8
Ech.1_5
 62
     7
  6
CONTINUOUS
370
    -3
100
AcDbPolyline
 90
        5
 70
     0
 43
0.0
 38
2500.0
 10
15239.2145087
 20
842.059901
 10
15238.71100367
 20
846.1606204
 10
15031.64746822
 20
820.73641512
 10
15031.64746822
 20
816.57387308
 10
15239.2145087
 20
842.059901
  0
LWPOLYLINE
  5
26D
100
AcDbEntity
  8
Ech.1_5
 62
     7
  6
CONTINUOUS
370
    -3
100
AcDbPolyline
 90
        5
 70
     0
 43
0.0
 38
2500.0
 10
15003.91143603
 20
819.28945711
 10
15002.41143603
 20
819.28945711
 10
15002.41143603
 20
759.28945711
 10
15003.91143603
 20
759.28945711
 10
15003.91143603
 20
819.28945711
  0
LWPOLYLINE
  5
26E
100
AcDbEntity
  8
Ech.1_5
 62
     7
  6
CONTINUOUS
370
    -3
100
AcDbPolyline
 90
        5
 70
     0
 43
0.0
 38
2500.0
 10
15006.65441999
 20
763.73085767
 10
15005.20553125
 20
764.11908624
 10
15003.91143603
 20
759.28945711
 10
15005.36032476
 20
758.90122854
 10
15006.65441999
 20
763.73085767
  0
LWPOLYLINE
  5
26F
100
AcDbEntity
  8
Ech.1_5
 62
     7
  6
CONTINUOUS
370
    -3
100
AcDbPolyline
 90
        6
 70
     0
 43
0.0
 38
2500.0
 10
15269.04837839
 20
872.55351261
 10
15269.04837839
 20
851.82496093
 10
15270.36557437
 20
851.98669226
 10
15270.54837839
 20
852.00913777
 10
15270.54837839
 20
872.55351261
 10
15269.04837839
 20
872.55351261
  0
LWPOLYLINE
  5
270
100
AcDbEntity
  8
Ech.1_5
 62
     7
  6
CONTINUOUS
370
    -3
100
AcDbPolyline
 90
        8
 70
     0
 43
0.0
 38
2500.0
 10
15149.03778439
 20
837.08951284
 10
15003.91143603
 20
819.28945711
 10
15004.09424004
 20
817.80063788
 10
15149.03778439
 20
835.5782481
 10
15270.54837839
 20
850.49787303
 10
15270.54837839
 20
850.68204987
 10
15270.54837839
 20
852.00913777
 10
15149.03778439
 20
837.08951284
  0
LWPOLYLINE
  5
271
100
AcDbEntity
  8
Ech.1_5
 62
     7
  6
CONTINUOUS
370
    -3
100
AcDbPolyline
 90
        5
 70
     0
 43
0.0
 10
15293.95487048
 20
872.57797149
 10
15347.54261397
 20
872.57885507
 10
15347.54261397
 20
882.58461948
 10
15293.95487048
 20
882.58373591
 10
15293.95487048
 20
872.57797149
  0
LWPOLYLINE
  5
272
100
AcDbEntity
  8
Ech.1_5
 62
     7
  6
CONTINUOUS
370
     5
100
AcDbPolyline
 90
        5
 70
     0
 43
0.0
 10
15280.57735001
 20
872.55351261
 10
15293.95487048
 20
872.55351261
 10
15293.95487048
 20
882.55927702
 10
15280.57735001
 20
882.55927702
 10
15280.57735001
 20
872.55351261
  0
LWPOLYLINE
  5
273
100
AcDbEntity
  8
Ech.1_5
 62
     7
  6
CONTINUOUS
370
    -3
100
AcDbPolyline
 90
        5
 70
     0
 43
0.0
 10
15150.47785542
 20
779.24724744
 10
15209.16444928
 20
779.24813102
 10
15209.16444928
 20
788.68079108
 10
15150.47785542
 20
788.67990751
 10
15150.47785542
 20
779.24724744
  0
LWPOLYLINE
  5
274
100
AcDbEntity
  8
Ech.1_5
 62
     7
  6
CONTINUOUS
370
    -3
100
AcDbPolyline
 90
        7
 70
     0
 43
0.0
 10
15273.78835882
 20
846.305036
 10
15273.78835882
 20
872.55351261
 10
15347.54215497
 20
872.55351261
 10
15347.54215497
 20
788.67990751
 10
15008.07801007
 20
788.67990751
 10
15008.07801007
 20
813.67990751
 10
15273.78835882
 20
846.305036
  0
LWPOLYLINE
  5
275
100
AcDbEntity
  8
Ech.1_5
 62
     7
  6
CONTINUOUS
370
     5
100
AcDbPolyline
 90
        5
 70
     0
 43
0.0
 10
15124.65332434
 20
779.24724744
 10
15150.47785542
 20
779.24724744
 10
15150.47785542
 20
788.67990751
 10
15124.65332434
 20
788.67990751
 10
15124.65332434
 20
779.24724744
  0
LWPOLYLINE
  5
276
100
AcDbEntity
  8
Ech.1_5
 62
     1
  6
CONTINUOUS
370
    -3
100
AcDbPolyline
 90
        9
 70
     0
 43
0.0
 38
2500.0
 10
15293.95487048
 20
875.05351261
 10
15265.04261397
 20
875.05351261
 10
15265.04261397
 20
857.22148639
 10
15240.04261397
 20
857.22148639
 10
15240.04261397
 20
854.72148639
 10
15267.54261397
 20
854.72148639
 10
15267.54261397
 20
872.55351261
 10
15293.95487048
 20
872.55351261
 10
15293.95487048
 20
875.05351261
  0
LWPOLYLINE
  5
277
100
AcDbEntity
  8
Ech.1_5
 62
     7
  6
CONTINUOUS
370
     5
100
AcDbPolyline
 90
        5
 70
     0
 43
0.0
 10
15145.47657851
 20
713.11404568
 10
15171.30110959
 20
713.11404568
 10
15171.30110959
 20
722.54670574
 10
15145.47657851
 20
722.54670574
 10
15145.47657851
 20
713.11404568
  0
LWPOLYLINE
  5
278
100
AcDbEntity
  8
Ech.1_5
 62
     7
  6
CONTINUOUS
370
     5
100
AcDbPolyline
 90
        5
 70
     0
 43
0.0
 10
15211.23990921
 20
713.11404568
 10
15237.0644403
 20
713.11404568
 10
15237.0644403
 20
722.54670574
 10
15211.23990921
 20
722.54670574
 10
15211.23990921
 20
713.11404568
  0
LWPOLYLINE
  5
279
100
AcDbEntity
  8
Ech.1_5
 62
     7
  6
CONTINUOUS
370
    -3
100
AcDbPolyline
 90
       13
 70
     0
 43
0.0
 10
15120.71686301
 20
779.24724744
 10
15120.71686301
 20
722.55383011
 10
15155.47651515
 20
722.55383011
 10
15155.47655311
 20
722.55421066
 10
15181.3010842
 20
722.55421066
 10
15181.30104623
 20
722.55383011
 10
15230.5384309
 20
722.55383011
 10
15230.53846886
 20
722.55488006
 10
15221.36299995
 20
722.55488006
 10
15221.36296199
 20
722.55383011
 10
15347.54215497
 20
722.55383011
 10
15347.54215497
 20
779.24724744
 10
15120.71686301
 20
779.24724744
  0
LWPOLYLINE
  5
27A
100
AcDbEntity
  8
Ech.1_5
 62
     7
  6
CONTINUOUS
370
    -3
100
AcDbPolyline
 90
        5
 70
     0
 43
0.0
 10
15288.85556111
 20
779.24724744
 10
15347.54215497
 20
779.24813102
 10
15347.54215497
 20
788.68079108
 10
15288.85556111
 20
788.67990751
 10
15288.85556111
 20
779.24724744
  0
LWPOLYLINE
  5
27B
100
AcDbEntity
  8
Ech.1_5
 62
     7
  6
CONTINUOUS
370
    -3
100
AcDbPolyline
 90
        5
 70
     0
 43
0.0
 10
15219.72156967
 20
779.24724744
 10
15278.40816352
 20
779.24813102
 10
15278.40816352
 20
788.68079108
 10
15219.72156967
 20
788.67990751
 10
15219.72156967
 20
779.24724744
  0
TEXT
  5
27C
100
AcDbEntity
  8
Ech.1_5
 62
     7
370
    18
100
AcDbText
 10
13629.38398561
 20
697.51783011
 30
0.0
 40
13.50000024
  1
30
  7
ARIAL
 50
89.9999975
 41
1.0
 51
0.0
100
AcDbText
  0
TEXT
  5
27D
100
AcDbEntity
  8
Ech.1_5
 62
     7
370
    18
100
AcDbText
 10
13629.32591944
 20
540.9652892
 30
0.0
 40
13.50000024
  1
min 200
  7
ARIAL
 50
89.9999975
 41
1.0
 51
0.0
100
AcDbText
  0
INSERT
  5
27E
100
AcDbEntity
  8
Ech.1_5
 62
     0
370
    -3
100
AcDbBlockReference
  2
*D1
 10
0.0
 20
0.0
 30
0.0
  0
INSERT
  5
27F
100
AcDbEntity
  8
Ech.1_5
 62
     0
370
    -3
100
AcDbBlockReference
  2
*D2
 10
0.0
 20
0.0
 30
0.0
  0
INSERT
  5
280
100
AcDbEntity
  8
Ech.1_5
 62
     0
370
    -3
100
AcDbBlockReference
  2
*D5
 10
0.0
 20
0.0
 30
0.0
  0
INSERT
  5
281
100
AcDbEntity
  8
Ech.1_5
 62
     0
370
    -3
100
AcDbBlockReference
  2
*D8
 10
0.0
 20
0.0
 30
0.0
  0
INSERT
  5
282
100
AcDbEntity
  8
Ech.1_5
 62
     0
370
    -3
100
AcDbBlockReference
  2
*D9
 10
0.0
 20
0.0
 30
0.0
  0
INSERT
  5
283
100
AcDbEntity
  8
Ech.1_5
 62
     0
370
    -3
100
AcDbBlockReference
  2
*D12
 10
0.0
 20
0.0
 30
0.0
  0
ENDSEC
  0
SECTION
  2
OBJECTS
  0
DICTIONARY
  5
1
100
AcDbDictionary
  3
ACAD_GROUP
350
2
  3
ACAD_MLINESTYLE
350
3
  0
DICTIONARY
  5
2
102
{CDWK_REACTORS
330
1
102
}
100
AcDbDictionary
  3
L_COUPE_1
350
4
  3
CDWK2
350
5
  3
CDWK3
350
6
  3
L_COUPE_4
350
7
  3
L_COUPE_5
350
8
  3
CDWK6
350
9
  3
CDWK7
350
A
  3
L_COUPE_8
350
B
  3
CDWK9
350
C
  3
CDWK10
350
D
  3
L_COUPE_11
350
E
  3
CDWK12
350
F
  3
CDWK13
350
10
  3
CDWK14
350
11
  0
DICTIONARY
  5
3
102
{CDWK_REACTORS
330
1
102
}
100
AcDbDictionary
  3
STANDARD
350
12
  0
GROUP
  5
4
102
{CDWK_REACTORS
330
2
102
}
100
AcDbGroup
300
groupe cree par CADWORK
 70
     0
 71
     1
340
1A8
340
1A9
340
1A7
340
1A5
340
1A6
340
1AA
340
1AE
340
1AF
340
1AD
340
1AB
340
1AC
340
1A4
340
194
340
193
340
192
340
197
340
196
340
195
340
18D
340
18E
340
18F
340
191
340
190
340
18C
340
1A0
340
19F
340
19E
340
1A3
340
1A2
340
1A1
340
19A
340
199
340
198
340
19D
340
19C
340
19B
340
1CA
340
1C9
340
1CB
340
1CD
340
1CC
340
1C5
340
1C4
340
1C6
340
1C8
340
1C7
340
1D2
340
1D6
340
1D3
340
1D5
340
1D4
340
1CF
340
1CE
340
1D0
340
1D7
340
1D1
340
1C3
340
1B5
340
1B4
340
1B6
340
1B8
340
1B7
340
1B0
340
1D8
340
1B1
340
1B3
340
1B2
340
1BF
340
1BE
340
1C0
340
1C2
340
1C1
340
1BA
340
1B9
340
1BB
340
1BD
340
1BC
340
18B
340
1E4
340
1E5
340
1E2
340
1E3
340
1E8
340
1E9
340
1E6
340
1E7
340
1E1
340
1DB
340
1DC
340
1D9
340
1DA
340
1DF
340
1E0
340
1DD
340
1DE
340
1EA
340
1F6
340
1F7
340
1F4
340
1F5
340
1FA
340
AD
340
1F8
340
1F9
340
1F3
340
1ED
340
1EE
340
1EB
340
1EC
340
1F1
340
1F2
340
1EF
340
1F0
340
167
340
17F
340
17E
340
181
340
180
340
17B
340
17A
340
17D
340
17C
340
182
340
188
340
187
340
18A
340
189
340
184
340
183
340
186
340
185
340
179
340
16D
340
16C
340
16F
340
16E
340
169
340
168
340
16B
340
16A
340
170
340
176
340
175
340
178
340
177
340
172
340
171
340
174
340
173
  0
GROUP
  5
5
102
{CDWK_REACTORS
330
2
102
}
100
AcDbGroup
300
groupe cree par CADWORK
 70
     0
 71
     1
340
22B
340
27C
340
229
340
22A
  0
GROUP
  5
6
102
{CDWK_REACTORS
330
2
102
}
100
AcDbGroup
300
groupe cree par CADWORK
 70
     0
 71
     1
340
228
340
27D
  0
GROUP
  5
7
102
{CDWK_REACTORS
330
2
102
}
100
AcDbGroup
300
groupe cree par CADWORK
 70
     0
 71
     1
  0
GROUP
  5
8
102
{CDWK_REACTORS
330
2
102
}
100
AcDbGroup
300
groupe cree par CADWORK
 70
     0
 71
     1
  0
GROUP
  5
9
102
{CDWK_REACTORS
330
2
102
}
100
AcDbGroup
300
groupe cree par CADWORK
 70
     0
 71
     1
  0
GROUP
  5
A
102
{CDWK_REACTORS
330
2
102
}
100
AcDbGroup
300
groupe cree par CADWORK
 70
     0
 71
     1
  0
GROUP
  5
B
102
{CDWK_REACTORS
330
2
102
}
100
AcDbGroup
300
groupe cree par CADWORK
 70
     0
 71
     1
340
E7
340
E8
340
E6
340
E4
340
E5
340
EC
340
ED
340
EB
340
E9
340
EA
340
E3
340
DC
340
DD
340
DB
340
D9
340
DA
340
E1
340
E2
340
E0
340
DE
340
DF
340
FC
340
FD
340
FB
340
F9
340
FA
340
101
340
102
340
100
340
FE
340
FF
340
F8
340
F1
340
F2
340
F0
340
EE
340
EF
340
F6
340
F7
340
F5
340
F3
340
F4
340
D8
340
BC
340
BD
340
BB
340
B9
340
BA
340
C1
340
C2
340
C0
340
BE
340
BF
340
B8
340
B1
340
B2
340
B0
340
AE
340
AF
340
B6
340
B7
340
B5
340
B3
340
B4
340
D1
340
D2
340
D0
340
CE
340
CF
340
D6
340
D7
340
D5
340
D3
340
D4
340
CD
340
C6
340
C7
340
C5
340
C3
340
C4
340
CB
340
CC
340
CA
340
C8
340
C9
340
103
340
13D
340
13E
340
13C
340
13A
340
13B
340
142
340
143
340
141
340
13F
340
140
340
139
340
132
340
133
340
131
340
12F
340
130
340
137
340
138
340
136
340
134
340
135
340
152
340
153
340
151
340
14F
340
150
340
157
340
158
340
156
340
154
340
155
340
14E
340
147
340
148
340
146
340
144
340
145
340
14C
340
14D
340
14B
340
149
340
14A
340
12E
340
112
340
113
340
111
340
10F
340
110
340
117
340
118
340
116
340
114
340
115
340
10E
340
107
340
108
340
106
340
104
340
105
340
10C
340
10D
340
10B
340
109
340
10A
340
127
340
128
340
126
340
124
340
125
340
12C
340
12D
340
12B
340
129
340
12A
340
123
340
11C
340
11D
340
11B
340
119
340
11A
340
121
340
122
340
120
340
11E
340
11F
  0
GROUP
  5
C
102
{CDWK_REACTORS
330
2
102
}
100
AcDbGroup
300
groupe cree par CADWORK
 70
     0
 71
     1
  0
GROUP
  5
D
102
{CDWK_REACTORS
330
2
102
}
100
AcDbGroup
300
groupe cree par CADWORK
 70
     0
 71
     1
  0
GROUP
  5
E
102
{CDWK_REACTORS
330
2
102
}
100
AcDbGroup
300
groupe cree par CADWORK
 70
     0
 71
     1
  0
GROUP
  5
F
102
{CDWK_REACTORS
330
2
102
}
100
AcDbGroup
300
groupe cree par CADWORK
 70
     0
 71
     1
  0
GROUP
  5
10
102
{CDWK_REACTORS
330
2
102
}
100
AcDbGroup
300
groupe cree par CADWORK
 70
     0
 71
     1
  0
GROUP
  5
11
102
{CDWK_REACTORS
330
2
102
}
100
AcDbGroup
300
groupe cree par CADWORK
 70
     0
 71
     1
  0
MLINESTYLE
  5
12
102
{CDWK_REACTORS
330
3
102
}
100
AcDbMlineStyle
  2
STANDARD
 70
     0
  3

 62
     0
 51
90.0
 52
90.0
 71
     2
 49
0.5
 62
   256
  6
BYLAYER
 49
-0.5
 62
   256
  6
BYLAYER
  0
ENDSEC
  0
EOF
