  0
SECTION
  2
HEADER
  9
$ACADVER
  1
AC1014
  9
$DWGCODEPAGE
  3
ANSI_1252
  9
$INSBASE
 10
0.0
 20
0.0
 30
0.0
  9
$EXTMIN
 10
442.48441711
 20
1906.22955706
  9
$EXTMAX
 10
15527.02727903
 20
4877.93302528
  9
$LIMMIN
 10
442.48441711
 20
1906.22955706
  9
$LIMMAX
 10
15527.02727903
 20
4877.93302528
  9
$ORTHOMODE
 70
     0
  9
$REGENMODE
 70
     1
  9
$FILLMODE
 70
     1
  9
$QTEXTMODE
 70
     0
  9
$MIRRTEXT
 70
     1
  9
$DRAGMODE
 70
     2
  9
$LTSCALE
 40
5.0
  9
$OSMODE
 70
     0
  9
$ATTMODE
 70
     1
  9
$TEXTSIZE
 40
3.5
  9
$TRACEWID
 40
1.0
  9
$TEXTSTYLE
  7
STANDARD
  9
$CLAYER
  8
0
  9
$CELTYPE
  6
BYLAYER
  9
$CECOLOR
 62
   256
  9
$DIMSCALE
 40
1.0
  9
$DIMASZ
 40
2.0
  9
$DIMEXO
 40
5.0
  9
$DIMDLI
 40
10.0
  9
$DIMRND
 40
0.0
  9
$DIMDLE
 40
2.0
  9
$DIMEXE
 40
2.0
  9
$DIMTP
 40
0.0
  9
$DIMTM
 40
0.0
  9
$DIMTXT
 40
2.5
  9
$DIMCEN
 40
1.5
  9
$DIMTSZ
 40
0.0
  9
$DIMTOL
 70
     0
  9
$DIMLIM
 70
     0
  9
$DIMTIH
 70
     1
  9
$DIMTOH
 70
     0
  9
$DIMSE1
 70
     0
  9
$DIMSE2
 70
     0
  9
$DIMTAD
 70
     1
  9
$DIMZIN
 70
     8
  9
$DIMBLK
  1

  9
$DIMASO
 70
     1
  9
$DIMSHO
 70
     1
  9
$DIMPOST
  1

  9
$DIMAPOST
  1

  9
$DIMALT
 70
     0
  9
$DIMALTD
 70
     2
  9
$DIMALTF
 40
25.4
  9
$DIMLFAC
 40
1.0
  9
$DIMTOFL
 70
     0
  9
$DIMTVP
 40
0.0
  9
$DIMTIX
 70
     0
  9
$DIMSOXD
 70
     0
  9
$DIMSAH
 70
     0
  9
$DIMBLK1
  1

  9
$DIMBLK2
  1

  9
$DIMSTYLE
  2
*UNNAMED
  9
$DIMCLRD
 70
   190
  9
$DIMCLRE
 70
   190
  9
$DIMCLRT
 70
   190
  9
$DIMTFAC
 40
1.0
  9
$DIMGAP
 40
0.09
  9
$DIMUNIT
 70
     2
  9
$LUNITS
 70
     2
  9
$LUPREC
 70
     6
  9
$AXISMODE
 70
     0
  9
$AXISUNIT
 10
0.0
 20
0.0
  9
$SKETCHINC
 40
0.1
  9
$FILLETRAD
 40
0.0
  9
$AUNITS
 70
     0
  9
$AUPREC
 70
     0
  9
$MENU
  1
ACAD
  9
$ELEVATION
 40
0.0
  9
$PELEVATION
 40
0.0
  9
$THICKNESS
 40
0.0
  9
$LIMCHECK
 70
     0
  9
$BLIPMODE
 70
     1
  9
$CHAMFERA
 40
0.0
  9
$CHAMFERB
 40
0.0
  9
$SKPOLY
 70
     1
  9
$TDCREATE
 40
2456751.0000000000
  9
$TDUPDATE
 40
2456751.0000000000
  9
$TDINDWG
 40
0.0
  9
$TDUSRTIMER
 40
0.0
  9
$USRTIMER
 70
     1
  9
$ANGBASE
 50
0.0
  9
$ANGDIR
 70
     0
  9
$PDMODE
 70
     0
  9
$PDSIZE
 40
0.0
  9
$PLINEWID
 40
0.0
  9
$COORDS
 70
     2
  9
$SPLFRAME
 70
     0
  9
$SPLINETYPE
 70
     6
  9
$SPLINESEGS
 70
     8
  9
$ATTDIA
 70
     1
  9
$ATTREQ
 70
     1
  9
$HANDLING
 70
     1
  9
$HANDSEED
  5
     269
  9
$SURFTAB1
 70
     6
  9
$SURFTAB2
 70
     6
  9
$SURFTYPE
 70
     6
  9
$SURFU
 70
     6
  9
$SURFV
 70
     6
  9
$UCSNAME
  2

  9
$UCSORG
 10
0.0
 20
0.0
 30
0.0
  9
$UCSXDIR
 10
1.0
 20
0.0
 30
0.0
  9
$UCSYDIR
 10
0.0
 20
1.0
 30
0.0
  9
$PUCSNAME
  2

  9
$PUCSORG
 10
0.0
 20
0.0
 30
0.0
  9
$PUCSXDIR
 10
1.0
 20
0.0
 30
0.0
  9
$PUCSYDIR
 10
0.0
 20
1.0
 30
0.0
  9
$USERI1
 70
     0
  9
$USERI2
 70
     0
  9
$USERI3
 70
     0
  9
$USERI4
 70
     0
  9
$USERI5
 70
     0
  9
$USERR1
 40
0.0
  9
$USERR2
 40
0.0
  9
$USERR3
 40
0.0
  9
$USERR4
 40
0.0
  9
$USERR5
 40
0.0
  9
$WORLDVIEW
 70
     1
  9
$SHADEDGE
 70
     3
  9
$SHADEDIF
 70
    70
  9
$TILEMODE
 70
     1
  9
$MAXACTVP
 70
    16
  9
$PINSBASE
 10
0.0
 20
0.0
 30
0.0
  9
$PLIMCHECK
 70
     0
  9
$PEXTMIN
 10
1.0000000000000E+20
 20
1.0000000000000E+20
 30
1.0000000000000E+20
  9
$PEXTMAX
 10
-1.0000000000000E+20
 20
-1.0000000000000E+20
 30
-1.0000000000000E+20
  9
$PLIMMIN
 10
0.0
 20
0.0
  9
$UNITMODE
 70
     0
  9
$VISRETAIN
 70
     0
  9
$MEASUREMENT
 70
     1
  0
ENDSEC
  0
SECTION
  2
TABLES
  0
TABLE
  2
VPORT
  5
13
100
AcDbSymbolTable
 70
     1
  0
ENDTAB
  0
TABLE
  2
STYLE
  5
14
100
AcDbSymbolTable
 70
     3
  0
STYLE
  5
15
100
AcDbSymbolTableRecord
100
AcDbTextStyleTableRecord
  2
STANDARD
 70
     0
 40
0.0
 41
1.0
 50
0.0
 71
     0
 42
3.5
  3
MONOTXT
  4

  0
STYLE
  5
16
100
AcDbSymbolTableRecord
100
AcDbTextStyleTableRecord
  2
CADWORK1
 70
     0
 40
0.0
 41
1.0
 50
0.0
 71
     0
 42
3.5
  3
MONOTXT
  4

  0
STYLE
  5
17
100
AcDbSymbolTableRecord
100
AcDbTextStyleTableRecord
  2
MONOTXT
 70
     0
 40
0.0
 41
1.0
 50
0.0
 71
     0
 42
3.5
  3
MONOTXT
  4

  0
STYLE
  5
18
100
AcDbSymbolTableRecord
100
AcDbTextStyleTableRecord
  2
ARIAL
 70
     0
 40
0.0
 41
1.0
 50
0.0
 71
     0
 42
3.5
  3

  4

1001
ACAD
1000
Arial
1071
        0
  0
ENDTAB
  0
TABLE
  2
LTYPE
  5
19
100
AcDbSymbolTable
 70
    13
  0
LTYPE
  5
1A
100
AcDbSymbolTableRecord
100
AcDbLinetypeTableRecord
  2
BYBLOCK
 70
    64
  3

 72
    65
 73
     0
 40
0.0
  0
LTYPE
  5
1B
100
AcDbSymbolTableRecord
100
AcDbLinetypeTableRecord
  2
BYLAYER
 70
    64
  3

 72
    65
 73
     0
 40
0.0
  0
LTYPE
  5
1C
100
AcDbSymbolTableRecord
100
AcDbLinetypeTableRecord
  2
CONTINUOUS
 70
    64
  3
Solid line
 72
    65
 73
     0
 40
0.0
  0
LTYPE
  5
1D
100
AcDbSymbolTableRecord
100
AcDbLinetypeTableRecord
  2
DOT
 70
    64
  3
. . . . . . . . . . . . . . . . . . . . . . . .
 72
    65
 73
     2
 40
2.5
 49
0.0
 74
     0
 49
-2.5
 74
     0
  0
LTYPE
  5
1E
100
AcDbSymbolTableRecord
100
AcDbLinetypeTableRecord
  2
HIDDEN
 70
    64
  3
__ __ __ __ __ __ __ __ __ __ __ __ __ __ __ __
 72
    65
 73
     2
 40
1.875
 49
1.25
 74
     0
 49
-0.625
 74
     0
  0
LTYPE
  5
1F
100
AcDbSymbolTableRecord
100
AcDbLinetypeTableRecord
  2
DASHDOT
 70
    64
  3
 __ . __ . __ . __ . __ . __ . __ . __ . __ . __
 72
    65
 73
     4
 40
10.0
 49
5.0
 74
     0
 49
-2.5
 74
     0
 49
0.0
 74
     0
 49
-2.5
 74
     0
  0
LTYPE
  5
20
100
AcDbSymbolTableRecord
100
AcDbLinetypeTableRecord
  2
CADWORK_22
 70
    64
  3
22 =======================================
 72
    65
 73
     0
 40
0.0
  0
LTYPE
  5
21
100
AcDbSymbolTableRecord
100
AcDbLinetypeTableRecord
  2
DAL
 70
    64
  3
Solid line (for MAPS)
 72
    65
 73
     0
 40
0.0
  0
LTYPE
  5
22
100
AcDbSymbolTableRecord
100
AcDbLinetypeTableRecord
  2
MUR
 70
    64
  3
Solid line (for MAPS)
 72
    65
 73
     0
 40
0.0
  0
LTYPE
  5
23
100
AcDbSymbolTableRecord
100
AcDbLinetypeTableRecord
  2
SOM
 70
    64
  3
Solid line (for MAPS)
 72
    65
 73
     0
 40
0.0
  0
LTYPE
  5
24
100
AcDbSymbolTableRecord
100
AcDbLinetypeTableRecord
  2
COL
 70
    64
  3
Solid line (for MAPS)
 72
    65
 73
     0
 40
0.0
  0
LTYPE
  5
25
100
AcDbSymbolTableRecord
100
AcDbLinetypeTableRecord
  2
LGN
 70
    64
  3
Solid line (for MAPS)
 72
    65
 73
     0
 40
0.0
  0
LTYPE
  5
26
100
AcDbSymbolTableRecord
100
AcDbLinetypeTableRecord
  2
PNT
 70
    64
  3
Solid line (for MAPS)
 72
    65
 73
     0
 40
0.0
  0
ENDTAB
  0
TABLE
  2
LAYER
  5
27
100
AcDbSymbolTable
 70
    32
  0
LAYER
  5
28
100
AcDbSymbolTableRecord
100
AcDbLayerTableRecord
  2
Standard
 70
     0
 62
     7
  6
CONTINUOUS
370
    -3
  0
LAYER
  5
29
100
AcDbSymbolTableRecord
100
AcDbLayerTableRecord
  2
Ech.1_1
 70
     0
 62
     7
  6
CONTINUOUS
370
    -3
  0
LAYER
  5
2A
100
AcDbSymbolTableRecord
100
AcDbLayerTableRecord
  2
Ech.1_2
 70
     0
 62
     7
  6
CONTINUOUS
370
    -3
  0
LAYER
  5
2B
100
AcDbSymbolTableRecord
100
AcDbLayerTableRecord
  2
Ech.1_5
 70
     0
 62
     7
  6
CONTINUOUS
370
    -3
  0
LAYER
  5
2C
100
AcDbSymbolTableRecord
100
AcDbLayerTableRecord
  2
Ech.1_10
 70
     0
 62
     7
  6
CONTINUOUS
370
    -3
  0
LAYER
  5
2D
100
AcDbSymbolTableRecord
100
AcDbLayerTableRecord
  2
Ech.1_20
 70
     0
 62
     7
  6
CONTINUOUS
370
    -3
  0
LAYER
  5
2E
100
AcDbSymbolTableRecord
100
AcDbLayerTableRecord
  2
Ech.1_25
 70
     0
 62
     7
  6
CONTINUOUS
370
    -3
  0
LAYER
  5
2F
100
AcDbSymbolTableRecord
100
AcDbLayerTableRecord
  2
Ech.1_33
 70
     0
 62
     7
  6
CONTINUOUS
370
    -3
  0
LAYER
  5
30
100
AcDbSymbolTableRecord
100
AcDbLayerTableRecord
  2
Ech.1_50
 70
     0
 62
     7
  6
CONTINUOUS
370
    -3
  0
LAYER
  5
31
100
AcDbSymbolTableRecord
100
AcDbLayerTableRecord
  2
Ech.1_75
 70
     0
 62
     7
  6
CONTINUOUS
370
    -3
  0
LAYER
  5
32
100
AcDbSymbolTableRecord
100
AcDbLayerTableRecord
  2
Ech.1_100
 70
     0
 62
     7
  6
CONTINUOUS
370
    -3
  0
LAYER
  5
33
100
AcDbSymbolTableRecord
100
AcDbLayerTableRecord
  2
Ech.1_200
 70
     0
 62
     7
  6
CONTINUOUS
370
    -3
  0
LAYER
  5
34
100
AcDbSymbolTableRecord
100
AcDbLayerTableRecord
  2
Ech.1_500
 70
     0
 62
     7
  6
CONTINUOUS
370
    -3
  0
LAYER
  5
35
100
AcDbSymbolTableRecord
100
AcDbLayerTableRecord
  2
Ech.1_1000
 70
     0
 62
     7
  6
CONTINUOUS
370
    -3
  0
LAYER
  5
36
100
AcDbSymbolTableRecord
100
AcDbLayerTableRecord
  2
Cadres traceur
 70
     0
 62
     7
  6
CONTINUOUS
370
    18
  0
LAYER
  5
37
100
AcDbSymbolTableRecord
100
AcDbLayerTableRecord
  2
Cadres laser
 70
     0
 62
     7
  6
CONTINUOUS
370
    18
  0
LAYER
  5
38
100
AcDbSymbolTableRecord
100
AcDbLayerTableRecord
  2
Légende d_aide
 70
     0
 62
     7
  6
CONTINUOUS
370
    18
  0
LAYER
  5
39
100
AcDbSymbolTableRecord
100
AcDbLayerTableRecord
  2
hachures ok
 70
     0
 62
     7
  6
CONTINUOUS
370
    18
  0
LAYER
  5
3A
100
AcDbSymbolTableRecord
100
AcDbLayerTableRecord
  2
ossature bois
 70
     0
 62
     7
  6
CONTINUOUS
370
    18
  0
LAYER
  5
3B
100
AcDbSymbolTableRecord
100
AcDbLayerTableRecord
  2
VR
 70
     0
 62
     7
  6
CONTINUOUS
370
    25
  0
LAYER
  5
3C
100
AcDbSymbolTableRecord
100
AcDbLayerTableRecord
  2
Calque1
 70
     0
 62
     7
  6
CONTINUOUS
370
     9
  0
LAYER
  5
3D
100
AcDbSymbolTableRecord
100
AcDbLayerTableRecord
  2
0
 70
     0
 62
     7
  6
CONTINUOUS
370
    -3
  0
LAYER
  5
3E
100
AcDbSymbolTableRecord
100
AcDbLayerTableRecord
  2
menuiserie
 70
     0
 62
     7
  6
CONTINUOUS
370
    -3
  0
LAYER
  5
3F
100
AcDbSymbolTableRecord
100
AcDbLayerTableRecord
  2
cotation
 70
     0
 62
   250
  6
CONTINUOUS
370
     9
  0
LAYER
  5
40
100
AcDbSymbolTableRecord
100
AcDbLayerTableRecord
  2
Defpoints
 70
     0
 62
    10
  6
CONTINUOUS
370
    -3
  0
LAYER
  5
41
100
AcDbSymbolTableRecord
100
AcDbLayerTableRecord
  2
HACHURE
 70
     0
 62
   254
  6
CONTINUOUS
370
    25
  0
LAYER
  5
42
100
AcDbSymbolTableRecord
100
AcDbLayerTableRecord
  2
mat1
 70
     0
 62
     7
  6
CONTINUOUS
370
    30
  0
LAYER
  5
43
100
AcDbSymbolTableRecord
100
AcDbLayerTableRecord
  2
mat2
 70
     0
 62
     7
  6
CONTINUOUS
370
     5
  0
LAYER
  5
44
100
AcDbSymbolTableRecord
100
AcDbLayerTableRecord
  2
hach
 70
     0
 62
     8
  6
CONTINUOUS
370
     5
  0
LAYER
  5
45
100
AcDbSymbolTableRecord
100
AcDbLayerTableRecord
  2
menuiseries
 70
     0
 62
     7
  6
CONTINUOUS
370
     9
  0
LAYER
  5
46
100
AcDbSymbolTableRecord
100
AcDbLayerTableRecord
  2
BétonMétal
 70
     0
 62
     7
  6
CONTINUOUS
370
    80
  0
LAYER
  5
47
100
AcDbSymbolTableRecord
100
AcDbLayerTableRecord
  2
bois
 70
     0
 62
     7
  6
CONTINUOUS
370
    60
  0
ENDTAB
  0
TABLE
  2
VIEW
  5
48
100
AcDbSymbolTable
 70
     0
  0
ENDTAB
  0
TABLE
  2
UCS
  5
49
100
AcDbSymbolTable
 70
     0
  0
ENDTAB
  0
TABLE
  2
APPID
  5
4A
100
AcDbSymbolTable
 70
     1
  0
APPID
  5
4B
100
AcDbSymbolTableRecord
100
AcDbRegAppTableRecord
  2
ACAD
 70
     0
  0
ENDTAB
  0
TABLE
  2
DIMSTYLE
  5
4C
100
AcDbSymbolTable
 70
     0
  0
ENDTAB
  0
TABLE
  2
BLOCK_RECORD
  5
4D
100
AcDbSymbolTable
 70
     0
  0
BLOCK_RECORD
  5
4E
100
AcDbSymbolTableRecord
100
AcDbBlockTableRecord
  2
*MODEL_SPACE
  0
BLOCK_RECORD
  5
4F
100
AcDbSymbolTableRecord
100
AcDbBlockTableRecord
  2
*PAPER_SPACE
  0
BLOCK_RECORD
  5
50
100
AcDbSymbolTableRecord
100
AcDbBlockTableRecord
  2
CDWK_EXTR_0
  0
BLOCK_RECORD
  5
51
100
AcDbSymbolTableRecord
100
AcDbBlockTableRecord
  2
CDWK_EXTR_1D
  0
BLOCK_RECORD
  5
52
100
AcDbSymbolTableRecord
100
AcDbBlockTableRecord
  2
CDWK_EXTR_1G
  0
BLOCK_RECORD
  5
53
100
AcDbSymbolTableRecord
100
AcDbBlockTableRecord
  2
CDWK_EXTR_2
  0
BLOCK_RECORD
  5
54
100
AcDbSymbolTableRecord
100
AcDbBlockTableRecord
  2
CDWK_EXTR_3
  0
BLOCK_RECORD
  5
55
100
AcDbSymbolTableRecord
100
AcDbBlockTableRecord
  2
CDWK_EXTR_4
  0
BLOCK_RECORD
  5
56
100
AcDbSymbolTableRecord
100
AcDbBlockTableRecord
  2
CDWK_PTTYP0
  0
BLOCK_RECORD
  5
57
100
AcDbSymbolTableRecord
100
AcDbBlockTableRecord
  2
*X1
  0
BLOCK_RECORD
  5
58
100
AcDbSymbolTableRecord
100
AcDbBlockTableRecord
  2
*D3
  0
BLOCK_RECORD
  5
59
100
AcDbSymbolTableRecord
100
AcDbBlockTableRecord
  2
*D4
  0
BLOCK_RECORD
  5
5A
100
AcDbSymbolTableRecord
100
AcDbBlockTableRecord
  2
*D6
  0
BLOCK_RECORD
  5
5B
100
AcDbSymbolTableRecord
100
AcDbBlockTableRecord
  2
*D7
  0
BLOCK_RECORD
  5
5C
100
AcDbSymbolTableRecord
100
AcDbBlockTableRecord
  2
*D10
  0
ENDTAB
  0
ENDSEC
  0
SECTION
  2
BLOCKS
  0
BLOCK
  5
5D
100
AcDbEntity
  8
0
100
AcDbBlockBegin
  2
*MODEL_SPACE
 70
     0
 10
0.0
 20
0.0
 30
0.0
  3
*MODEL_SPACE
  1

  0
ENDBLK
  5
5E
100
AcDbEntity
100
AcDbBlockEnd
  0
BLOCK
  5
5F
100
AcDbEntity
  8
0
100
AcDbBlockBegin
  2
*PAPER_SPACE
 70
     0
 10
0.0
 20
0.0
 30
0.0
  3
*PAPER_SPACE
  1

  0
ENDBLK
  5
60
100
AcDbEntity
100
AcDbBlockEnd
  0
BLOCK
  5
61
100
AcDbEntity
  8
0
100
AcDbBlockBegin
  2
CDWK_EXTR_0
 70
     0
 10
0.0
 20
0.0
 30
0.0
  3
CDWK_EXTR_0
  1

  4
Cadwork line-extremity
  0
LINE
  5
62
100
AcDbEntity
  8
0
 62
     0
370
    -2
100
AcDbLine
 10
0.0
 20
0.0
 30
0.0
 11
2.0
 21
0.5
 31
0.0
  0
LINE
  5
63
100
AcDbEntity
  8
0
 62
     0
370
    -2
100
AcDbLine
 10
0.0
 20
0.0
 30
0.0
 11
2.0
 21
-0.5
 31
0.0
  0
LINE
  5
64
100
AcDbEntity
  8
0
 62
     0
370
    -2
100
AcDbLine
 10
2.0
 20
0.5
 30
0.0
 11
2.0
 21
-0.5
 31
0.0
  0
ENDBLK
  5
65
100
AcDbEntity
100
AcDbBlockEnd
  0
BLOCK
  5
66
100
AcDbEntity
  8
0
100
AcDbBlockBegin
  2
CDWK_EXTR_1D
 70
     0
 10
0.0
 20
0.0
 30
0.0
  3
CDWK_EXTR_1D
  1

  4
Cadwork line-extremity
  0
LINE
  5
67
100
AcDbEntity
  8
0
 62
     0
370
    -2
100
AcDbLine
 10
0.0
 20
0.0
 30
0.0
 11
0.0
 21
1.0
 31
0.0
  0
LINE
  5
68
100
AcDbEntity
  8
0
 62
     0
370
    -2
100
AcDbLine
 10
0.0
 20
1.0
 30
0.0
 11
0.5
 21
1.5
 31
0.0
  0
LINE
  5
69
100
AcDbEntity
  8
0
 62
     0
370
    -2
100
AcDbLine
 10
0.5
 20
1.5
 30
0.0
 11
1.5
 21
1.5
 31
0.0
  0
ENDBLK
  5
6A
100
AcDbEntity
100
AcDbBlockEnd
  0
BLOCK
  5
6B
100
AcDbEntity
  8
0
100
AcDbBlockBegin
  2
CDWK_EXTR_1G
 70
     0
 10
0.0
 20
0.0
 30
0.0
  3
CDWK_EXTR_1G
  1

  4
Cadwork line-extremity
  0
LINE
  5
6C
100
AcDbEntity
  8
0
 62
     0
370
    -2
100
AcDbLine
 10
0.0
 20
0.0
 30
0.0
 11
0.0
 21
-1.0
 31
0.0
  0
LINE
  5
6D
100
AcDbEntity
  8
0
 62
     0
370
    -2
100
AcDbLine
 10
0.0
 20
-1.0
 30
0.0
 11
0.5
 21
-1.5
 31
0.0
  0
LINE
  5
6E
100
AcDbEntity
  8
0
 62
     0
370
    -2
100
AcDbLine
 10
0.5
 20
-1.5
 30
0.0
 11
1.5
 21
-1.5
 31
0.0
  0
ENDBLK
  5
6F
100
AcDbEntity
100
AcDbBlockEnd
  0
BLOCK
  5
70
100
AcDbEntity
  8
0
100
AcDbBlockBegin
  2
CDWK_EXTR_2
 70
     0
 10
0.0
 20
0.0
 30
0.0
  3
CDWK_EXTR_2
  1

  4
Cadwork line-extremity
  0
SOLID
  5
71
100
AcDbEntity
  8
0
 62
     0
100
AcDbTrace
 10
0.0
 20
0.0
 11
2.0
 21
0.5
 12
2.0
 22
-0.5
 13
2.0
 23
-0.5
  0
ENDBLK
  5
72
100
AcDbEntity
100
AcDbBlockEnd
  0
BLOCK
  5
73
100
AcDbEntity
  8
0
100
AcDbBlockBegin
  2
CDWK_EXTR_3
 70
     0
 10
0.0
 20
0.0
 30
0.0
  3
CDWK_EXTR_3
  1

  4
Cadwork line-extremity
  0
SOLID
  5
74
100
AcDbEntity
  8
0
 62
     0
100
AcDbTrace
 10
0.0
 20
0.0
 11
2.0
 21
0.5
 12
2.0
 22
-0.5
 13
2.0
 23
-0.5
  0
LINE
  5
75
100
AcDbEntity
  8
0
 62
     0
370
    -2
100
AcDbLine
 10
0.0
 20
1.0
 30
0.0
 11
0.0
 21
-1.0
 31
0.0
  0
ENDBLK
  5
76
100
AcDbEntity
100
AcDbBlockEnd
  0
BLOCK
  5
77
100
AcDbEntity
  8
0
100
AcDbBlockBegin
  2
CDWK_EXTR_4
 70
     0
 10
0.0
 20
0.0
 30
0.0
  3
CDWK_EXTR_4
  1

  4
Cadwork line-extremity
  0
HATCH
  5
78
100
AcDbEntity
  8
0
 62
     0
370
    20
100
AcDbHatch
 10
0.0
 20
0.0
 30
0.0
210
0.0
220
0.0
230
1.0
  2
SOLID
 70
     1
 71
     0
 91
        1
 92
        1
 93
        1
 72
     2
 10
0.0
 20
0.0
 40
0.5
 50
0.0
 51
360.0
 73
     1
 97
        0
 75
     0
 76
     1
 98
        1
 10
0.0
 20
0.0
  0
ENDBLK
  5
79
100
AcDbEntity
100
AcDbBlockEnd
  0
BLOCK
  5
7A
100
AcDbEntity
  8
0
100
AcDbBlockBegin
  2
CDWK_PTTYP0
 70
     0
 10
0.0
 20
0.0
 30
0.0
  3
CDWK_PTTYP0
  1

  4
Cadwork point
  0
POINT
  5
7B
100
AcDbEntity
  8
0
 62
     0
100
AcDbPoint
 10
0.0
 20
0.0
 30
0.0
  0
ENDBLK
  5
7C
100
AcDbEntity
100
AcDbBlockEnd
  0
BLOCK
  5
7D
100
AcDbEntity
  8
Ech.1_5
100
AcDbBlockBegin
  2
*X1
 70
     1
 10
0.0
 20
0.0
 30
0.0
  3
*X1
  1

  4
Cadwork hatch
  0
LINE
  5
7E
100
AcDbEntity
  8
Ech.1_5
 62
     7
  6
CONTINUOUS
370
    -2
100
AcDbLine
 10
15120.71666779
 20
2512.69869326
 30
0.0
 11
15347.53633054
 21
2456.00535467
 31
0.0
  0
LINE
  5
7F
100
AcDbEntity
  8
Ech.1_5
 62
     7
  6
CONTINUOUS
370
    -2
100
AcDbLine
 10
15120.71666779
 20
2456.00535467
 30
0.0
 11
15347.53633054
 21
2512.69958381
 31
0.0
  0
ENDBLK
  5
80
100
AcDbEntity
100
AcDbBlockEnd
  0
BLOCK
  5
81
100
AcDbEntity
  8
Ech.1_5
100
AcDbBlockBegin
  2
*D3
 70
     1
 10
0.0
 20
0.0
 30
0.0
  3
*D3
  1

  4
Cadwork dimension
  0
TEXT
  5
82
100
AcDbEntity
  8
Ech.1_5
 62
     7
370
    18
100
AcDbText
 10
15303.22879619
 20
2653.50497276
 30
0.0
 40
12.5
  1
ressaut max +20
  7
ARIAL
 50
0.0
 41
1.0
 51
0.0
100
AcDbText
  0
LINE
  5
83
100
AcDbEntity
  8
Ech.1_5
 62
     7
370
    -2
100
AcDbLine
 10
15364.35610924
 20
2636.00497276
 30
0.0
 11
15351.85610924
 21
2648.50497276
 31
0.0
  0
LINE
  5
84
100
AcDbEntity
  8
Ech.1_5
 62
     7
370
    -2
100
AcDbLine
 10
15351.85610924
 20
2648.50497276
 30
0.0
 11
15376.85610924
 21
2648.50497276
 31
0.0
  0
LINE
  5
85
100
AcDbEntity
  8
Ech.1_5
 62
     7
370
    -2
100
AcDbLine
 10
15376.85610924
 20
2648.50497276
 30
0.0
 11
15364.35610924
 21
2636.00497276
 31
0.0
  0
LINE
  5
86
100
AcDbEntity
  8
Ech.1_5
 62
     7
370
    -2
100
AcDbLine
 10
15376.85610924
 20
2636.00497276
 30
0.0
 11
15314.35610924
 21
2636.00497276
 31
0.0
  0
ENDBLK
  5
87
100
AcDbEntity
100
AcDbBlockEnd
  0
BLOCK
  5
88
100
AcDbEntity
  8
Ech.1_5
100
AcDbBlockBegin
  2
*D4
 70
     1
 10
0.0
 20
0.0
 30
0.0
  3
*D4
  1

  4
Cadwork dimension
  0
TEXT
  5
89
100
AcDbEntity
  8
Ech.1_5
 62
     7
370
    18
100
AcDbText
 10
15396.54296285
 20
2633.50497276
 30
0.0
 40
12.5
  1
niv sol int fini %%P 0
  7
ARIAL
 50
0.0
 41
1.0
 51
0.0
100
AcDbText
  0
LINE
  5
8A
100
AcDbEntity
  8
Ech.1_5
 62
     7
370
    -2
100
AcDbLine
 10
15458.84804166
 20
2616.00497276
 30
0.0
 11
15446.34804166
 21
2628.50497276
 31
0.0
  0
LINE
  5
8B
100
AcDbEntity
  8
Ech.1_5
 62
     7
370
    -2
100
AcDbLine
 10
15446.34804166
 20
2628.50497276
 30
0.0
 11
15471.34804166
 21
2628.50497276
 31
0.0
  0
LINE
  5
8C
100
AcDbEntity
  8
Ech.1_5
 62
     7
370
    -2
100
AcDbLine
 10
15471.34804166
 20
2628.50497276
 30
0.0
 11
15458.84804166
 21
2616.00497276
 31
0.0
  0
LINE
  5
8D
100
AcDbEntity
  8
Ech.1_5
 62
     7
370
    -2
100
AcDbLine
 10
15446.34804166
 20
2616.00497276
 30
0.0
 11
15508.84804166
 21
2616.00497276
 31
0.0
  0
ENDBLK
  5
8E
100
AcDbEntity
100
AcDbBlockEnd
  0
BLOCK
  5
8F
100
AcDbEntity
  8
Ech.1_5
100
AcDbBlockBegin
  2
*D6
 70
     1
 10
0.0
 20
0.0
 30
0.0
  3
*D6
  1

  4
Cadwork dimension
  0
TEXT
  5
90
100
AcDbEntity
  8
Ech.1_5
 62
     7
370
    18
100
AcDbText
 10
13993.21386163
 20
2655.11997446
 30
0.0
 40
12.5
  1
niv sol int fini %%P 0
  7
ARIAL
 50
0.0
 41
1.0
 51
0.0
100
AcDbText
  0
LINE
  5
91
100
AcDbEntity
  8
Ech.1_5
 62
     7
370
    -2
100
AcDbLine
 10
14055.51894045
 20
2637.61997446
 30
0.0
 11
14043.01894045
 21
2650.11997446
 31
0.0
  0
LINE
  5
92
100
AcDbEntity
  8
Ech.1_5
 62
     7
370
    -2
100
AcDbLine
 10
14043.01894045
 20
2650.11997446
 30
0.0
 11
14068.01894045
 21
2650.11997446
 31
0.0
  0
LINE
  5
93
100
AcDbEntity
  8
Ech.1_5
 62
     7
370
    -2
100
AcDbLine
 10
14068.01894045
 20
2650.11997446
 30
0.0
 11
14055.51894045
 21
2637.61997446
 31
0.0
  0
LINE
  5
94
100
AcDbEntity
  8
Ech.1_5
 62
     7
370
    -2
100
AcDbLine
 10
14043.01894045
 20
2637.61997446
 30
0.0
 11
14105.51894045
 21
2637.61997446
 31
0.0
  0
ENDBLK
  5
95
100
AcDbEntity
100
AcDbBlockEnd
  0
BLOCK
  5
96
100
AcDbEntity
  8
Ech.1_5
100
AcDbBlockBegin
  2
*D7
 70
     1
 10
0.0
 20
0.0
 30
0.0
  3
*D7
  1

  4
Cadwork dimension
  0
TEXT
  5
97
100
AcDbEntity
  8
Ech.1_5
 62
     7
370
    18
100
AcDbText
 10
13408.39070719
 20
2215.61484716
 30
0.0
 40
12.5
  1
niveau terrain naturel
  7
ARIAL
 50
0.0
 41
1.0
 51
0.0
100
AcDbText
  0
LINE
  5
98
100
AcDbEntity
  8
Ech.1_5
 62
     7
370
    -2
100
AcDbLine
 10
13487.91430705
 20
2198.11484716
 30
0.0
 11
13475.41430705
 21
2210.61484716
 31
0.0
  0
LINE
  5
99
100
AcDbEntity
  8
Ech.1_5
 62
     7
370
    -2
100
AcDbLine
 10
13475.41430705
 20
2210.61484716
 30
0.0
 11
13500.41430705
 21
2210.61484716
 31
0.0
  0
LINE
  5
9A
100
AcDbEntity
  8
Ech.1_5
 62
     7
370
    -2
100
AcDbLine
 10
13500.41430705
 20
2210.61484716
 30
0.0
 11
13487.91430705
 21
2198.11484716
 31
0.0
  0
LINE
  5
9B
100
AcDbEntity
  8
Ech.1_5
 62
     7
370
    -2
100
AcDbLine
 10
13500.41430705
 20
2198.11484716
 30
0.0
 11
13437.91430705
 21
2198.11484716
 31
0.0
  0
ENDBLK
  5
9C
100
AcDbEntity
100
AcDbBlockEnd
  0
BLOCK
  5
9D
100
AcDbEntity
  8
Ech.1_5
100
AcDbBlockBegin
  2
*D10
 70
     1
 10
0.0
 20
0.0
 30
0.0
  3
*D10
  1

  4
Cadwork dimension
  0
TEXT
  5
9E
100
AcDbEntity
  8
Ech.1_5
 62
     7
370
    18
100
AcDbText
 10
14544.6854778
 20
2633.51259283
 30
0.0
 40
12.5
  1
niveau haut de la rampe naturelle
  7
ARIAL
 50
0.0
 41
1.0
 51
0.0
100
AcDbText
  0
LINE
  5
9F
100
AcDbEntity
  8
Ech.1_5
 62
     7
370
    -2
100
AcDbLine
 10
14593.8537866
 20
2616.01259283
 30
0.0
 11
14581.3537866
 21
2628.51259283
 31
0.0
  0
LINE
  5
A0
100
AcDbEntity
  8
Ech.1_5
 62
     7
370
    -2
100
AcDbLine
 10
14581.3537866
 20
2628.51259283
 30
0.0
 11
14606.3537866
 21
2628.51259283
 31
0.0
  0
LINE
  5
A1
100
AcDbEntity
  8
Ech.1_5
 62
     7
370
    -2
100
AcDbLine
 10
14606.3537866
 20
2628.51259283
 30
0.0
 11
14593.8537866
 21
2616.01259283
 31
0.0
  0
LINE
  5
A2
100
AcDbEntity
  8
Ech.1_5
 62
     7
370
    -2
100
AcDbLine
 10
14606.3537866
 20
2616.01259283
 30
0.0
 11
14543.8537866
 21
2616.01259283
 31
0.0
  0
ENDBLK
  5
A3
100
AcDbEntity
100
AcDbBlockEnd
  0
ENDSEC
  0
SECTION
  2
ENTITIES
  0
INSERT
  5
A4
100
AcDbEntity
  8
Ech.1_5
 62
     0
370
    -3
100
AcDbBlockReference
  2
*X1
 10
0.0
 20
0.0
 30
0.0
  0
LINE
  5
A5
100
AcDbEntity
  8
Ech.1_5
 62
     7
  6
CONTINUOUS
370
    -3
100
AcDbLine
 10
15343.71687247
 20
2786.00497276
 30
-497.52014013
 11
15303.71687247
 21
2786.00497276
 31
-497.52014013
  0
LINE
  5
A6
100
AcDbEntity
  8
Ech.1_5
 62
     7
  6
CONTINUOUS
370
    -3
100
AcDbLine
 10
15343.71687247
 20
2636.00497276
 30
-647.52014013
 11
15343.71687247
 21
2786.00497276
 31
-497.52014013
  0
LINE
  5
A7
100
AcDbEntity
  8
Ech.1_5
 62
     7
  6
CONTINUOUS
370
    -3
100
AcDbLine
 10
15303.71687247
 20
2636.00497276
 30
-647.52014013
 11
15303.71687247
 21
2786.00497276
 31
-497.52014013
  0
LINE
  5
A8
100
AcDbEntity
  8
Ech.1_5
 62
     7
  6
CONTINUOUS
370
    -3
100
AcDbLine
 10
15343.71687247
 20
2636.00497276
 30
-647.52014013
 11
15303.71687247
 21
2636.00497276
 31
-647.52014013
  0
LINE
  5
A9
100
AcDbEntity
  8
Ech.1_5
 62
     7
  6
CONTINUOUS
370
    -3
100
AcDbLine
 10
15343.71687247
 20
3191.83830609
 30
-91.6868068
 11
15303.71687247
 21
3191.83830609
 31
-91.6868068
  0
LINE
  5
AA
100
AcDbEntity
  8
Ech.1_5
 62
     7
  6
CONTINUOUS
370
    -3
100
AcDbLine
 10
15343.71687247
 20
3191.83830609
 30
-91.6868068
 11
15343.71687247
 21
3081.33830609
 31
-202.1868068
  0
LINE
  5
AB
100
AcDbEntity
  8
Ech.1_5
 62
     7
  6
CONTINUOUS
370
    -3
100
AcDbLine
 10
15303.71687247
 20
3191.83830609
 30
-91.6868068
 11
15303.71687247
 21
3081.33830609
 31
-202.1868068
  0
LINE
  5
AC
100
AcDbEntity
  8
Ech.1_5
 62
     7
  6
CONTINUOUS
370
    -3
100
AcDbLine
 10
15343.71687247
 20
3081.33830609
 30
-202.1868068
 11
15303.71687247
 21
3081.33830609
 31
-202.1868068
  0
LINE
  5
AD
100
AcDbEntity
  8
Ech.1_5
 62
     7
  6
CONTINUOUS
370
    -3
100
AcDbLine
 10
15343.71687247
 20
3026.08830609
 30
-257.4368068
 11
15303.71687247
 21
3026.08830609
 31
-257.4368068
  0
LINE
  5
AE
100
AcDbEntity
  8
Ech.1_5
 62
     7
  6
CONTINUOUS
370
    -3
100
AcDbLine
 10
15343.71687247
 20
2841.25497276
 30
-442.27014013
 11
15343.71687247
 21
3026.08830609
 31
-257.4368068
  0
LINE
  5
AF
100
AcDbEntity
  8
Ech.1_5
 62
     7
  6
CONTINUOUS
370
    -3
100
AcDbLine
 10
15303.71687247
 20
3026.08830609
 30
-257.4368068
 11
15303.71687247
 21
2841.25497276
 31
-442.27014013
  0
LINE
  5
B0
100
AcDbEntity
  8
Ech.1_5
 62
     7
  6
CONTINUOUS
370
    -3
100
AcDbLine
 10
15343.71687247
 20
2841.25497276
 30
-442.27014013
 11
15303.71687247
 21
2841.25497276
 31
-442.27014013
  0
LINE
  5
B1
100
AcDbEntity
  8
Ech.1_5
 62
     7
  6
CONTINUOUS
370
    -3
100
AcDbLine
 10
15333.71687247
 20
2841.25497276
 30
-442.27014013
 11
15313.71687247
 21
2841.25497276
 31
-442.27014013
  0
LINE
  5
B2
100
AcDbEntity
  8
Ech.1_5
 62
     7
  6
CONTINUOUS
370
    -3
100
AcDbLine
 10
15333.71687247
 20
2841.25497276
 30
-442.27014013
 11
15333.71687247
 21
2786.00497276
 31
-497.52014013
  0
LINE
  5
B3
100
AcDbEntity
  8
Ech.1_5
 62
     7
  6
CONTINUOUS
370
    -3
100
AcDbLine
 10
15313.71687247
 20
2786.00497276
 30
-497.52014013
 11
15313.71687247
 21
2841.25497276
 31
-442.27014013
  0
LINE
  5
B4
100
AcDbEntity
  8
Ech.1_5
 62
     7
  6
CONTINUOUS
370
    -3
100
AcDbLine
 10
15333.71687247
 20
2786.00497276
 30
-497.52014013
 11
15313.71687247
 21
2786.00497276
 31
-497.52014013
  0
LINE
  5
B5
100
AcDbEntity
  8
Ech.1_5
 62
     7
  6
CONTINUOUS
370
    -3
100
AcDbLine
 10
15333.71687247
 20
3081.33830609
 30
-202.1868068
 11
15313.71687247
 21
3081.33830609
 31
-202.1868068
  0
LINE
  5
B6
100
AcDbEntity
  8
Ech.1_5
 62
     7
  6
CONTINUOUS
370
    -3
100
AcDbLine
 10
15333.71687247
 20
3081.33830609
 30
-202.1868068
 11
15333.71687247
 21
3026.08830609
 31
-257.4368068
  0
LINE
  5
B7
100
AcDbEntity
  8
Ech.1_5
 62
     7
  6
CONTINUOUS
370
    -3
100
AcDbLine
 10
15313.71687247
 20
3081.33830609
 30
-202.1868068
 11
15313.71687247
 21
3026.08830609
 31
-257.4368068
  0
LINE
  5
B8
100
AcDbEntity
  8
Ech.1_5
 62
     7
  6
CONTINUOUS
370
    -3
100
AcDbLine
 10
15333.71687247
 20
3026.08830609
 30
-257.4368068
 11
15313.71687247
 21
3026.08830609
 31
-257.4368068
  0
LINE
  5
B9
100
AcDbEntity
  8
Ech.1_5
 62
     7
  6
CONTINUOUS
370
    -3
100
AcDbLine
 10
15326.71687247
 20
3191.83830609
 30
-91.6868068
 11
15326.71687247
 21
3261.22955706
 31
-22.29555582
  0
LINE
  5
BA
100
AcDbEntity
  8
Ech.1_5
 62
     7
  6
CONTINUOUS
370
    -3
100
AcDbLine
 10
15320.71687247
 20
3261.22955706
 30
-22.29555582
 11
15320.71687247
 21
3191.83830609
 31
-91.6868068
  0
LINE
  5
BB
100
AcDbEntity
  8
Ech.1_5
 62
     7
  6
CONTINUOUS
370
    -3
100
AcDbLine
 10
15326.71687247
 20
3191.83830609
 30
-91.6868068
 11
15320.71687247
 21
3191.83830609
 31
-91.6868068
  0
LINE
  5
BC
100
AcDbEntity
  8
Ech.1_5
 62
     7
  6
CONTINUOUS
370
    -3
100
AcDbLine
 10
15345.93684956
 20
2618.50497276
 30
-665.02014013
 11
15339.44371661
 21
2618.50497276
 31
-665.02014013
  0
LINE
  5
BD
100
AcDbEntity
  8
Ech.1_5
 62
     7
  6
CONTINUOUS
370
    -3
100
AcDbLine
 10
15345.93684956
 20
2616.00497276
 30
-667.52014013
 11
15345.93684956
 21
2618.50497276
 31
-665.02014013
  0
LINE
  5
BE
100
AcDbEntity
  8
Ech.1_5
 62
     7
  6
CONTINUOUS
370
    -3
100
AcDbLine
 10
15347.53684956
 20
2616.00497276
 30
-667.52014013
 11
15345.93684956
 21
2616.00497276
 31
-667.52014013
  0
LINE
  5
BF
100
AcDbEntity
  8
Ech.1_5
 62
     7
  6
CONTINUOUS
370
    -3
100
AcDbLine
 10
15347.53684956
 20
2619.00497276
 30
-664.52014013
 11
15347.53684956
 21
2616.00497276
 31
-667.52014013
  0
LINE
  5
C0
100
AcDbEntity
  8
Ech.1_5
 62
     7
  6
CONTINUOUS
370
    -3
100
AcDbLine
 10
15347.53684956
 20
2619.00497276
 30
-664.52014013
 11
15347.46072909
 21
2619.38765619
 31
-664.1374567
  0
LINE
  5
C1
100
AcDbEntity
  8
Ech.1_5
 62
     7
  6
CONTINUOUS
370
    -3
100
AcDbLine
 10
15347.46072909
 20
2619.38765619
 30
-664.1374567
 11
15347.24395634
 21
2619.71207954
 31
-663.81303335
  0
LINE
  5
C2
100
AcDbEntity
  8
Ech.1_5
 62
     7
  6
CONTINUOUS
370
    -3
100
AcDbLine
 10
15347.24395634
 20
2619.71207954
 30
-663.81303335
 11
15346.91953299
 21
2619.92885229
 31
-663.5962606
  0
LINE
  5
C3
100
AcDbEntity
  8
Ech.1_5
 62
     7
  6
CONTINUOUS
370
    -3
100
AcDbLine
 10
15346.91953299
 20
2619.92885229
 30
-663.5962606
 11
15346.53684956
 21
2620.00497276
 31
-663.52014013
  0
LINE
  5
C4
100
AcDbEntity
  8
Ech.1_5
 62
     7
  6
CONTINUOUS
370
    -3
100
AcDbLine
 10
15342.53684956
 20
2636.00497276
 30
-647.52014013
 11
15342.53684956
 21
2633.08075331
 31
-650.44435958
  0
LINE
  5
C5
100
AcDbEntity
  8
Ech.1_5
 62
     7
  6
CONTINUOUS
370
    -3
100
AcDbLine
 10
15342.53684956
 20
2620.00497276
 30
-663.52014013
 11
15342.5311199
 21
2622.97504867
 31
-660.55006422
  0
LINE
  5
C6
100
AcDbEntity
  8
Ech.1_5
 62
     7
  6
CONTINUOUS
370
    -3
100
AcDbLine
 10
15342.5311199
 20
2622.97504867
 30
-660.55006422
 11
15342.35264289
 21
2623.193449
 31
-660.33166389
  0
LINE
  5
C7
100
AcDbEntity
  8
Ech.1_5
 62
     7
  6
CONTINUOUS
370
    -3
100
AcDbLine
 10
15342.35264289
 20
2623.193449
 30
-660.33166389
 11
15341.55264289
 21
2623.52816935
 31
-659.99694354
  0
LINE
  5
C8
100
AcDbEntity
  8
Ech.1_5
 62
     7
  6
CONTINUOUS
370
    -3
100
AcDbLine
 10
15341.55264289
 20
2623.52816935
 30
-659.99694354
 11
15341.29358763
 21
2623.51499997
 31
-660.01011292
  0
LINE
  5
C9
100
AcDbEntity
  8
Ech.1_5
 62
     7
  6
CONTINUOUS
370
    -3
100
AcDbLine
 10
15341.29358763
 20
2623.51499997
 30
-660.01011292
 11
15341.13684956
 21
2623.25141693
 31
-660.27369596
  0
LINE
  5
CA
100
AcDbEntity
  8
Ech.1_5
 62
     7
  6
CONTINUOUS
370
    -3
100
AcDbLine
 10
15341.13684956
 20
2621.42343724
 30
-662.10167565
 11
15341.13684956
 21
2623.25141693
 31
-660.27369596
  0
LINE
  5
CB
100
AcDbEntity
  8
Ech.1_5
 62
     7
  6
CONTINUOUS
370
    -3
100
AcDbLine
 10
15341.13684956
 20
2621.42343724
 30
-662.10167565
 11
15337.72204453
 21
2622.8378958
 31
-660.68721709
  0
LINE
  5
CC
100
AcDbEntity
  8
Ech.1_5
 62
     7
  6
CONTINUOUS
370
    -3
100
AcDbLine
 10
15337.72204453
 20
2622.8378958
 30
-660.68721709
 11
15337.58740867
 21
2622.94838859
 31
-660.5767243
  0
LINE
  5
CD
100
AcDbEntity
  8
Ech.1_5
 62
     7
  6
CONTINUOUS
370
    -3
100
AcDbLine
 10
15337.58740867
 20
2622.94838859
 30
-660.5767243
 11
15337.54261397
 21
2623.05653256
 31
-660.46858033
  0
LINE
  5
CE
100
AcDbEntity
  8
Ech.1_5
 62
     7
  6
CONTINUOUS
370
    -3
100
AcDbLine
 10
15302.95983443
 20
2616.0278089
 30
-667.49730399
 11
15301.35983443
 21
2616.0278089
 31
-667.49730399
  0
LINE
  5
CF
100
AcDbEntity
  8
Ech.1_5
 62
     7
  6
CONTINUOUS
370
    -3
100
AcDbLine
 10
15339.44371661
 20
2618.50497276
 30
-665.02014013
 11
15339.3891429
 21
2618.50997833
 31
-665.01513456
  0
LINE
  5
D0
100
AcDbEntity
  8
Ech.1_5
 62
     7
  6
CONTINUOUS
370
    -3
100
AcDbLine
 10
15339.3891429
 20
2618.50997833
 30
-665.01513456
 11
15339.28721931
 21
2618.54902629
 31
-664.9760866
  0
LINE
  5
D1
100
AcDbEntity
  8
Ech.1_5
 62
     7
  6
CONTINUOUS
370
    -3
100
AcDbLine
 10
15316.20983443
 20
2618.50497276
 30
-665.02014013
 11
15302.95983443
 21
2618.50497276
 31
-665.02014013
  0
LINE
  5
D2
100
AcDbEntity
  8
Ech.1_5
 62
     7
  6
CONTINUOUS
370
    -3
100
AcDbLine
 10
15316.20983443
 20
2616.00497276
 30
-667.52014013
 11
15316.20983443
 21
2618.50497276
 31
-665.02014013
  0
LINE
  5
D3
100
AcDbEntity
  8
Ech.1_5
 62
     7
  6
CONTINUOUS
370
    -3
100
AcDbLine
 10
15317.80983443
 20
2616.00497276
 30
-667.52014013
 11
15316.20983443
 21
2616.00497276
 31
-667.52014013
  0
LINE
  5
D4
100
AcDbEntity
  8
Ech.1_5
 62
     7
  6
CONTINUOUS
370
    -3
100
AcDbLine
 10
15317.80983443
 20
2618.50497276
 30
-665.02014013
 11
15317.80983443
 21
2616.00497276
 31
-667.52014013
  0
LINE
  5
D5
100
AcDbEntity
  8
Ech.1_5
 62
     7
  6
CONTINUOUS
370
    -3
100
AcDbLine
 10
15331.05983443
 20
2618.50497276
 30
-665.02014013
 11
15317.80983443
 21
2618.50497276
 31
-665.02014013
  0
LINE
  5
D6
100
AcDbEntity
  8
Ech.1_5
 62
     7
  6
CONTINUOUS
370
    -3
100
AcDbLine
 10
15331.05983443
 20
2616.00497276
 30
-667.52014013
 11
15331.05983443
 21
2618.50497276
 31
-665.02014013
  0
LINE
  5
D7
100
AcDbEntity
  8
Ech.1_5
 62
     7
  6
CONTINUOUS
370
    -3
100
AcDbLine
 10
15332.65983443
 20
2616.00497276
 30
-667.52014013
 11
15331.05983443
 21
2616.00497276
 31
-667.52014013
  0
LINE
  5
D8
100
AcDbEntity
  8
Ech.1_5
 62
     7
  6
CONTINUOUS
370
    -3
100
AcDbLine
 10
15271.93677832
 20
2619.08626138
 30
-664.4388515
 11
15271.68764738
 21
2618.81438267
 31
-664.71073022
  0
LINE
  5
D9
100
AcDbEntity
  8
Ech.1_5
 62
     7
  6
CONTINUOUS
370
    -3
100
AcDbLine
 10
15334.03421089
 20
2618.55808149
 30
-664.9670314
 11
15332.65983443
 21
2618.50497276
 31
-665.02014013
  0
LINE
  5
DA
100
AcDbEntity
  8
Ech.1_5
 62
     7
  6
CONTINUOUS
370
    -3
100
AcDbLine
 10
15334.46619338
 20
2619.70411368
 30
-663.82099921
 11
15334.03421089
 21
2618.55808149
 31
-664.9670314
  0
LINE
  5
DB
100
AcDbEntity
  8
Ech.1_5
 62
     7
  6
CONTINUOUS
370
    -3
100
AcDbLine
 10
15335.49261419
 20
2620.71576377
 30
-662.80934912
 11
15334.46619338
 21
2619.70411368
 31
-663.82099921
  0
LINE
  5
DC
100
AcDbEntity
  8
Ech.1_5
 62
     7
  6
CONTINUOUS
370
    -3
100
AcDbLine
 10
15336.42038874
 20
2620.99347949
 30
-662.5316334
 11
15335.49261419
 21
2620.71576377
 31
-662.80934912
  0
LINE
  5
DD
100
AcDbEntity
  8
Ech.1_5
 62
     7
  6
CONTINUOUS
370
    -3
100
AcDbLine
 10
15336.90692106
 20
2620.99273243
 30
-662.53238046
 11
15336.42038874
 21
2620.99347949
 31
-662.5316334
  0
LINE
  5
DE
100
AcDbEntity
  8
Ech.1_5
 62
     7
  6
CONTINUOUS
370
    -3
100
AcDbLine
 10
15337.83383839
 20
2620.71216888
 30
-662.81294401
 11
15336.90692106
 21
2620.99273243
 31
-662.53238046
  0
LINE
  5
DF
100
AcDbEntity
  8
Ech.1_5
 62
     7
  6
CONTINUOUS
370
    -3
100
AcDbLine
 10
15338.58458155
 20
2620.10038759
 30
-663.4247253
 11
15337.83383839
 21
2620.71216888
 31
-662.81294401
  0
LINE
  5
E0
100
AcDbEntity
  8
Ech.1_5
 62
     7
  6
CONTINUOUS
370
    -3
100
AcDbLine
 10
15339.04649204
 20
2619.24919411
 30
-664.27591878
 11
15338.58458155
 21
2620.10038759
 31
-663.4247253
  0
LINE
  5
E1
100
AcDbEntity
  8
Ech.1_5
 62
     7
  6
CONTINUOUS
370
    -3
100
AcDbLine
 10
15339.28721931
 20
2618.54902629
 30
-664.9760866
 11
15339.04649204
 21
2619.24919411
 31
-664.27591878
  0
LINE
  5
E2
100
AcDbEntity
  8
Ech.1_5
 62
     7
  6
CONTINUOUS
370
    -3
100
AcDbLine
 10
15337.54261397
 20
2623.05653256
 30
-660.46858033
 11
15337.53684956
 21
2634.19920834
 31
-649.32590455
  0
LINE
  5
E3
100
AcDbEntity
  8
Ech.1_5
 62
     7
  6
CONTINUOUS
370
    -3
100
AcDbLine
 10
15302.95983443
 20
2618.50497276
 30
-665.02014013
 11
15302.95983443
 21
2616.0278089
 31
-667.49730399
  0
LINE
  5
E4
100
AcDbEntity
  8
Ech.1_5
 62
     7
  6
CONTINUOUS
370
    -3
100
AcDbLine
 10
15301.35983443
 20
2616.0278089
 30
-667.49730399
 11
15301.35983443
 21
2618.50497276
 31
-665.02014013
  0
LINE
  5
E5
100
AcDbEntity
  8
Ech.1_5
 62
     7
  6
CONTINUOUS
370
    -3
100
AcDbLine
 10
15334.53684956
 20
2634.20497276
 30
-649.32014013
 11
15329.23684956
 21
2634.20497276
 31
-649.32014013
  0
LINE
  5
E6
100
AcDbEntity
  8
Ech.1_5
 62
     7
  6
CONTINUOUS
370
    -3
100
AcDbLine
 10
15337.53684956
 20
2634.19920834
 30
-649.32590455
 11
15334.53684956
 21
2634.20497276
 31
-649.32014013
  0
LINE
  5
E7
100
AcDbEntity
  8
Ech.1_5
 62
     7
  6
CONTINUOUS
370
    -3
100
AcDbLine
 10
15334.53684956
 20
2621.00497276
 30
-662.52014013
 11
15334.53684956
 21
2634.20497276
 31
-649.32014013
  0
LINE
  5
E8
100
AcDbEntity
  8
Ech.1_5
 62
     7
  6
CONTINUOUS
370
    -3
100
AcDbLine
 10
15334.53684956
 20
2621.00497276
 30
-662.52014013
 11
15286.50983443
 21
2621.00497276
 31
-662.52014013
  0
LINE
  5
E9
100
AcDbEntity
  8
Ech.1_5
 62
     7
  6
CONTINUOUS
370
    -3
100
AcDbLine
 10
15286.50983443
 20
2620.51261243
 30
-663.01250046
 11
15286.50983443
 21
2621.00497276
 31
-662.52014013
  0
LINE
  5
EA
100
AcDbEntity
  8
Ech.1_5
 62
     7
  6
CONTINUOUS
370
    -3
100
AcDbLine
 10
15286.50983443
 20
2620.51261243
 30
-663.01250046
 11
15272.44969381
 21
2619.28250952
 31
-664.24260337
  0
LINE
  5
EB
100
AcDbEntity
  8
Ech.1_5
 62
     7
  6
CONTINUOUS
370
    -3
100
AcDbLine
 10
15272.44969381
 20
2619.28250952
 30
-664.24260337
 11
15271.93677832
 21
2619.08626138
 31
-664.4388515
  0
LINE
  5
EC
100
AcDbEntity
  8
Ech.1_5
 62
     7
  6
CONTINUOUS
370
    -3
100
AcDbLine
 10
15332.65983443
 20
2618.50497276
 30
-665.02014013
 11
15332.65983443
 21
2616.00497276
 31
-667.52014013
  0
LINE
  5
ED
100
AcDbEntity
  8
Ech.1_5
 62
     7
  6
CONTINUOUS
370
    -3
100
AcDbLine
 10
15271.68764738
 20
2618.81438267
 30
-664.71073022
 11
15271.53684956
 21
2618.28631482
 31
-665.23879807
  0
LINE
  5
EE
100
AcDbEntity
  8
Ech.1_5
 62
     7
  6
CONTINUOUS
370
    -3
100
AcDbLine
 10
15271.53684956
 20
2616.00497276
 30
-667.52014013
 11
15271.53684956
 21
2618.28631482
 31
-665.23879807
  0
LINE
  5
EF
100
AcDbEntity
  8
Ech.1_5
 62
     7
  6
CONTINUOUS
370
    -3
100
AcDbLine
 10
15273.13684956
 20
2616.00497276
 30
-667.52014013
 11
15271.53684956
 21
2616.00497276
 31
-667.52014013
  0
LINE
  5
F0
100
AcDbEntity
  8
Ech.1_5
 62
     7
  6
CONTINUOUS
370
    -3
100
AcDbLine
 10
15273.13684956
 20
2617.33498818
 30
-666.19012471
 11
15273.13684956
 21
2616.00497276
 31
-667.52014013
  0
LINE
  5
F1
100
AcDbEntity
  8
Ech.1_5
 62
     7
  6
CONTINUOUS
370
    -3
100
AcDbLine
 10
15286.50983443
 20
2618.50497276
 30
-665.02014013
 11
15273.13684956
 21
2617.33498818
 31
-666.19012471
  0
LINE
  5
F2
100
AcDbEntity
  8
Ech.1_5
 62
     7
  6
CONTINUOUS
370
    -3
100
AcDbLine
 10
15286.50983443
 20
2616.01073717
 30
-667.51437572
 11
15286.50983443
 21
2618.50497276
 31
-665.02014013
  0
LINE
  5
F3
100
AcDbEntity
  8
Ech.1_5
 62
     7
  6
CONTINUOUS
370
    -3
100
AcDbLine
 10
15288.10983443
 20
2616.01073717
 30
-667.51437572
 11
15286.50983443
 21
2616.01073717
 31
-667.51437572
  0
LINE
  5
F4
100
AcDbEntity
  8
Ech.1_5
 62
     7
  6
CONTINUOUS
370
    -3
100
AcDbLine
 10
15288.10983443
 20
2618.50497276
 30
-665.02014013
 11
15288.10983443
 21
2616.01073717
 31
-667.51437572
  0
LINE
  5
F5
100
AcDbEntity
  8
Ech.1_5
 62
     7
  6
CONTINUOUS
370
    -3
100
AcDbLine
 10
15329.23684956
 20
2634.20497276
 30
-649.32014013
 11
15329.12204453
 21
2634.18213662
 31
-649.34297627
  0
LINE
  5
F6
100
AcDbEntity
  8
Ech.1_5
 62
     7
  6
CONTINUOUS
370
    -3
100
AcDbLine
 10
15329.12204453
 20
2634.18213662
 30
-649.34297627
 11
15328.98740867
 21
2634.07164383
 31
-649.45346906
  0
LINE
  5
F7
100
AcDbEntity
  8
Ech.1_5
 62
     7
  6
CONTINUOUS
370
    -3
100
AcDbLine
 10
15301.35983443
 20
2618.50497276
 30
-665.02014013
 11
15288.10983443
 21
2618.50497276
 31
-665.02014013
  0
LINE
  5
F8
100
AcDbEntity
  8
Ech.1_5
 62
     7
  6
CONTINUOUS
370
    -3
100
AcDbLine
 10
15341.13684956
 20
2634.19920834
 30
-649.32590455
 11
15334.53684956
 21
2634.20497276
 31
-649.32014013
  0
LINE
  5
F9
100
AcDbEntity
  8
Ech.1_5
 62
     7
  6
CONTINUOUS
370
    -3
100
AcDbLine
 10
15341.13684956
 20
2632.74938246
 30
-650.77573043
 11
15341.13684956
 21
2634.19920834
 31
-649.32590455
  0
LINE
  5
FA
100
AcDbEntity
  8
Ech.1_5
 62
     7
  6
CONTINUOUS
370
    -3
100
AcDbLine
 10
15341.24860886
 20
2632.51579
 30
-651.00932289
 11
15341.13684956
 21
2632.74938246
 31
-650.77573043
  0
LINE
  5
FB
100
AcDbEntity
  8
Ech.1_5
 62
     7
  6
CONTINUOUS
370
    -3
100
AcDbLine
 10
15341.44755726
 20
2632.44957361
 30
-651.07553928
 11
15341.24860886
 21
2632.51579
 31
-651.00932289
  0
LINE
  5
FC
100
AcDbEntity
  8
Ech.1_5
 62
     7
  6
CONTINUOUS
370
    -3
100
AcDbLine
 10
15341.55165459
 20
2632.4722186
 30
-651.05289429
 11
15341.44755726
 21
2632.44957361
 31
-651.07553928
  0
LINE
  5
FD
100
AcDbEntity
  8
Ech.1_5
 62
     7
  6
CONTINUOUS
370
    -3
100
AcDbLine
 10
15342.44898159
 20
2632.86862127
 30
-650.65649162
 11
15341.55165459
 21
2632.4722186
 31
-651.05289429
  0
LINE
  5
FE
100
AcDbEntity
  8
Ech.1_5
 62
     7
  6
CONTINUOUS
370
    -3
100
AcDbLine
 10
15342.51401342
 20
2632.96594828
 30
-650.55916461
 11
15342.44898159
 21
2632.86862127
 31
-650.65649162
  0
LINE
  5
FF
100
AcDbEntity
  8
Ech.1_5
 62
     7
  6
CONTINUOUS
370
    -3
100
AcDbLine
 10
15342.53684956
 20
2633.08075331
 30
-650.44435958
 11
15342.51401342
 21
2632.96594828
 31
-650.55916461
  0
LINE
  5
100
100
AcDbEntity
  8
Ech.1_5
 62
     7
  6
CONTINUOUS
370
    -3
100
AcDbLine
 10
15346.53684956
 20
2620.00497276
 30
-663.52014013
 11
15342.53684956
 21
2620.00497276
 31
-663.52014013
  0
LINE
  5
101
100
AcDbEntity
  8
Ech.1_5
 62
     7
  6
CONTINUOUS
370
    -3
100
AcDbLine
 10
15342.53684956
 20
2636.00497276
 30
-647.52014013
 11
15327.53685011
 21
2636.00497276
 31
-647.52014013
  0
LINE
  5
102
100
AcDbEntity
  8
Ech.1_5
 62
     7
  6
CONTINUOUS
370
    -3
100
AcDbLine
 10
15327.53685011
 20
2630.25527513
 30
-653.26983776
 11
15327.53685011
 21
2636.00497276
 31
-647.52014013
  0
LINE
  5
103
100
AcDbEntity
  8
Ech.1_5
 62
     7
  6
CONTINUOUS
370
    -3
100
AcDbLine
 10
15328.03684983
 20
2630.00497276
 30
-653.52014013
 11
15327.53685011
 21
2630.25527513
 31
-653.26983776
  0
LINE
  5
104
100
AcDbEntity
  8
Ech.1_5
 62
     7
  6
CONTINUOUS
370
    -3
100
AcDbLine
 10
15328.43684956
 20
2630.00497276
 30
-653.52014013
 11
15328.03684983
 21
2630.00497276
 31
-653.52014013
  0
LINE
  5
105
100
AcDbEntity
  8
Ech.1_5
 62
     7
  6
CONTINUOUS
370
    -3
100
AcDbLine
 10
15328.79040295
 20
2630.15141937
 30
-653.37369352
 11
15328.43684956
 21
2630.00497276
 31
-653.52014013
  0
LINE
  5
106
100
AcDbEntity
  8
Ech.1_5
 62
     7
  6
CONTINUOUS
370
    -3
100
AcDbLine
 10
15328.93684956
 20
2630.50497276
 30
-653.02014013
 11
15328.79040295
 21
2630.15141937
 31
-653.37369352
  0
LINE
  5
107
100
AcDbEntity
  8
Ech.1_5
 62
     7
  6
CONTINUOUS
370
    -3
100
AcDbLine
 10
15328.93684956
 20
2633.90497276
 30
-649.62014013
 11
15328.93684956
 21
2630.50497276
 31
-653.02014013
  0
LINE
  5
108
100
AcDbEntity
  8
Ech.1_5
 62
     7
  6
CONTINUOUS
370
    -3
100
AcDbLine
 10
15328.98740867
 20
2634.07164383
 30
-649.45346906
 11
15328.93684956
 21
2633.90497276
 31
-649.62014013
  0
LINE
  5
109
100
AcDbEntity
  8
Ech.1_5
 62
     7
  6
CONTINUOUS
370
    -3
100
AcDbLine
 10
15347.53786524
 20
2606.00497276
 30
-677.52014013
 11
15290.71692637
 21
2606.00497276
 31
-677.52014013
  0
LINE
  5
10A
100
AcDbEntity
  8
Ech.1_5
 62
     7
  6
CONTINUOUS
370
    -3
100
AcDbLine
 10
15347.53786524
 20
2606.00497276
 30
-677.52014013
 11
15347.53701843
 21
2616.01073717
 31
-667.51437572
  0
LINE
  5
10B
100
AcDbEntity
  8
Ech.1_5
 62
     7
  6
CONTINUOUS
370
    -3
100
AcDbLine
 10
15347.53701843
 20
2616.01073717
 30
-667.51437572
 11
15290.71692637
 21
2616.01073717
 31
-667.51437572
  0
LINE
  5
10C
100
AcDbEntity
  8
Ech.1_5
 62
     7
  6
CONTINUOUS
370
    -3
100
AcDbLine
 10
15290.71692637
 20
2616.01073717
 30
-667.51437572
 11
15290.71692637
 21
2606.00497276
 31
-677.52014013
  0
LINE
  5
10D
100
AcDbEntity
  8
Ech.1_5
 62
     7
  6
CONTINUOUS
370
    -3
100
AcDbLine
 10
15003.91143603
 20
2492.74091726
 30
-790.78419563
 11
15003.91143603
 21
2552.74091726
 31
-730.78419563
  0
LINE
  5
10E
100
AcDbEntity
  8
Ech.1_5
 62
     7
  6
CONTINUOUS
370
    -3
100
AcDbLine
 10
15003.91143603
 20
2552.74091726
 30
-730.78419563
 11
15002.41143603
 21
2552.74091726
 31
-730.78419563
  0
LINE
  5
10F
100
AcDbEntity
  8
Ech.1_5
 62
     7
  6
CONTINUOUS
370
    -3
100
AcDbLine
 10
15002.41143603
 20
2552.74091726
 30
-730.78419563
 11
15002.41143603
 21
2492.74091726
 31
-790.78419563
  0
LINE
  5
110
100
AcDbEntity
  8
Ech.1_5
 62
     7
  6
CONTINUOUS
370
    -3
100
AcDbLine
 10
15003.91143603
 20
2492.74091726
 30
-790.78419563
 11
15002.41143603
 21
2492.74091726
 31
-790.78419563
  0
LINE
  5
111
100
AcDbEntity
  8
Ech.1_5
 62
     7
  6
CONTINUOUS
370
    -3
100
AcDbLine
 10
15006.65441999
 20
2497.18231782
 30
-786.34279507
 11
15005.36032476
 21
2492.35268869
 31
-791.1724242
  0
LINE
  5
112
100
AcDbEntity
  8
Ech.1_5
 62
     7
  6
CONTINUOUS
370
    -3
100
AcDbLine
 10
15005.36032476
 20
2492.35268869
 30
-791.1724242
 11
15003.91143603
 21
2492.74091726
 31
-790.78419563
  0
LINE
  5
113
100
AcDbEntity
  8
Ech.1_5
 62
     7
  6
CONTINUOUS
370
    -3
100
AcDbLine
 10
15005.20553125
 20
2497.57054639
 30
-785.9545665
 11
15003.91143603
 21
2492.74091726
 31
-790.78419563
  0
LINE
  5
114
100
AcDbEntity
  8
Ech.1_5
 62
     7
  6
CONTINUOUS
370
    -3
100
AcDbLine
 10
15006.65441999
 20
2497.18231782
 30
-786.34279507
 11
15005.20553125
 21
2497.57054639
 31
-785.9545665
  0
LINE
  5
115
100
AcDbEntity
  8
Ech.1_5
 62
     7
  6
CONTINUOUS
370
    -3
100
AcDbLine
 10
15238.71100367
 20
2579.61208055
 30
-703.91303234
 11
15031.64746822
 21
2554.18787527
 31
-729.33723762
  0
LINE
  5
116
100
AcDbEntity
  8
Ech.1_5
 62
     7
  6
CONTINUOUS
370
    -3
100
AcDbLine
 10
15239.2145087
 20
2575.51136115
 30
-708.01375174
 11
15238.71100367
 21
2579.61208055
 31
-703.91303234
  0
LINE
  5
117
100
AcDbEntity
  8
Ech.1_5
 62
     7
  6
CONTINUOUS
370
    -3
100
AcDbLine
 10
15239.2145087
 20
2575.51136115
 30
-708.01375174
 11
15031.64746822
 21
2550.02533323
 31
-733.49977966
  0
LINE
  5
118
100
AcDbEntity
  8
Ech.1_5
 62
     7
  6
CONTINUOUS
370
    -3
100
AcDbLine
 10
15031.64746822
 20
2554.18787527
 30
-729.33723762
 11
15031.64746822
 21
2550.02533323
 31
-733.49977966
  0
LINE
  5
119
100
AcDbEntity
  8
Ech.1_5
 62
     7
  6
CONTINUOUS
370
    -3
100
AcDbLine
 10
15149.03778439
 20
2569.02970825
 30
-714.49540464
 11
15004.09424004
 21
2551.25209803
 31
-732.27301486
  0
LINE
  5
11A
100
AcDbEntity
  8
Ech.1_5
 62
     7
  6
CONTINUOUS
370
    -3
100
AcDbLine
 10
15149.03778439
 20
2570.54097299
 30
-712.9841399
 11
15003.91143603
 21
2552.74091726
 31
-730.78419563
  0
LINE
  5
11B
100
AcDbEntity
  8
Ech.1_5
 62
     7
  6
CONTINUOUS
370
    -3
100
AcDbLine
 10
15004.09424004
 20
2551.25209803
 30
-732.27301486
 11
15003.91143603
 21
2552.74091726
 31
-730.78419563
  0
LINE
  5
11C
100
AcDbEntity
  8
Ech.1_5
 62
     7
  6
CONTINUOUS
370
    -3
100
AcDbLine
 10
15270.54837839
 20
2583.94933318
 30
-699.57577971
 11
15270.36557437
 21
2585.43815241
 31
-698.08696048
  0
LINE
  5
11D
100
AcDbEntity
  8
Ech.1_5
 62
     7
  6
CONTINUOUS
370
    -3
100
AcDbLine
 10
15270.54837839
 20
2583.94933318
 30
-699.57577971
 11
15149.03778439
 21
2569.02970825
 31
-714.49540464
  0
LINE
  5
11E
100
AcDbEntity
  8
Ech.1_5
 62
     7
  6
CONTINUOUS
370
    -3
100
AcDbLine
 10
15270.36557437
 20
2585.43815241
 30
-698.08696048
 11
15149.03778439
 21
2570.54097299
 31
-712.9841399
  0
LINE
  5
11F
100
AcDbEntity
  8
Ech.1_5
 62
     7
  6
CONTINUOUS
370
    -3
100
AcDbLine
 10
15290.71692637
 20
2606.00497276
 30
-677.52014013
 11
15273.78835882
 21
2606.00497276
 31
-677.52014013
  0
LINE
  5
120
100
AcDbEntity
  8
Ech.1_5
 62
     7
  6
CONTINUOUS
370
    -3
100
AcDbLine
 10
15290.71692637
 20
2616.01073717
 30
-667.51437572
 11
15273.78835882
 21
2616.01073717
 31
-667.51437572
  0
LINE
  5
121
100
AcDbEntity
  8
Ech.1_5
 62
     7
  6
CONTINUOUS
370
    -3
100
AcDbLine
 10
15273.78835882
 20
2606.00497276
 30
-677.52014013
 11
15273.78835882
 21
2616.01073717
 31
-667.51437572
  0
LINE
  5
122
100
AcDbEntity
  8
Ech.1_5
 62
     7
  6
CONTINUOUS
370
    -3
100
AcDbLine
 10
15290.71692637
 20
2616.01073717
 30
-667.51437572
 11
15290.71692637
 21
2606.00497276
 31
-677.52014013
  0
LINE
  5
123
100
AcDbEntity
  8
Ech.1_5
 62
     7
  6
CONTINUOUS
370
    -3
100
AcDbLine
 10
15273.78835882
 20
2579.75649616
 30
-703.76861673
 11
15273.78835882
 21
2606.00497276
 31
-677.52014013
  0
LINE
  5
124
100
AcDbEntity
  8
Ech.1_5
 62
     7
  6
CONTINUOUS
370
    -3
100
AcDbLine
 10
15347.54215497
 20
2556.00497276
 30
-761.39374523
 11
15347.53772228
 21
2591.48253794
 31
-692.04257495
  0
LINE
  5
125
100
AcDbEntity
  8
Ech.1_5
 62
     7
  6
CONTINUOUS
370
    -3
100
AcDbLine
 10
15008.07801007
 20
2522.13136766
 30
-761.39374523
 11
15008.07801007
 21
2547.13136766
 31
-736.39374523
  0
LINE
  5
126
100
AcDbEntity
  8
Ech.1_5
 62
     7
  6
CONTINUOUS
370
    -3
100
AcDbLine
 10
15347.54215497
 20
2522.13136766
 30
-761.39374523
 11
15008.07801007
 21
2522.13136766
 31
-761.39374523
  0
LINE
  5
127
100
AcDbEntity
  8
Ech.1_5
 62
     7
  6
CONTINUOUS
370
    -3
100
AcDbLine
 10
15273.78835882
 20
2579.75649616
 30
-703.76861673
 11
15008.07801007
 21
2547.13136766
 31
-736.39374523
  0
LINE
  5
128
100
AcDbEntity
  8
Ech.1_5
 62
     7
  6
CONTINUOUS
370
    -3
100
AcDbLine
 10
15347.53772228
 20
2591.48253794
 30
-692.04257495
 11
15347.53748562
 21
2606.00497276
 31
-677.52014013
  0
LINE
  5
129
100
AcDbEntity
  8
Ech.1_5
 62
     7
  6
CONTINUOUS
370
    -3
100
AcDbLine
 10
15347.53748562
 20
2606.00497276
 30
-677.52014013
 11
15273.78835882
 21
2606.00497276
 31
-677.52014013
  0
LINE
  5
12A
100
AcDbEntity
  8
Ech.1_5
 62
     7
  6
CONTINUOUS
370
    -3
100
AcDbLine
 10
14860.71674313
 20
2176.49984546
 30
-1107.02526743
 11
14660.71610648
 21
2176.49984546
 31
-1107.02526743
  0
LINE
  5
12B
100
AcDbEntity
  8
Ech.1_5
 62
     7
  6
CONTINUOUS
370
    -3
100
AcDbLine
 10
14860.71674313
 20
2176.49984546
 30
-1107.02526743
 11
14860.71674313
 21
2211.49987107
 31
-1072.02524182
  0
LINE
  5
12C
100
AcDbEntity
  8
Ech.1_5
 62
     7
  6
CONTINUOUS
370
    -3
100
AcDbLine
 10
14660.71610648
 20
2176.49984546
 30
-1107.02526743
 11
14660.71610648
 21
2591.00497276
 31
-692.52014013
  0
LINE
  5
12D
100
AcDbEntity
  8
Ech.1_5
 62
     7
  6
CONTINUOUS
370
    -3
100
AcDbLine
 10
14860.71674313
 20
2211.49987107
 30
-1072.02524182
 11
14860.71659789
 21
2591.00497276
 31
-692.52014013
  0
LINE
  5
12E
100
AcDbEntity
  8
Ech.1_5
 62
     7
  6
CONTINUOUS
370
    -3
100
AcDbLine
 10
14860.71659789
 20
2591.00497276
 30
-692.52014013
 11
14660.71610648
 21
2591.00497276
 31
-692.52014013
  0
LINE
  5
12F
100
AcDbEntity
  8
Ech.1_5
 62
     7
  6
CONTINUOUS
370
    -3
100
AcDbLine
 10
15120.71674313
 20
2176.49984546
 30
-1107.02526743
 11
14860.71674313
 21
2176.49984546
 31
-1107.02526743
  0
LINE
  5
130
100
AcDbEntity
  8
Ech.1_5
 62
     7
  6
CONTINUOUS
370
    -3
100
AcDbLine
 10
14890.71674313
 20
2390.9976694
 30
-892.52744349
 11
14865.71674313
 21
2390.99767019
 31
-892.5274427
  0
LINE
  5
131
100
AcDbEntity
  8
Ech.1_5
 62
     7
  6
CONTINUOUS
370
    -3
100
AcDbLine
 10
15120.71674313
 20
2176.49984546
 30
-1107.02526743
 11
15115.71674313
 21
2390.99767019
 31
-892.5274427
  0
LINE
  5
132
100
AcDbEntity
  8
Ech.1_5
 62
     7
  6
CONTINUOUS
370
    -3
100
AcDbLine
 10
14865.71674313
 20
2390.99767019
 30
-892.5274427
 11
14860.71674313
 21
2176.49984546
 31
-1107.02526743
  0
LINE
  5
133
100
AcDbEntity
  8
Ech.1_5
 62
     7
  6
CONTINUOUS
370
    -3
100
AcDbLine
 10
14895.71674313
 20
2211.49984861
 30
-1072.02526428
 11
14890.71674313
 21
2390.9976694
 31
-892.52744349
  0
LINE
  5
134
100
AcDbEntity
  8
Ech.1_5
 62
     7
  6
CONTINUOUS
370
    -3
100
AcDbLine
 10
15085.71674313
 20
2211.49984861
 30
-1072.02526428
 11
14990.71674313
 21
2211.49985714
 31
-1072.02525575
  0
LINE
  5
135
100
AcDbEntity
  8
Ech.1_5
 62
     7
  6
CONTINUOUS
370
    -3
100
AcDbLine
 10
14990.71674313
 20
2211.49985714
 30
-1072.02525575
 11
14895.71674313
 21
2211.49984861
 31
-1072.02526428
  0
LINE
  5
136
100
AcDbEntity
  8
Ech.1_5
 62
     7
  6
CONTINUOUS
370
    -3
100
AcDbLine
 10
15090.71674313
 20
2390.9976694
 30
-892.52744349
 11
15085.71674313
 21
2211.49984861
 31
-1072.02526428
  0
LINE
  5
137
100
AcDbEntity
  8
Ech.1_5
 62
     7
  6
CONTINUOUS
370
    -3
100
AcDbLine
 10
15115.71674313
 20
2390.99767019
 30
-892.5274427
 11
15090.71674313
 21
2390.9976694
 31
-892.52744349
  0
LINE
  5
138
100
AcDbEntity
  8
Ech.1_5
 62
     7
  6
CONTINUOUS
370
    -3
100
AcDbLine
 10
14660.71610648
 20
2176.49984546
 30
-1107.02526743
 11
14542.02727903
 21
2176.49984546
 31
-1107.02526743
  0
LINE
  5
139
100
AcDbEntity
  8
Ech.1_5
 62
     7
  6
CONTINUOUS
370
    -3
100
AcDbLine
 10
14660.71610648
 20
2616.01259283
 30
-667.51252006
 11
14660.71610648
 21
2176.49984546
 31
-1107.02526743
  0
LINE
  5
13A
100
AcDbEntity
  8
Ech.1_5
 62
     7
  6
CONTINUOUS
370
    -3
100
AcDbLine
 10
14660.71610648
 20
2616.01259283
 30
-667.51252006
 11
14542.02727903
 21
2616.01259283
 31
-667.51252006
  0
LINE
  5
13B
100
AcDbEntity
  8
Ech.1_5
 62
     7
  6
CONTINUOUS
370
    -3
100
AcDbLine
 10
15269.04837839
 20
2583.94933318
 30
-699.57577971
 11
15269.04837839
 21
2606.00497276
 31
-677.52014013
  0
LINE
  5
13C
100
AcDbEntity
  8
Ech.1_5
 62
     7
  6
CONTINUOUS
370
    -3
100
AcDbLine
 10
15270.54837839
 20
2606.00497276
 30
-677.52014013
 11
15270.54837839
 21
2583.94933318
 31
-699.57577971
  0
LINE
  5
13D
100
AcDbEntity
  8
Ech.1_5
 62
     7
  6
CONTINUOUS
370
    -3
100
AcDbLine
 10
15270.54837839
 20
2583.94933318
 30
-699.57577971
 11
15269.04837839
 21
2583.94933318
 31
-699.57577971
  0
LINE
  5
13E
100
AcDbEntity
  8
Ech.1_5
 62
     7
  6
CONTINUOUS
370
    -3
100
AcDbLine
 10
15270.54837839
 20
2606.00497276
 30
-677.52014013
 11
15269.04837839
 21
2606.00497276
 31
-677.52014013
  0
LINE
  5
13F
100
AcDbEntity
  8
Ech.1_5
 62
     7
  6
CONTINUOUS
370
    -3
100
AcDbLine
 10
15320.71692637
 20
2176.49984546
 30
-1107.02526743
 11
15120.71679014
 21
2176.49984546
 31
-1107.02526743
  0
LINE
  5
140
100
AcDbEntity
  8
Ech.1_5
 62
     7
  6
CONTINUOUS
370
    -3
100
AcDbLine
 10
15120.71679014
 20
2326.00529026
 30
-957.51982263
 11
15120.71679014
 21
2176.49984546
 31
-1107.02526743
  0
LINE
  5
141
100
AcDbEntity
  8
Ech.1_5
 62
     7
  6
CONTINUOUS
370
    -3
100
AcDbLine
 10
15320.71692637
 20
2326.00529026
 30
-957.51982263
 11
15120.71679014
 21
2326.00529026
 31
-957.51982263
  0
LINE
  5
142
100
AcDbEntity
  8
Ech.1_5
 62
     7
  6
CONTINUOUS
370
    -3
100
AcDbLine
 10
15320.71692637
 20
2326.00529026
 30
-957.51982263
 11
15320.71692637
 21
2176.49984546
 31
-1107.02526743
  0
LINE
  5
143
100
AcDbEntity
  8
Ech.1_5
 62
     7
  6
CONTINUOUS
370
    -3
100
AcDbLine
 10
15120.71686301
 20
2456.00529026
 30
-827.51982263
 11
15120.71686301
 21
2326.00529026
 31
-957.51982263
  0
LINE
  5
144
100
AcDbEntity
  8
Ech.1_5
 62
     7
  6
CONTINUOUS
370
    -3
100
AcDbLine
 10
15527.02727903
 20
2456.00529026
 30
-827.51982263
 11
15120.71686301
 21
2456.00529026
 31
-827.51982263
  0
LINE
  5
145
100
AcDbEntity
  8
Ech.1_5
 62
     7
  6
CONTINUOUS
370
    -3
100
AcDbLine
 10
15527.02727903
 20
2326.00529026
 30
-957.51982263
 11
15120.71686301
 21
2326.00529026
 31
-957.51982263
  0
LINE
  5
146
100
AcDbEntity
  8
Ech.1_5
 62
     7
  6
CONTINUOUS
370
    -3
100
AcDbLine
 10
15347.53701843
 20
2456.00529026
 30
-827.51982263
 11
15120.71686301
 21
2456.00529026
 31
-827.51982263
  0
LINE
  5
147
100
AcDbEntity
  8
Ech.1_5
 62
     7
  6
CONTINUOUS
370
    -3
100
AcDbLine
 10
15120.71686301
 20
2512.6987076
 30
-761.39374523
 11
15120.71686301
 21
2456.00529026
 31
-827.51982263
  0
LINE
  5
148
100
AcDbEntity
  8
Ech.1_5
 62
     7
  6
CONTINUOUS
370
    -3
100
AcDbLine
 10
15345.29657899
 20
2522.13136766
 30
-761.39374523
 11
15120.71686301
 21
2522.13136766
 31
-761.39374523
  0
LINE
  5
149
100
AcDbEntity
  8
Ech.1_5
 62
     7
  6
CONTINUOUS
370
    -3
100
AcDbLine
 10
15347.53701843
 20
2522.13136766
 30
-761.39374523
 11
15347.53701843
 21
2456.00529026
 31
-827.51982263
  0
LINE
  5
14A
100
AcDbEntity
  8
Ech.1_5
 62
     7
  6
CONTINUOUS
370
    -3
100
AcDbLine
 10
15527.02727903
 20
2616.00497276
 30
-667.52014013
 11
15347.54215497
 21
2616.00497276
 31
-667.52014013
  0
LINE
  5
14B
100
AcDbEntity
  8
Ech.1_5
 62
     7
  6
CONTINUOUS
370
    -3
100
AcDbLine
 10
15527.02727903
 20
2606.00306774
 30
-677.52204515
 11
15347.54215497
 21
2606.00306774
 31
-677.52204515
  0
LINE
  5
14C
100
AcDbEntity
  8
Ech.1_5
 62
     7
  6
CONTINUOUS
370
    -3
100
AcDbLine
 10
15347.54215497
 20
2616.00497276
 30
-667.52014013
 11
15347.54215497
 21
2606.00306774
 31
-677.52204515
  0
LINE
  5
14D
100
AcDbEntity
  8
Ech.1_5
 62
     7
  6
CONTINUOUS
370
    -3
100
AcDbLine
 10
15349.98156309
 20
2606.00306774
 30
-677.52204515
 11
15349.98156309
 21
2616.00497276
 31
-667.52014013
  0
LINE
  5
14E
100
AcDbEntity
  8
Ech.1_5
 62
     7
  6
CONTINUOUS
370
    -3
100
AcDbLine
 10
15527.02727903
 20
2606.00306774
 30
-677.52204515
 11
15347.54215497
 21
2606.00306774
 31
-677.52204515
  0
LINE
  5
14F
100
AcDbEntity
  8
Ech.1_5
 62
     7
  6
CONTINUOUS
370
    -3
100
AcDbLine
 10
15527.02727903
 20
2556.00497276
 30
-727.52014013
 11
15347.54215497
 21
2556.00497276
 31
-727.52014013
  0
LINE
  5
150
100
AcDbEntity
  8
Ech.1_5
 62
     7
  6
CONTINUOUS
370
    -3
100
AcDbLine
 10
15347.54215497
 20
2606.00306774
 30
-677.52204515
 11
15347.53772228
 21
2591.48253794
 31
-727.52014013
  0
LINE
  5
151
100
AcDbEntity
  8
Ech.1_5
 62
     7
  6
CONTINUOUS
370
    -3
100
AcDbLine
 10
15349.98156309
 20
2556.00497276
 30
-727.52014013
 11
15349.98156309
 21
2606.00306774
 31
-677.52204515
  0
POLYLINE
  5
152
100
AcDbEntity
  8
Ech.1_5
 62
     1
  6
CONTINUOUS
370
    -3
100
AcDb3dPolyline
 66
     1
 70
     8
  0
VERTEX
  5
153
100
AcDbEntity
  8
Ech.1_5
100
AcDbVertex
100
AcDb3dPolylineVertex
 10
15265.04261397
 20
2590.67294654
 30
-692.85216635
 70
    32
  0
VERTEX
  5
154
100
AcDbEntity
  8
Ech.1_5
100
AcDbVertex
100
AcDb3dPolylineVertex
 10
15240.04261397
 20
2590.67294654
 30
-692.85216635
 70
    32
  0
VERTEX
  5
155
100
AcDbEntity
  8
Ech.1_5
100
AcDbVertex
100
AcDb3dPolylineVertex
 10
15240.04261397
 20
2588.17294654
 30
-695.35216635
 70
    32
  0
VERTEX
  5
156
100
AcDbEntity
  8
Ech.1_5
100
AcDbVertex
100
AcDb3dPolylineVertex
 10
15267.54261397
 20
2588.17294654
 30
-695.35216635
 70
    32
  0
VERTEX
  5
157
100
AcDbEntity
  8
Ech.1_5
100
AcDbVertex
100
AcDb3dPolylineVertex
 10
15267.54261397
 20
2606.00497276
 30
-677.52014013
 70
    32
  0
VERTEX
  5
158
100
AcDbEntity
  8
Ech.1_5
100
AcDbVertex
100
AcDb3dPolylineVertex
 10
15293.95487048
 20
2606.00497276
 30
-677.52014013
 70
    32
  0
VERTEX
  5
159
100
AcDbEntity
  8
Ech.1_5
100
AcDbVertex
100
AcDb3dPolylineVertex
 10
15293.95487048
 20
2608.50497276
 30
-675.02014013
 70
    32
  0
VERTEX
  5
15A
100
AcDbEntity
  8
Ech.1_5
100
AcDbVertex
100
AcDb3dPolylineVertex
 10
15265.04261397
 20
2608.50497276
 30
-675.02014013
 70
    32
  0
VERTEX
  5
15B
100
AcDbEntity
  8
Ech.1_5
100
AcDbVertex
100
AcDb3dPolylineVertex
 10
15265.04261397
 20
2590.67294654
 30
-692.85216635
 70
    32
  0
SEQEND
  5
15C
100
AcDbEntity
  8
Ech.1_5
  0
LWPOLYLINE
  5
15D
100
AcDbEntity
  8
Ech.1_5
 62
     7
  6
CONTINUOUS
370
    -3
100
AcDbPolyline
 90
        5
 70
     0
 43
0.0
 10
15120.71686301
 20
2512.6987076
 10
15347.54215497
 20
2512.6987076
 10
15347.54215497
 20
2456.00529026
 10
15120.71686301
 20
2456.00529026
 10
15120.71686301
 20
2512.6987076
  0
LWPOLYLINE
  5
15E
100
AcDbEntity
  8
Ech.1_5
 62
     7
  6
CONTINUOUS
370
    -3
100
AcDbPolyline
 90
        6
 70
     1
 43
0.0
 10
15150.47785542
 20
2512.6987076
 10
15124.65332434
 20
2512.6987076
 10
15120.71686301
 20
2512.6987076
 10
15120.71686301
 20
2456.00529026
 10
15347.53701843
 20
2456.00529026
 10
15347.53701843
 20
2512.69959115
  0
LWPOLYLINE
  5
15F
102
{ACAD_REACTORS
330
160
102
}
100
AcDbEntity
  8
Ech.1_5
 62
     7
  6
CONTINUOUS
370
    -3
100
AcDbPolyline
 90
        5
 70
     1
 43
0.0
 38
2500.0
 39
-2500.0
 10
15270.54837839
 20
2606.00497276
 10
15269.04837839
 20
2606.00497276
 10
15269.04837839
 20
2585.27642108
 10
15270.36557437
 20
2585.43815241
 10
15270.54837839
 20
2583.94933318
  0
HATCH
  5
160
100
AcDbEntity
  8
Ech.1_5
 62
     7
  6
CONTINUOUS
100
AcDbHatch
 10
0.0
 20
0.0
 30
0.0
210
0.0
220
0.0
230
1.0
  2
AR-CONC
 70
     0
 71
     1
 91
        1
 92
        7
 72
     0
 73
     1
 93
        5
 10
15270.54837839
 20
2606.00497276
 10
15269.04837839
 20
2606.00497276
 10
15269.04837839
 20
2585.27642108
 10
15270.36557437
 20
2585.43815241
 10
15270.54837839
 20
2583.94933318
 97
        1
330
15F
 75
     0
 76
     2
 52
0.0
 41
0.06299252
 77
     0
 78
    13
 53
50.0
 43
0.0
 44
0.0
 45
-10.04951288
 46
0.87921838
 79
     2
 49
1.05082299
 49
-11.55905264
 53
355.0
 43
0.0
 44
0.0
 45
-1.94404139
 46
10.53894322
 79
     2
 49
0.84065802
 49
-9.24724211
 53
100.45140076
 43
0.83745904
 44
-0.073268
 45
-8.10547867
 46
-9.65971878
 79
     2
 49
0.89306201
 49
-9.82368293
 53
46.18420029
 43
0.0
 44
2.80219511
 45
-14.95308477
 46
2.31908205
 79
     2
 49
1.57623401
 49
-17.33857753
 53
96.63559723
 43
1.24609007
 44
2.60893706
 45
-13.09553414
 46
-13.64833836
 79
     2
 49
1.33959307
 49
-14.73552249
 53
351.1842041
 43
0.0
 44
2.80219511
 45
13.09552173
 46
13.64835069
 79
     2
 49
1.26098802
 49
-13.87086317
 53
21.0
 43
1.40109708
 44
2.10164598
 45
-8.36324849
 46
5.64108224
 79
     2
 49
1.05082299
 49
-11.55905264
 53
326.0
 43
1.40109708
 44
2.10164598
 45
3.40908414
 46
10.1600574
 79
     2
 49
0.84065802
 49
-9.24724211
 53
71.45140076
 43
2.09803394
 44
1.63155499
 45
-11.77233597
 46
-4.51896637
 79
     2
 49
0.89306201
 49
-9.82368293
 53
37.5
 43
0.0
 44
0.0
 45
0.17037085
 46
4.66416671
 79
     6
 49
0.01
 49
-9.13515391
 49
0.01
 49
-9.38735213
 49
0.01
 49
-9.28226866
 53
7.5
 43
0.0
 44
0.0
 45
3.68586042
 46
5.52609192
 79
     6
 49
0.01
 49
-5.35219105
 49
0.01
 49
-8.92498888
 49
0.01
 49
-3.53777104
 53
-32.5
 43
-3.12444715
 44
0.0
 45
7.4793711
 46
-0.31601602
 79
     6
 49
0.01
 49
-3.50274306
 49
0.01
 49
-10.92855947
 49
0.01
 49
-14.50135729
 53
-42.5
 43
-4.52554423
 44
0.0
 45
8.17100583
 46
1.40256824
 79
     6
 49
0.01
 49
-4.55356605
 49
0.01
 49
-7.25768434
 49
0.01
 49
-10.29806534
 47
0.775229
 98
        1
 10
0.0
 20
0.0
  0
LINE
  5
161
100
AcDbEntity
  8
Ech.1_5
 62
     7
  6
CONTINUOUS
370
    -3
100
AcDbLine
 10
13709.21433273
 20
2567.61267189
 30
-737.5274427
 11
13709.21433273
 21
2996.3722234
 31
-737.5274427
  0
LINE
  5
162
100
AcDbEntity
  8
Ech.1_5
 62
     7
  6
CONTINUOUS
370
    -3
100
AcDbLine
 10
13889.21433273
 20
2567.61267189
 30
-737.5274427
 11
13889.21433273
 21
2996.3722234
 31
-737.5274427
  0
LINE
  5
163
100
AcDbEntity
  8
Ech.1_5
 62
     7
  6
CONTINUOUS
370
    -3
100
AcDbLine
 10
13709.21433273
 20
2567.61267189
 30
-737.5274427
 11
13889.21433273
 21
2567.61267189
 31
-737.5274427
  0
LINE
  5
164
100
AcDbEntity
  8
Ech.1_5
 62
     7
  6
CONTINUOUS
370
    -3
100
AcDbLine
 10
13709.21433273
 20
2567.61267189
 30
-737.5274427
 11
13709.21433273
 21
2522.61267189
 31
-782.5274427
  0
LINE
  5
165
100
AcDbEntity
  8
Ech.1_5
 62
     7
  6
CONTINUOUS
370
    -3
100
AcDbLine
 10
13709.21433273
 20
2567.61267189
 30
-737.5274427
 11
13889.21433273
 21
2567.61267189
 31
-737.5274427
  0
LINE
  5
166
100
AcDbEntity
  8
Ech.1_5
 62
     7
  6
CONTINUOUS
370
    -3
100
AcDbLine
 10
13889.21433273
 20
2522.61267189
 30
-782.5274427
 11
13889.21433273
 21
2567.61267189
 31
-737.5274427
  0
LINE
  5
167
100
AcDbEntity
  8
Ech.1_5
 62
     7
  6
CONTINUOUS
370
    -3
100
AcDbLine
 10
13709.21433273
 20
2522.61267189
 30
-782.5274427
 11
13889.21433273
 21
2522.61267189
 31
-782.5274427
  0
LINE
  5
168
100
AcDbEntity
  8
Ech.1_5
 62
     7
  6
CONTINUOUS
370
    -3
100
AcDbLine
 10
13709.21433273
 20
2522.61267189
 30
-782.5274427
 11
13709.21433273
 21
2477.61267189
 31
-827.5274427
  0
LINE
  5
169
100
AcDbEntity
  8
Ech.1_5
 62
     7
  6
CONTINUOUS
370
    -3
100
AcDbLine
 10
13709.21433273
 20
2522.61267189
 30
-782.5274427
 11
13889.21433273
 21
2522.61267189
 31
-782.5274427
  0
LINE
  5
16A
100
AcDbEntity
  8
Ech.1_5
 62
     7
  6
CONTINUOUS
370
    -3
100
AcDbLine
 10
13889.21433273
 20
2477.61267189
 30
-827.5274427
 11
13889.21433273
 21
2522.61267189
 31
-782.5274427
  0
LINE
  5
16B
100
AcDbEntity
  8
Ech.1_5
 62
     7
  6
CONTINUOUS
370
    -3
100
AcDbLine
 10
13709.21433273
 20
2477.61267189
 30
-827.5274427
 11
13889.21433273
 21
2477.61267189
 31
-827.5274427
  0
LINE
  5
16C
100
AcDbEntity
  8
Ech.1_5
 62
     7
  6
CONTINUOUS
370
    -3
100
AcDbLine
 10
13675.21434363
 20
2490.61267189
 30
-814.5274427
 11
13700.21433273
 21
2490.61267189
 31
-814.5274427
  0
LINE
  5
16D
100
AcDbEntity
  8
Ech.1_5
 62
     7
  6
CONTINUOUS
370
    -3
100
AcDbLine
 10
13675.21434363
 20
2490.61267189
 30
-814.5274427
 11
13675.21434363
 21
2996.3722234
 31
-814.5274427
  0
LINE
  5
16E
100
AcDbEntity
  8
Ech.1_5
 62
     7
  6
CONTINUOUS
370
    -3
100
AcDbLine
 10
13700.21433273
 20
2996.3722234
 30
526.97735231
 11
13700.21433273
 21
2490.61267189
 31
526.97735231
  0
LINE
  5
16F
100
AcDbEntity
  8
Ech.1_5
 62
     7
  6
CONTINUOUS
370
    -3
100
AcDbLine
 10
13929.21433273
 20
2487.61267929
 30
-817.5274353
 11
13942.21433273
 21
2487.61267929
 31
-817.5274353
  0
LINE
  5
170
100
AcDbEntity
  8
Ech.1_5
 62
     7
  6
CONTINUOUS
370
    -3
100
AcDbLine
 10
13942.21433273
 20
2996.3722234
 30
817.5274353
 11
13942.21433273
 21
2487.61267929
 31
817.5274353
  0
LINE
  5
171
100
AcDbEntity
  8
Ech.1_5
 62
     7
  6
CONTINUOUS
370
    -3
100
AcDbLine
 10
13929.21433273
 20
2487.61267929
 30
-817.5274353
 11
13929.21433273
 21
2996.3722234
 31
-817.5274353
  0
LINE
  5
172
100
AcDbEntity
  8
Ech.1_5
 62
     7
  6
CONTINUOUS
370
    -3
100
AcDbLine
 10
13889.21433273
 20
2552.61267189
 30
-752.5274427
 11
13889.21433273
 21
2507.61267189
 31
-797.5274427
  0
LINE
  5
173
100
AcDbEntity
  8
Ech.1_5
 62
     7
  6
CONTINUOUS
370
    -3
100
AcDbLine
 10
13889.21433273
 20
2507.61267189
 30
-797.5274427
 11
13929.21433273
 21
2507.61267189
 31
-797.5274427
  0
LINE
  5
174
100
AcDbEntity
  8
Ech.1_5
 62
     7
  6
CONTINUOUS
370
    -3
100
AcDbLine
 10
13889.21433273
 20
2552.61267189
 30
-752.5274427
 11
13929.21433273
 21
2552.61267189
 31
-752.5274427
  0
LINE
  5
175
100
AcDbEntity
  8
Ech.1_5
 62
     7
  6
CONTINUOUS
370
    -3
100
AcDbLine
 10
13929.21433273
 20
2552.61267189
 30
-752.5274427
 11
13929.21433273
 21
2507.61267189
 31
-797.5274427
  0
LINE
  5
176
100
AcDbEntity
  8
Ech.1_5
 62
     7
  6
CONTINUOUS
370
    -3
100
AcDbLine
 10
13889.21433273
 20
2643.35228278
 30
-661.78783181
 11
13889.21433273
 21
2598.35228278
 31
-706.78783181
  0
LINE
  5
177
100
AcDbEntity
  8
Ech.1_5
 62
     7
  6
CONTINUOUS
370
    -3
100
AcDbLine
 10
13889.21433273
 20
2598.35228278
 30
-706.78783181
 11
13929.21433273
 21
2598.35228278
 31
-706.78783181
  0
LINE
  5
178
100
AcDbEntity
  8
Ech.1_5
 62
     7
  6
CONTINUOUS
370
    -3
100
AcDbLine
 10
13889.21433273
 20
2643.35228278
 30
-661.78783181
 11
13929.21433273
 21
2643.35228278
 31
-661.78783181
  0
LINE
  5
179
100
AcDbEntity
  8
Ech.1_5
 62
     7
  6
CONTINUOUS
370
    -3
100
AcDbLine
 10
13929.21433273
 20
2643.35228278
 30
-661.78783181
 11
13929.21433273
 21
2598.35228278
 31
-706.78783181
  0
LINE
  5
17A
100
AcDbEntity
  8
Ech.1_5
 62
     7
  6
CONTINUOUS
370
    -3
100
AcDbLine
 10
13669.21433273
 20
2714.55150267
 30
-590.58861192
 11
13675.21433273
 21
2714.55150267
 31
-590.58861192
  0
LINE
  5
17B
100
AcDbEntity
  8
Ech.1_5
 62
     7
  6
CONTINUOUS
370
    -3
100
AcDbLine
 10
13669.21433273
 20
2714.55150267
 30
-590.58861192
 11
13669.21433273
 21
2723.55150267
 31
-581.58861192
  0
LINE
  5
17C
100
AcDbEntity
  8
Ech.1_5
 62
     7
  6
CONTINUOUS
370
    -3
100
AcDbLine
 10
13662.21433273
 20
2723.55150267
 30
-581.58861192
 11
13669.21433273
 21
2723.55150267
 31
-581.58861192
  0
LINE
  5
17D
100
AcDbEntity
  8
Ech.1_5
 62
     7
  6
CONTINUOUS
370
    -3
100
AcDbLine
 10
13675.21433273
 20
2741.55150267
 30
-563.58861192
 11
13675.21433273
 21
2714.55150267
 31
-590.58861192
  0
LINE
  5
17E
100
AcDbEntity
  8
Ech.1_5
 62
     7
  6
CONTINUOUS
370
    -3
100
AcDbLine
 10
13662.21433273
 20
2723.55150267
 30
-581.58861192
 11
13662.21433273
 21
2696.16803858
 31
-608.97207601
  0
LINE
  5
17F
100
AcDbEntity
  8
Ech.1_5
 62
     7
  6
CONTINUOUS
370
    -3
100
AcDbLine
 10
13671.21433273
 20
2745.55150267
 30
-559.58861192
 11
13675.21433273
 21
2741.55150267
 31
-563.58861192
  0
LINE
  5
180
100
AcDbEntity
  8
Ech.1_5
 62
     7
  6
CONTINUOUS
370
    -3
100
AcDbLine
 10
13671.21433273
 20
2745.55150267
 30
-559.58861192
 11
13675.21433273
 21
2749.55150267
 31
-555.58861192
  0
LINE
  5
181
100
AcDbEntity
  8
Ech.1_5
 62
     7
  6
CONTINUOUS
370
    -3
100
AcDbLine
 10
13675.21433273
 20
2810.28173841
 30
-494.85837618
 11
13675.21433273
 21
2749.55150267
 31
-555.58861192
  0
LINE
  5
182
100
AcDbEntity
  8
Ech.1_5
 62
     7
  6
CONTINUOUS
370
    -3
100
AcDbLine
 10
13673.14326491
 20
2810.28173841
 30
-494.85837618
 11
13675.21433273
 21
2810.28173841
 31
-494.85837618
  0
LINE
  5
183
100
AcDbEntity
  8
Ech.1_5
 62
     7
  6
CONTINUOUS
370
    -3
100
AcDbLine
 10
13673.14326491
 20
2810.28173841
 30
-494.85837618
 11
13675.21433273
 21
2812.35280622
 31
-492.78730837
  0
LINE
  5
184
100
AcDbEntity
  8
Ech.1_5
 62
     7
  6
CONTINUOUS
370
    -3
100
AcDbLine
 10
13675.21433273
 20
2812.35280622
 30
-492.78730837
 11
13675.21433273
 21
2847.35280622
 31
-457.78730837
  0
LINE
  5
185
100
AcDbEntity
  8
Ech.1_5
 62
     7
  6
CONTINUOUS
370
    -3
100
AcDbLine
 10
13668.21433273
 20
2847.35280622
 30
-457.78730837
 11
13675.21433273
 21
2847.35280622
 31
-457.78730837
  0
LINE
  5
186
100
AcDbEntity
  8
Ech.1_5
 62
     7
  6
CONTINUOUS
370
    -3
100
AcDbLine
 10
13668.21433273
 20
2853.35280622
 30
-451.78730837
 11
13668.21433273
 21
2847.35280622
 31
-457.78730837
  0
LINE
  5
187
100
AcDbEntity
  8
Ech.1_5
 62
     7
  6
CONTINUOUS
370
    -3
100
AcDbLine
 10
13663.21433273
 20
2853.35280622
 30
-451.78730837
 11
13665.71433273
 21
2858.35280622
 31
-446.78730837
  0
LINE
  5
188
100
AcDbEntity
  8
Ech.1_5
 62
     7
  6
CONTINUOUS
370
    -3
100
AcDbLine
 10
13665.71433273
 20
2858.35280622
 30
-446.78730837
 11
13668.21433273
 21
2853.35280622
 31
-451.78730837
  0
LINE
  5
189
100
AcDbEntity
  8
Ech.1_5
 62
     7
  6
CONTINUOUS
370
    -3
100
AcDbLine
 10
13662.83373039
 20
2820.51045687
 30
-484.62965772
 11
13663.21433273
 21
2853.35280622
 31
-451.78730837
  0
LINE
  5
18A
100
AcDbEntity
  8
Ech.1_5
 62
     7
  6
CONTINUOUS
370
    -3
100
AcDbLine
 10
13656.67879882
 20
2813.81727231
 30
-491.32284228
 11
13662.83373039
 21
2820.51045687
 31
-484.62965772
  0
LINE
  5
18B
100
AcDbEntity
  8
Ech.1_5
 62
     7
  6
CONTINUOUS
370
    -3
100
AcDbLine
 10
13655.21433273
 20
2810.28173841
 30
-494.85837618
 11
13656.67879882
 21
2813.81727231
 31
-491.32284228
  0
LINE
  5
18C
100
AcDbEntity
  8
Ech.1_5
 62
     7
  6
CONTINUOUS
370
    -3
100
AcDbLine
 10
13655.21433273
 20
2810.28173841
 30
-494.85837618
 11
13655.21433273
 21
2700.39369045
 31
-604.74642414
  0
LINE
  5
18D
100
AcDbEntity
  8
Ech.1_5
 62
     7
  6
CONTINUOUS
370
    -3
100
AcDbLine
 10
13655.21433273
 20
2700.39369045
 30
-604.74642414
 11
13656.17465512
 21
2698.76382181
 31
-606.37629278
  0
LINE
  5
18E
100
AcDbEntity
  8
Ech.1_5
 62
     7
  6
CONTINUOUS
370
    -3
100
AcDbLine
 10
13656.17465512
 20
2698.76382181
 30
-606.37629278
 11
13661.32277735
 21
2695.55150267
 31
-609.58861192
  0
LINE
  5
18F
100
AcDbEntity
  8
Ech.1_5
 62
     7
  6
CONTINUOUS
370
    -3
100
AcDbLine
 10
13661.32277735
 20
2695.55150267
 30
-609.58861192
 11
13662.21433273
 21
2696.16803858
 31
-608.97207601
  0
LINE
  5
190
100
AcDbEntity
  8
Ech.1_5
 62
     7
  6
CONTINUOUS
370
    -3
100
AcDbLine
 10
13655.21433273
 20
2447.61267189
 30
-857.5274427
 11
13658.64299595
 21
2447.61267189
 31
-857.5274427
  0
LINE
  5
191
100
AcDbEntity
  8
Ech.1_5
 62
     7
  6
CONTINUOUS
370
    -3
100
AcDbLine
 10
13655.21433273
 20
2538.67913841
 30
-766.46097618
 11
13655.21433273
 21
2447.61267189
 31
-857.5274427
  0
LINE
  5
192
100
AcDbEntity
  8
Ech.1_5
 62
     7
  6
CONTINUOUS
370
    -3
100
AcDbLine
 10
13655.21433273
 20
2538.67913841
 30
-766.46097618
 11
13656.67879882
 21
2542.21467231
 31
-762.92544228
  0
LINE
  5
193
100
AcDbEntity
  8
Ech.1_5
 62
     7
  6
CONTINUOUS
370
    -3
100
AcDbLine
 10
13656.67879882
 20
2542.21467231
 30
-762.92544228
 11
13662.83373039
 21
2548.90785687
 31
-756.23225772
  0
LINE
  5
194
100
AcDbEntity
  8
Ech.1_5
 62
     7
  6
CONTINUOUS
370
    -3
100
AcDbLine
 10
13662.83373039
 20
2548.90785687
 30
-756.23225772
 11
13663.21433273
 21
2581.75020622
 31
-723.38990837
  0
LINE
  5
195
100
AcDbEntity
  8
Ech.1_5
 62
     7
  6
CONTINUOUS
370
    -3
100
AcDbLine
 10
13665.71433273
 20
2586.75020622
 30
-718.38990837
 11
13668.21433273
 21
2581.75020622
 31
-723.38990837
  0
LINE
  5
196
100
AcDbEntity
  8
Ech.1_5
 62
     7
  6
CONTINUOUS
370
    -3
100
AcDbLine
 10
13663.21433273
 20
2581.75020622
 30
-723.38990837
 11
13665.71433273
 21
2586.75020622
 31
-718.38990837
  0
LINE
  5
197
100
AcDbEntity
  8
Ech.1_5
 62
     7
  6
CONTINUOUS
370
    -3
100
AcDbLine
 10
13668.21433273
 20
2575.75020622
 30
-729.38990837
 11
13668.21433273
 21
2581.75020622
 31
-723.38990837
  0
LINE
  5
198
100
AcDbEntity
  8
Ech.1_5
 62
     7
  6
CONTINUOUS
370
    -3
100
AcDbLine
 10
13668.21433273
 20
2575.75020622
 30
-729.38990837
 11
13675.21433273
 21
2575.75020622
 31
-729.38990837
  0
LINE
  5
199
100
AcDbEntity
  8
Ech.1_5
 62
     7
  6
CONTINUOUS
370
    -3
100
AcDbLine
 10
13658.64299595
 20
2447.61267189
 30
-857.5274427
 11
13675.21433273
 21
2467.73318842
 31
-837.40692617
  0
LINE
  5
19A
100
AcDbEntity
  8
Ech.1_5
 62
     7
  6
CONTINUOUS
370
    -3
100
AcDbLine
 10
13675.21433273
 20
2540.75020622
 30
-764.38990837
 11
13675.21433273
 21
2575.75020622
 31
-729.38990837
  0
LINE
  5
19B
100
AcDbEntity
  8
Ech.1_5
 62
     7
  6
CONTINUOUS
370
    -3
100
AcDbLine
 10
13673.14326491
 20
2538.67913841
 30
-766.46097618
 11
13675.21433273
 21
2540.75020622
 31
-764.38990837
  0
LINE
  5
19C
100
AcDbEntity
  8
Ech.1_5
 62
     7
  6
CONTINUOUS
370
    -3
100
AcDbLine
 10
13673.14326491
 20
2538.67913841
 30
-766.46097618
 11
13675.21433273
 21
2538.67913841
 31
-766.46097618
  0
LINE
  5
19D
100
AcDbEntity
  8
Ech.1_5
 62
     7
  6
CONTINUOUS
370
    -3
100
AcDbLine
 10
13675.21434363
 20
2490.61267189
 30
-766.46097618
 11
13675.21433273
 21
2477.94890267
 31
-827.19121192
  0
LINE
  5
19E
100
AcDbEntity
  8
Ech.1_5
 62
     7
  6
CONTINUOUS
370
    -3
100
AcDbLine
 10
13671.21433273
 20
2473.94890267
 30
-831.19121192
 11
13675.21433273
 21
2477.94890267
 31
-827.19121192
  0
LINE
  5
19F
100
AcDbEntity
  8
Ech.1_5
 62
     7
  6
CONTINUOUS
370
    -3
100
AcDbLine
 10
13671.21433273
 20
2473.94890267
 30
-831.19121192
 11
13675.21433273
 21
2469.94890267
 31
-835.19121192
  0
LINE
  5
1A0
100
AcDbEntity
  8
Ech.1_5
 62
     7
  6
CONTINUOUS
370
    -3
100
AcDbLine
 10
13675.21433273
 20
2467.73318842
 30
-837.40692617
 11
13675.21433273
 21
2469.94890267
 31
-835.19121192
  0
LINE
  5
1A1
100
AcDbEntity
  8
Ech.1_5
 62
     7
  6
CONTINUOUS
370
    -3
100
AcDbLine
 10
13669.21433273
 20
2578.75020267
 30
-726.38991192
 11
13675.21433273
 21
2578.75020267
 31
-726.38991192
  0
LINE
  5
1A2
100
AcDbEntity
  8
Ech.1_5
 62
     7
  6
CONTINUOUS
370
    -3
100
AcDbLine
 10
13669.21433273
 20
2578.75020267
 30
-726.38991192
 11
13669.21433273
 21
2587.75020267
 31
-717.38991192
  0
LINE
  5
1A3
100
AcDbEntity
  8
Ech.1_5
 62
     7
  6
CONTINUOUS
370
    -3
100
AcDbLine
 10
13662.21433273
 20
2587.75020267
 30
-717.38991192
 11
13669.21433273
 21
2587.75020267
 31
-717.38991192
  0
LINE
  5
1A4
100
AcDbEntity
  8
Ech.1_5
 62
     7
  6
CONTINUOUS
370
    -3
100
AcDbLine
 10
13675.21433273
 20
2605.75020267
 30
-699.38991192
 11
13675.21433273
 21
2578.75020267
 31
-726.38991192
  0
LINE
  5
1A5
100
AcDbEntity
  8
Ech.1_5
 62
     7
  6
CONTINUOUS
370
    -3
100
AcDbLine
 10
13662.21433273
 20
2587.75020267
 30
-717.38991192
 11
13662.21433273
 21
2560.36673858
 31
-744.77337601
  0
LINE
  5
1A6
100
AcDbEntity
  8
Ech.1_5
 62
     7
  6
CONTINUOUS
370
    -3
100
AcDbLine
 10
13671.21433273
 20
2609.75020267
 30
-695.38991192
 11
13675.21433273
 21
2605.75020267
 31
-699.38991192
  0
LINE
  5
1A7
100
AcDbEntity
  8
Ech.1_5
 62
     7
  6
CONTINUOUS
370
    -3
100
AcDbLine
 10
13671.21433273
 20
2609.75020267
 30
-695.38991192
 11
13675.21433273
 21
2613.75020267
 31
-691.38991192
  0
LINE
  5
1A8
100
AcDbEntity
  8
Ech.1_5
 62
     7
  6
CONTINUOUS
370
    -3
100
AcDbLine
 10
13675.21433273
 20
2674.48043841
 30
-630.65967618
 11
13675.21433273
 21
2613.75020267
 31
-691.38991192
  0
LINE
  5
1A9
100
AcDbEntity
  8
Ech.1_5
 62
     7
  6
CONTINUOUS
370
    -3
100
AcDbLine
 10
13673.14326491
 20
2674.48043841
 30
-630.65967618
 11
13675.21433273
 21
2674.48043841
 31
-630.65967618
  0
LINE
  5
1AA
100
AcDbEntity
  8
Ech.1_5
 62
     7
  6
CONTINUOUS
370
    -3
100
AcDbLine
 10
13673.14326491
 20
2674.48043841
 30
-630.65967618
 11
13675.21433273
 21
2676.55150622
 31
-628.58860837
  0
LINE
  5
1AB
100
AcDbEntity
  8
Ech.1_5
 62
     7
  6
CONTINUOUS
370
    -3
100
AcDbLine
 10
13675.21433273
 20
2676.55150622
 30
-628.58860837
 11
13675.21433273
 21
2711.55150622
 31
-593.58860837
  0
LINE
  5
1AC
100
AcDbEntity
  8
Ech.1_5
 62
     7
  6
CONTINUOUS
370
    -3
100
AcDbLine
 10
13668.21433273
 20
2711.55150622
 30
-593.58860837
 11
13675.21433273
 21
2711.55150622
 31
-593.58860837
  0
LINE
  5
1AD
100
AcDbEntity
  8
Ech.1_5
 62
     7
  6
CONTINUOUS
370
    -3
100
AcDbLine
 10
13668.21433273
 20
2717.55150622
 30
-587.58860837
 11
13668.21433273
 21
2711.55150622
 31
-593.58860837
  0
LINE
  5
1AE
100
AcDbEntity
  8
Ech.1_5
 62
     7
  6
CONTINUOUS
370
    -3
100
AcDbLine
 10
13663.21433273
 20
2717.55150622
 30
-587.58860837
 11
13665.71433273
 21
2722.55150622
 31
-582.58860837
  0
LINE
  5
1AF
100
AcDbEntity
  8
Ech.1_5
 62
     7
  6
CONTINUOUS
370
    -3
100
AcDbLine
 10
13665.71433273
 20
2722.55150622
 30
-582.58860837
 11
13668.21433273
 21
2717.55150622
 31
-587.58860837
  0
LINE
  5
1B0
100
AcDbEntity
  8
Ech.1_5
 62
     7
  6
CONTINUOUS
370
    -3
100
AcDbLine
 10
13662.83373039
 20
2684.70915687
 30
-620.43095772
 11
13663.21433273
 21
2717.55150622
 31
-587.58860837
  0
LINE
  5
1B1
100
AcDbEntity
  8
Ech.1_5
 62
     7
  6
CONTINUOUS
370
    -3
100
AcDbLine
 10
13656.67879882
 20
2678.01597231
 30
-627.12414228
 11
13662.83373039
 21
2684.70915687
 31
-620.43095772
  0
LINE
  5
1B2
100
AcDbEntity
  8
Ech.1_5
 62
     7
  6
CONTINUOUS
370
    -3
100
AcDbLine
 10
13655.21433273
 20
2674.48043841
 30
-630.65967618
 11
13656.67879882
 21
2678.01597231
 31
-627.12414228
  0
LINE
  5
1B3
100
AcDbEntity
  8
Ech.1_5
 62
     7
  6
CONTINUOUS
370
    -3
100
AcDbLine
 10
13655.21433273
 20
2674.48043841
 30
-630.65967618
 11
13655.21433273
 21
2564.59239045
 31
-740.54772414
  0
LINE
  5
1B4
100
AcDbEntity
  8
Ech.1_5
 62
     7
  6
CONTINUOUS
370
    -3
100
AcDbLine
 10
13655.21433273
 20
2564.59239045
 30
-740.54772414
 11
13656.17465512
 21
2562.96252181
 31
-742.17759278
  0
LINE
  5
1B5
100
AcDbEntity
  8
Ech.1_5
 62
     7
  6
CONTINUOUS
370
    -3
100
AcDbLine
 10
13656.17465512
 20
2562.96252181
 30
-742.17759278
 11
13661.32277735
 21
2559.75020267
 31
-745.38991192
  0
LINE
  5
1B6
100
AcDbEntity
  8
Ech.1_5
 62
     7
  6
CONTINUOUS
370
    -3
100
AcDbLine
 10
13661.32277735
 20
2559.75020267
 30
-745.38991192
 11
13662.21433273
 21
2560.36673858
 31
-744.77337601
  0
LINE
  5
1B7
100
AcDbEntity
  8
Ech.1_5
 62
     7
  6
CONTINUOUS
370
    -3
100
AcDbLine
 10
13719.21433273
 20
2177.1802741
 30
-1107.02526743
 11
13719.21414949
 21
2177.1802741
 31
-1107.02526743
  0
LINE
  5
1B8
100
AcDbEntity
  8
Ech.1_5
 62
     7
  6
CONTINUOUS
370
    -3
100
AcDbLine
 10
13437.91430705
 20
2198.11484716
 30
-1107.02526743
 11
13719.21414949
 21
2198.11484716
 31
-1107.02526743
  0
LINE
  5
1B9
100
AcDbEntity
  8
Ech.1_5
 62
     7
  6
CONTINUOUS
370
    -3
100
AcDbLine
 10
13669.21433273
 20
2986.15410267
 30
-318.98601192
 11
13675.21433273
 21
2986.15410267
 31
-318.98601192
  0
LINE
  5
1BA
100
AcDbEntity
  8
Ech.1_5
 62
     7
  6
CONTINUOUS
370
    -3
100
AcDbLine
 10
13669.21433273
 20
2986.15410267
 30
-318.98601192
 11
13669.21433273
 21
2995.15410267
 31
-309.98601192
  0
LINE
  5
1BB
100
AcDbEntity
  8
Ech.1_5
 62
     7
  6
CONTINUOUS
370
    -3
100
AcDbLine
 10
13662.21433273
 20
2995.15410267
 30
-309.98601192
 11
13669.21433273
 21
2995.15410267
 31
-309.98601192
  0
LINE
  5
1BC
100
AcDbEntity
  8
Ech.1_5
 62
     7
  6
CONTINUOUS
370
    -3
100
AcDbLine
 10
13675.21434363
 20
2996.3722234
 30
-291.98601192
 11
13675.21433273
 21
2986.15410267
 31
-318.98601192
  0
LINE
  5
1BD
100
AcDbEntity
  8
Ech.1_5
 62
     7
  6
CONTINUOUS
370
    -3
100
AcDbLine
 10
13662.21433273
 20
2995.15410267
 30
-309.98601192
 11
13662.21433273
 21
2967.77063858
 31
-337.36947601
  0
LINE
  5
1BE
100
AcDbEntity
  8
Ech.1_5
 62
     7
  6
CONTINUOUS
370
    -3
100
AcDbLine
 10
13655.21433273
 20
2996.3722234
 30
-223.25577618
 11
13655.21433273
 21
2971.99629045
 31
-223.25577618
  0
LINE
  5
1BF
100
AcDbEntity
  8
Ech.1_5
 62
     7
  6
CONTINUOUS
370
    -3
100
AcDbLine
 10
13655.21433273
 20
2971.99629045
 30
-333.14382414
 11
13656.17465512
 21
2970.36642181
 31
-334.77369278
  0
LINE
  5
1C0
100
AcDbEntity
  8
Ech.1_5
 62
     7
  6
CONTINUOUS
370
    -3
100
AcDbLine
 10
13656.17465512
 20
2970.36642181
 30
-334.77369278
 11
13661.32277735
 21
2967.15410267
 31
-337.98601192
  0
LINE
  5
1C1
100
AcDbEntity
  8
Ech.1_5
 62
     7
  6
CONTINUOUS
370
    -3
100
AcDbLine
 10
13661.32277735
 20
2967.15410267
 30
-337.98601192
 11
13662.21433273
 21
2967.77063858
 31
-337.36947601
  0
LINE
  5
1C2
100
AcDbEntity
  8
Ech.1_5
 62
     7
  6
CONTINUOUS
370
    -3
100
AcDbLine
 10
13669.21433273
 20
2850.35280267
 30
-454.78731192
 11
13675.21433273
 21
2850.35280267
 31
-454.78731192
  0
LINE
  5
1C3
100
AcDbEntity
  8
Ech.1_5
 62
     7
  6
CONTINUOUS
370
    -3
100
AcDbLine
 10
13669.21433273
 20
2850.35280267
 30
-454.78731192
 11
13669.21433273
 21
2859.35280267
 31
-445.78731192
  0
LINE
  5
1C4
100
AcDbEntity
  8
Ech.1_5
 62
     7
  6
CONTINUOUS
370
    -3
100
AcDbLine
 10
13662.21433273
 20
2859.35280267
 30
-445.78731192
 11
13669.21433273
 21
2859.35280267
 31
-445.78731192
  0
LINE
  5
1C5
100
AcDbEntity
  8
Ech.1_5
 62
     7
  6
CONTINUOUS
370
    -3
100
AcDbLine
 10
13675.21433273
 20
2877.35280267
 30
-427.78731192
 11
13675.21433273
 21
2850.35280267
 31
-454.78731192
  0
LINE
  5
1C6
100
AcDbEntity
  8
Ech.1_5
 62
     7
  6
CONTINUOUS
370
    -3
100
AcDbLine
 10
13662.21433273
 20
2859.35280267
 30
-445.78731192
 11
13662.21433273
 21
2831.96933858
 31
-473.17077601
  0
LINE
  5
1C7
100
AcDbEntity
  8
Ech.1_5
 62
     7
  6
CONTINUOUS
370
    -3
100
AcDbLine
 10
13671.21433273
 20
2881.35280267
 30
-423.78731192
 11
13675.21433273
 21
2877.35280267
 31
-427.78731192
  0
LINE
  5
1C8
100
AcDbEntity
  8
Ech.1_5
 62
     7
  6
CONTINUOUS
370
    -3
100
AcDbLine
 10
13671.21433273
 20
2881.35280267
 30
-423.78731192
 11
13675.21433273
 21
2885.35280267
 31
-419.78731192
  0
LINE
  5
1C9
100
AcDbEntity
  8
Ech.1_5
 62
     7
  6
CONTINUOUS
370
    -3
100
AcDbLine
 10
13675.21433273
 20
2946.08303841
 30
-359.05707618
 11
13675.21433273
 21
2885.35280267
 31
-419.78731192
  0
LINE
  5
1CA
100
AcDbEntity
  8
Ech.1_5
 62
     7
  6
CONTINUOUS
370
    -3
100
AcDbLine
 10
13673.14326491
 20
2946.08303841
 30
-359.05707618
 11
13675.21433273
 21
2946.08303841
 31
-359.05707618
  0
LINE
  5
1CB
100
AcDbEntity
  8
Ech.1_5
 62
     7
  6
CONTINUOUS
370
    -3
100
AcDbLine
 10
13673.14326491
 20
2946.08303841
 30
-359.05707618
 11
13675.21433273
 21
2948.15410622
 31
-356.98600837
  0
LINE
  5
1CC
100
AcDbEntity
  8
Ech.1_5
 62
     7
  6
CONTINUOUS
370
    -3
100
AcDbLine
 10
13675.21433273
 20
2948.15410622
 30
-356.98600837
 11
13675.21433273
 21
2983.15410622
 31
-321.98600837
  0
LINE
  5
1CD
100
AcDbEntity
  8
Ech.1_5
 62
     7
  6
CONTINUOUS
370
    -3
100
AcDbLine
 10
13668.21433273
 20
2983.15410622
 30
-321.98600837
 11
13675.21433273
 21
2983.15410622
 31
-321.98600837
  0
LINE
  5
1CE
100
AcDbEntity
  8
Ech.1_5
 62
     7
  6
CONTINUOUS
370
    -3
100
AcDbLine
 10
13668.21433273
 20
2989.15410622
 30
-315.98600837
 11
13668.21433273
 21
2983.15410622
 31
-321.98600837
  0
LINE
  5
1CF
100
AcDbEntity
  8
Ech.1_5
 62
     7
  6
CONTINUOUS
370
    -3
100
AcDbLine
 10
13663.21433273
 20
2989.15410622
 30
-315.98600837
 11
13665.71433273
 21
2994.15410622
 31
-310.98600837
  0
LINE
  5
1D0
100
AcDbEntity
  8
Ech.1_5
 62
     7
  6
CONTINUOUS
370
    -3
100
AcDbLine
 10
13665.71433273
 20
2994.15410622
 30
-310.98600837
 11
13668.21433273
 21
2989.15410622
 31
-315.98600837
  0
LINE
  5
1D1
100
AcDbEntity
  8
Ech.1_5
 62
     7
  6
CONTINUOUS
370
    -3
100
AcDbLine
 10
13662.83373039
 20
2956.31175687
 30
-348.82835772
 11
13663.21433273
 21
2989.15410622
 31
-315.98600837
  0
LINE
  5
1D2
100
AcDbEntity
  8
Ech.1_5
 62
     7
  6
CONTINUOUS
370
    -3
100
AcDbLine
 10
13656.67879882
 20
2949.61857231
 30
-355.52154228
 11
13662.83373039
 21
2956.31175687
 31
-348.82835772
  0
LINE
  5
1D3
100
AcDbEntity
  8
Ech.1_5
 62
     7
  6
CONTINUOUS
370
    -3
100
AcDbLine
 10
13655.21433273
 20
2946.08303841
 30
-359.05707618
 11
13656.67879882
 21
2949.61857231
 31
-355.52154228
  0
LINE
  5
1D4
100
AcDbEntity
  8
Ech.1_5
 62
     7
  6
CONTINUOUS
370
    -3
100
AcDbLine
 10
13655.21433273
 20
2946.08303841
 30
-359.05707618
 11
13655.21433273
 21
2836.19499045
 31
-468.94512414
  0
LINE
  5
1D5
100
AcDbEntity
  8
Ech.1_5
 62
     7
  6
CONTINUOUS
370
    -3
100
AcDbLine
 10
13655.21433273
 20
2836.19499045
 30
-468.94512414
 11
13656.17465512
 21
2834.56512181
 31
-470.57499278
  0
LINE
  5
1D6
100
AcDbEntity
  8
Ech.1_5
 62
     7
  6
CONTINUOUS
370
    -3
100
AcDbLine
 10
13656.17465512
 20
2834.56512181
 30
-470.57499278
 11
13661.32277735
 21
2831.35280267
 31
-473.78731192
  0
LINE
  5
1D7
100
AcDbEntity
  8
Ech.1_5
 62
     7
  6
CONTINUOUS
370
    -3
100
AcDbLine
 10
13661.32277735
 20
2831.35280267
 30
-473.78731192
 11
13662.21433273
 21
2831.96933858
 31
-473.17077601
  0
LINE
  5
1D8
100
AcDbEntity
  8
Ech.1_5
 62
     7
  6
CONTINUOUS
370
    -3
100
AcDbLine
 10
13942.21433273
 20
2627.61806944
 30
-677.52204515
 11
13942.21433273
 21
2637.61997446
 31
-667.52014013
  0
LINE
  5
1D9
100
AcDbEntity
  8
Ech.1_5
 62
     7
  6
CONTINUOUS
370
    -3
100
AcDbLine
 10
13942.21433273
 20
2627.61806944
 30
-677.52204515
 11
14125.52468538
 21
2627.61806944
 31
-677.52204515
  0
LINE
  5
1DA
100
AcDbEntity
  8
Ech.1_5
 62
     7
  6
CONTINUOUS
370
    -3
100
AcDbLine
 10
13942.21433273
 20
2637.61997446
 30
-667.52014013
 11
14125.52468538
 21
2637.61997446
 31
-667.52014013
  0
LINE
  5
1DB
100
AcDbEntity
  8
Ech.1_5
 62
     7
  6
CONTINUOUS
370
    -3
100
AcDbLine
 10
13942.21433273
 20
2627.61806944
 30
-677.52204515
 11
14125.52468538
 21
2627.61806944
 31
-677.52204515
  0
LINE
  5
1DC
100
AcDbEntity
  8
Ech.1_5
 62
     7
  6
CONTINUOUS
370
    -3
100
AcDbLine
 10
13942.21433273
 20
2577.61997446
 30
-727.52014013
 11
14125.52468538
 21
2577.61997446
 31
-727.52014013
  0
LINE
  5
1DD
100
AcDbEntity
  8
Ech.1_5
 62
     7
  6
CONTINUOUS
370
    -3
100
AcDbLine
 10
13942.21433273
 20
2577.61997446
 30
-727.52014013
 11
13942.21433273
 21
2627.61806944
 31
-677.52204515
  0
LINE
  5
1DE
100
AcDbEntity
  8
Ech.1_5
 62
     7
  6
CONTINUOUS
370
    -3
100
AcDbLine
 10
13942.21433273
 20
2477.62029196
 30
-827.51982263
 11
13942.21433273
 21
2577.61997446
 31
-727.52014013
  0
LINE
  5
1DF
100
AcDbEntity
  8
Ech.1_5
 62
     7
  6
CONTINUOUS
370
    -3
100
AcDbLine
 10
13942.21433273
 20
2577.61997446
 30
-727.52014013
 11
14125.52468538
 21
2577.61997446
 31
-727.52014013
  0
LINE
  5
1E0
100
AcDbEntity
  8
Ech.1_5
 62
     7
  6
CONTINUOUS
370
    -3
100
AcDbLine
 10
13942.21433273
 20
2477.62029196
 30
-827.51982263
 11
14125.52468538
 21
2477.62029196
 31
-827.51982263
  0
LINE
  5
1E1
100
AcDbEntity
  8
Ech.1_5
 62
     7
  6
CONTINUOUS
370
    -3
100
AcDbLine
 10
13719.21419649
 20
2177.1802741
 30
-1107.02526743
 11
13919.21433273
 21
2177.1802741
 31
-1107.02526743
  0
LINE
  5
1E2
100
AcDbEntity
  8
Ech.1_5
 62
     7
  6
CONTINUOUS
370
    -3
100
AcDbLine
 10
13719.21419649
 20
2177.1802741
 30
-1107.02526743
 11
13719.21419649
 21
2347.62029196
 31
-957.51982263
  0
LINE
  5
1E3
100
AcDbEntity
  8
Ech.1_5
 62
     7
  6
CONTINUOUS
370
    -3
100
AcDbLine
 10
13719.21419649
 20
2347.62029196
 30
-957.51982263
 11
13919.21433273
 21
2347.62029196
 31
-957.51982263
  0
LINE
  5
1E4
100
AcDbEntity
  8
Ech.1_5
 62
     7
  6
CONTINUOUS
370
    -3
100
AcDbLine
 10
13919.21433273
 20
2347.62029196
 30
-957.51982263
 11
13919.21433273
 21
2177.1802741
 31
-1107.02526743
  0
LINE
  5
1E5
100
AcDbEntity
  8
Ech.1_5
 62
     7
  6
CONTINUOUS
370
    -3
100
AcDbLine
 10
13719.21426936
 20
2347.62029196
 30
-957.51982263
 11
14125.52468538
 21
2347.62029196
 31
-957.51982263
  0
LINE
  5
1E6
100
AcDbEntity
  8
Ech.1_5
 62
     7
  6
CONTINUOUS
370
    -3
100
AcDbLine
 10
13719.21426936
 20
2477.62029196
 30
-827.51982263
 11
14125.52468538
 21
2477.62029196
 31
-827.51982263
  0
LINE
  5
1E7
100
AcDbEntity
  8
Ech.1_5
 62
     7
  6
CONTINUOUS
370
    -3
100
AcDbLine
 10
13719.21426936
 20
2347.62029196
 30
-957.51982263
 11
13719.21426936
 21
2477.62029196
 31
-827.51982263
  0
LWPOLYLINE
  5
1E8
100
AcDbEntity
  8
Ech.1_5
 62
     7
  6
CONTINUOUS
370
    -3
100
AcDbPolyline
 90
        5
 70
     0
 43
0.0
 10
14125.52468538
 20
3261.22955706
 10
13140.52468538
 20
3261.22955706
 10
13140.52468538
 20
1906.22955706
 10
14125.52468538
 20
1906.22955706
 10
14125.52468538
 20
3261.22955706
  0
LWPOLYLINE
  5
1E9
102
{ACAD_REACTORS
330
1EA
102
}
100
AcDbEntity
  8
Ech.1_5
 62
     7
  6
CONTINUOUS
370
    -3
100
AcDbPolyline
 90
        4
 70
     1
 43
0.0
 10
15257.54261397
 20
2616.01259283
 10
14660.71610648
 20
2616.01259283
 10
14660.71610648
 20
2591.00497276
 10
15257.54261397
 20
2591.00497276
  0
HATCH
  5
1EA
100
AcDbEntity
  8
Ech.1_5
 62
     7
  6
CONTINUOUS
100
AcDbHatch
 10
0.0
 20
0.0
 30
0.0
210
0.0
220
0.0
230
1.0
  2
ANSI37
 70
     0
 71
     1
 91
        1
 92
        7
 72
     0
 73
     1
 93
        4
 10
15257.54261397
 20
2616.01259283
 10
14660.71610648
 20
2616.01259283
 10
14660.71610648
 20
2591.00497276
 10
15257.54261397
 20
2591.00497276
 97
        1
330
1E9
 75
     0
 76
     2
 52
0.0
 41
3.14960635
 77
     0
 78
     2
 53
45.0
 43
0.0
 44
0.0
 45
7.07106781
 46
-7.07106781
 79
     0
 53
-45.0
 43
0.0
 44
0.0
 45
7.07106781
 46
7.07106781
 79
     0
 47
0.775229
 98
        1
 10
0.0
 20
0.0
  0
LWPOLYLINE
  5
1EB
100
AcDbEntity
  8
Ech.1_5
 62
     7
  6
CONTINUOUS
370
    -3
100
AcDbPolyline
 90
        5
 70
     0
 43
0.0
 10
15527.02727903
 20
3261.22955706
 10
14542.02727903
 20
3261.22955706
 10
14542.02727903
 20
1906.22955706
 10
15527.02727903
 20
1906.22955706
 10
15527.02727903
 20
3261.22955706
  0
LWPOLYLINE
  5
1EC
102
{ACAD_REACTORS
330
1ED
102
}
100
AcDbEntity
  8
Ech.1_5
 62
     7
  6
CONTINUOUS
370
    -3
100
AcDbPolyline
 90
        9
 70
     1
 43
0.0
 38
2500.0
 39
-2500.0
 10
13822.08668686
 20
2194.96387874
 10
13807.11839716
 20
2154.07418082
 10
13821.83943164
 20
2173.24253153
 10
13825.45040174
 20
2177.1802741
 10
13919.21433273
 20
2177.1802741
 10
13919.21426936
 20
2347.62029196
 10
13719.21426936
 20
2347.62029196
 10
13719.21433273
 20
2177.1802741
 10
13806.58848452
 20
2177.1802741
  0
HATCH
  5
1ED
100
AcDbEntity
  8
Ech.1_5
 62
     7
  6
CONTINUOUS
100
AcDbHatch
 10
0.0
 20
0.0
 30
0.0
210
0.0
220
0.0
230
1.0
  2
AR-CONC
 70
     0
 71
     1
 91
        1
 92
        7
 72
     0
 73
     1
 93
        9
 10
13822.08668686
 20
2194.96387874
 10
13807.11839716
 20
2154.07418082
 10
13821.83943164
 20
2173.24253153
 10
13825.45040174
 20
2177.1802741
 10
13919.21433273
 20
2177.1802741
 10
13919.21426936
 20
2347.62029196
 10
13719.21426936
 20
2347.62029196
 10
13719.21433273
 20
2177.1802741
 10
13806.58848452
 20
2177.1802741
 97
        1
330
1EC
 75
     0
 76
     2
 52
45.0
 41
0.11811097
 77
     0
 78
    13
 53
50.0
 43
0.0
 44
0.0
 45
-18.84283637
 46
1.64853443
 79
     2
 49
1.97029307
 49
-21.67322338
 53
355.0
 43
0.0
 44
0.0
 45
-3.64507756
 46
19.76051824
 79
     2
 49
1.57623377
 49
-17.3385787
 53
100.45140076
 43
1.57023568
 44
-0.13737749
 45
-15.19777228
 46
-18.11197244
 79
     2
 49
1.67449124
 49
-18.41940522
 53
46.18420029
 43
0.0
 44
5.25411576
 45
-28.03703353
 46
4.34827878
 79
     2
 49
2.95543872
 49
-32.50983238
 53
96.63559723
 43
2.33641885
 44
4.89175692
 45
-24.55412615
 46
-25.59063404
 79
     2
 49
2.51173697
 49
-27.62910426
 53
351.1842041
 43
0.0
 44
5.25411576
 45
24.55410288
 46
25.59065715
 79
     2
 49
2.36435249
 49
-26.00786805
 53
21.0
 43
2.62705699
 44
3.94058615
 45
-15.68109068
 46
10.57702905
 79
     2
 49
1.97029307
 49
-21.67322338
 53
326.0
 43
2.62705699
 44
3.94058615
 45
6.39203268
 46
19.05010734
 79
     2
 49
1.57623377
 49
-17.3385787
 53
71.45140076
 43
3.93381357
 44
3.05916555
 45
-22.07312962
 46
-8.47306182
 79
     2
 49
1.67449124
 49
-18.41940522
 53
37.5
 43
0.0
 44
0.0
 45
0.31944534
 46
8.74531245
 79
     6
 49
0.01875
 49
-17.12841332
 49
0.01875
 49
-17.60128498
 49
0.01875
 49
-17.40425348
 53
7.5
 43
0.0
 44
0.0
 45
6.91098818
 46
10.3614222
 79
     6
 49
0.01875
 49
-10.03535807
 49
0.01875
 49
-16.7343539
 49
0.01875
 49
-6.6333206
 53
-32.5
 43
-5.85833833
 44
0.0
 45
14.02382061
 46
-0.59253003
 79
     6
 49
0.01875
 49
-6.56764314
 49
0.01875
 49
-20.49104869
 49
0.01875
 49
-27.19004452
 53
-42.5
 43
-8.48539531
 44
0.0
 45
15.32063571
 46
2.62981542
 79
     6
 49
0.01875
 49
-8.53793621
 49
0.01875
 49
-13.60815793
 49
0.01875
 49
-19.30887222
 47
0.775229
 98
        1
 10
0.0
 20
0.0
  0
3DFACE
  5
1EE
102
{ACAD_REACTORS
330
1EF
102
}
100
AcDbEntity
  8
Ech.1_5
 62
     7
  6
CONTINUOUS
370
    -3
100
AcDbFace
 70
     0
 10
14125.52468538
 20
2577.62029185
 30
2500.0
 11
14125.52468538
 21
2627.62029185
 31
2500.0
 12
13946.14645632
 22
2627.62029185
 32
2500.0
 13
13946.14645632
 23
2577.62029185
 33
2500.0
  0
HATCH
  5
1EF
100
AcDbEntity
  8
Ech.1_5
 62
     7
  6
CONTINUOUS
100
AcDbHatch
 10
0.0
 20
0.0
 30
0.0
210
0.0
220
0.0
230
1.0
  2
AR-CONC
 70
     0
 71
     1
 91
        1
 92
        7
 72
     0
 73
     1
 93
        4
 10
14125.52468538
 20
2577.62029185
 10
14125.52468538
 20
2627.62029185
 10
13946.14645632
 20
2627.62029185
 10
13946.14645632
 20
2577.62029185
 97
        1
330
1EE
 75
     0
 76
     2
 52
45.0
 41
0.06299252
 77
     0
 78
    13
 53
50.0
 43
0.0
 44
0.0
 45
-10.04951288
 46
0.87921838
 79
     2
 49
1.05082299
 49
-11.55905264
 53
355.0
 43
0.0
 44
0.0
 45
-1.94404139
 46
10.53894322
 79
     2
 49
0.84065802
 49
-9.24724211
 53
100.45140076
 43
0.83745904
 44
-0.073268
 45
-8.10547867
 46
-9.65971878
 79
     2
 49
0.89306201
 49
-9.82368293
 53
46.18420029
 43
0.0
 44
2.80219511
 45
-14.95308477
 46
2.31908205
 79
     2
 49
1.57623401
 49
-17.33857753
 53
96.63559723
 43
1.24609007
 44
2.60893706
 45
-13.09553414
 46
-13.64833836
 79
     2
 49
1.33959307
 49
-14.73552249
 53
351.1842041
 43
0.0
 44
2.80219511
 45
13.09552173
 46
13.64835069
 79
     2
 49
1.26098802
 49
-13.87086317
 53
21.0
 43
1.40109708
 44
2.10164598
 45
-8.36324849
 46
5.64108224
 79
     2
 49
1.05082299
 49
-11.55905264
 53
326.0
 43
1.40109708
 44
2.10164598
 45
3.40908414
 46
10.1600574
 79
     2
 49
0.84065802
 49
-9.24724211
 53
71.45140076
 43
2.09803394
 44
1.63155499
 45
-11.77233597
 46
-4.51896637
 79
     2
 49
0.89306201
 49
-9.82368293
 53
37.5
 43
0.0
 44
0.0
 45
0.17037085
 46
4.66416671
 79
     6
 49
0.01
 49
-9.13515391
 49
0.01
 49
-9.38735213
 49
0.01
 49
-9.28226866
 53
7.5
 43
0.0
 44
0.0
 45
3.68586042
 46
5.52609192
 79
     6
 49
0.01
 49
-5.35219105
 49
0.01
 49
-8.92498888
 49
0.01
 49
-3.53777104
 53
-32.5
 43
-3.12444715
 44
0.0
 45
7.4793711
 46
-0.31601602
 79
     6
 49
0.01
 49
-3.50274306
 49
0.01
 49
-10.92855947
 49
0.01
 49
-14.50135729
 53
-42.5
 43
-4.52554423
 44
0.0
 45
8.17100583
 46
1.40256824
 79
     6
 49
0.01
 49
-4.55356605
 49
0.01
 49
-7.25768434
 49
0.01
 49
-10.29806534
 47
0.775229
 98
        1
 10
0.0
 20
0.0
  0
LWPOLYLINE
  5
1F0
102
{ACAD_REACTORS
330
1F1
102
}
100
AcDbEntity
  8
Ech.1_5
 62
     7
  6
CONTINUOUS
370
    -3
100
AcDbPolyline
 90
        5
 70
     1
 43
0.0
 38
2500.0
 39
-2500.0
 10
13719.21433273
 20
2477.62029196
 10
13719.21426936
 20
2347.62029196
 10
14125.52468538
 20
2347.62029196
 10
14125.52468538
 20
2477.62145111
 10
13919.21456706
 20
2477.62219698
  0
HATCH
  5
1F1
100
AcDbEntity
  8
Ech.1_5
 62
     7
  6
CONTINUOUS
100
AcDbHatch
 10
0.0
 20
0.0
 30
0.0
210
0.0
220
0.0
230
1.0
  2
AR-CONC
 70
     0
 71
     1
 91
        1
 92
        7
 72
     0
 73
     1
 93
        5
 10
13719.21433273
 20
2477.62029196
 10
13719.21426936
 20
2347.62029196
 10
14125.52468538
 20
2347.62029196
 10
14125.52468538
 20
2477.62145111
 10
13919.21456706
 20
2477.62219698
 97
        1
330
1F0
 75
     0
 76
     2
 52
0.0
 41
0.11811097
 77
     0
 78
    13
 53
50.0
 43
0.0
 44
0.0
 45
-18.84283637
 46
1.64853443
 79
     2
 49
1.97029307
 49
-21.67322338
 53
355.0
 43
0.0
 44
0.0
 45
-3.64507756
 46
19.76051824
 79
     2
 49
1.57623377
 49
-17.3385787
 53
100.45140076
 43
1.57023568
 44
-0.13737749
 45
-15.19777228
 46
-18.11197244
 79
     2
 49
1.67449124
 49
-18.41940522
 53
46.18420029
 43
0.0
 44
5.25411576
 45
-28.03703353
 46
4.34827878
 79
     2
 49
2.95543872
 49
-32.50983238
 53
96.63559723
 43
2.33641885
 44
4.89175692
 45
-24.55412615
 46
-25.59063404
 79
     2
 49
2.51173697
 49
-27.62910426
 53
351.1842041
 43
0.0
 44
5.25411576
 45
24.55410288
 46
25.59065715
 79
     2
 49
2.36435249
 49
-26.00786805
 53
21.0
 43
2.62705699
 44
3.94058615
 45
-15.68109068
 46
10.57702905
 79
     2
 49
1.97029307
 49
-21.67322338
 53
326.0
 43
2.62705699
 44
3.94058615
 45
6.39203268
 46
19.05010734
 79
     2
 49
1.57623377
 49
-17.3385787
 53
71.45140076
 43
3.93381357
 44
3.05916555
 45
-22.07312962
 46
-8.47306182
 79
     2
 49
1.67449124
 49
-18.41940522
 53
37.5
 43
0.0
 44
0.0
 45
0.31944534
 46
8.74531245
 79
     6
 49
0.01875
 49
-17.12841332
 49
0.01875
 49
-17.60128498
 49
0.01875
 49
-17.40425348
 53
7.5
 43
0.0
 44
0.0
 45
6.91098818
 46
10.3614222
 79
     6
 49
0.01875
 49
-10.03535807
 49
0.01875
 49
-16.7343539
 49
0.01875
 49
-6.6333206
 53
-32.5
 43
-5.85833833
 44
0.0
 45
14.02382061
 46
-0.59253003
 79
     6
 49
0.01875
 49
-6.56764314
 49
0.01875
 49
-20.49104869
 49
0.01875
 49
-27.19004452
 53
-42.5
 43
-8.48539531
 44
0.0
 45
15.32063571
 46
2.62981542
 79
     6
 49
0.01875
 49
-8.53793621
 49
0.01875
 49
-13.60815793
 49
0.01875
 49
-19.30887222
 47
0.775229
 98
        1
 10
0.0
 20
0.0
  0
LWPOLYLINE
  5
1F2
102
{ACAD_REACTORS
330
1F3
102
}
100
AcDbEntity
  8
Ech.1_5
 62
     7
  6
CONTINUOUS
370
    -3
100
AcDbPolyline
 90
        4
 70
     1
 43
0.0
 10
13952.75167047
 20
2637.61997446
 10
13952.75167047
 20
2627.62029185
 10
14125.52468538
 20
2627.62035341
 10
14125.52468538
 20
2637.61997446
  0
HATCH
  5
1F3
100
AcDbEntity
  8
Ech.1_5
 62
     7
  6
CONTINUOUS
100
AcDbHatch
 10
0.0
 20
0.0
 30
0.0
210
0.0
220
0.0
230
1.0
  2
ANSI31
 70
     0
 71
     1
 91
        1
 92
        7
 72
     0
 73
     1
 93
        4
 10
13952.75167047
 20
2637.61997446
 10
13952.75167047
 20
2627.62029185
 10
14125.52468538
 20
2627.62035341
 10
14125.52468538
 20
2637.61997446
 97
        1
330
1F2
 75
     0
 76
     2
 52
90.0
 41
3.14962605
 77
     0
 78
     1
 53
-45.0
 43
0.0
 44
0.0
 45
7.07106781
 46
7.07106781
 79
     0
 47
0.775229
 98
        1
 10
0.0
 20
0.0
  0
LWPOLYLINE
  5
1F4
100
AcDbEntity
  8
Ech.1_5
 62
     7
  6
CONTINUOUS
100
AcDbPolyline
 90
        6
 70
     0
 43
0.0
 10
13942.21574791
 20
2707.27752374
 10
13945.21433271
 20
2707.27745482
 42
-0.41421356
 10
13955.21433271
 20
2697.27745482
 10
13955.21433271
 20
2641.61268151
 10
13942.21433273
 20
2641.61267917
 10
13942.21433273
 20
2707.27745248
  0
LWPOLYLINE
  5
1F5
102
{ACAD_REACTORS
330
1F6
102
}
100
AcDbEntity
  8
Ech.1_5
 62
     7
  6
CONTINUOUS
370
    -3
100
AcDbPolyline
 90
        4
 70
     1
 43
0.0
 10
13942.21433273
 20
2996.86244426
 10
13929.21433273
 20
2996.86244426
 10
13929.21433273
 20
2487.61267929
 10
13942.21433273
 20
2487.61267929
  0
HATCH
  5
1F6
100
AcDbEntity
  8
Ech.1_5
 62
     7
  6
CONTINUOUS
100
AcDbHatch
 10
0.0
 20
0.0
 30
0.0
210
0.0
220
0.0
230
1.0
  2
DOTS2
 70
     0
 71
     1
 91
        1
 92
        7
 72
     0
 73
     1
 93
        4
 10
13942.21433273
 20
2996.86244426
 10
13929.21433273
 20
2996.86244426
 10
13929.21433273
 20
2487.61267929
 10
13942.21433273
 20
2487.61267929
 97
        1
330
1F5
 75
     0
 76
     2
 52
0.0
 41
4.72440952
 77
     0
 78
     1
 53
0.0
 43
0.0
 44
0.0
 45
3.75
 46
3.535
 79
     2
 49
0.0
 49
-3.535
 47
0.775229
 98
        1
 10
0.0
 20
0.0
  0
LWPOLYLINE
  5
1F7
100
AcDbEntity
  8
Ech.1_5
 62
     7
  6
CONTINUOUS
370
    25
100
AcDbPolyline
 90
        5
 70
     0
 43
0.0
 38
2500.0
 10
13965.093731
 20
2478.10226416
 10
13947.38547202
 20
2478.10226416
 10
13947.38547202
 20
2645.26587208
 10
13944.78066847
 20
2648.21724924
 10
13944.78066847
 20
2669.35483026
  0
LINE
  5
1F8
100
AcDbEntity
  8
Ech.1_5
 62
     7
  6
CONTINUOUS
370
    70
100
AcDbLine
 10
13943.68225883
 20
2644.86631291
 30
2500.0
 11
13943.68225883
 21
2477.90111302
 31
2500.0
  0
LWPOLYLINE
  5
1F9
100
AcDbEntity
  8
Ech.1_5
 62
     7
  6
CONTINUOUS
370
    35
100
AcDbPolyline
 90
        3
 70
     0
 43
0.0
 38
2500.0
 10
13964.33009932
 20
2579.29916384
 10
13949.78934704
 20
2579.29916384
 10
13949.78934704
 20
2597.05773979
  0
LWPOLYLINE
  5
1FA
100
AcDbEntity
  8
Ech.1_5
 62
     7
  6
CONTINUOUS
370
    -3
100
AcDbPolyline
 90
        4
 70
     0
 43
0.0
 10
13709.21433273
 20
2477.61267189
 10
13889.21433273
 20
2522.61267189
 10
13889.21433273
 20
2477.61267189
 10
13709.21433273
 20
2522.61267189
  0
LWPOLYLINE
  5
1FB
100
AcDbEntity
  8
Ech.1_5
 62
     7
  6
CONTINUOUS
370
    -3
100
AcDbPolyline
 90
        4
 70
     0
 43
0.0
 10
13709.21433273
 20
2522.61267189
 10
13889.21433273
 20
2567.61267189
 10
13889.21433273
 20
2522.61267189
 10
13709.21433273
 20
2567.61267189
  0
LWPOLYLINE
  5
1FC
100
AcDbEntity
  8
Ech.1_5
 62
     7
  6
CONTINUOUS
370
    -3
100
AcDbPolyline
 90
        5
 70
     0
 43
0.0
 10
13709.21433273
 20
2567.61267189
 10
13889.21433273
 20
2567.61267189
 10
13889.21433273
 20
2522.61267189
 10
13709.21433273
 20
2522.61267189
 10
13709.21433273
 20
2567.61267189
  0
CIRCLE
  5
1FD
100
AcDbEntity
  8
Ech.1_5
 62
     7
  6
CONTINUOUS
100
AcDbCircle
 10
13934.88604418
 20
2481.75537142
 30
0.0
 40
6.16444121
  0
HATCH
  5
1FE
100
AcDbEntity
  8
Ech.1_5
 62
     7
100
AcDbHatch
 10
0.0
 20
0.0
 30
0.0
210
0.0
220
0.0
230
1.0
  2
ANSI31
 70
     0
 71
     0
 91
        1
 92
        7
 72
     1
 73
     1
 93
        2
 10
13941.05048539
 20
2481.75537142
 42
1.0
 10
13928.72160297
 20
2481.75537142
 42
1.0
 97
        0
 75
     0
 76
     2
 52
0.0
 41
0.94488785
 77
     0
 78
     1
 53
45.0
 43
0.0
 44
0.0
 45
2.12132043
 46
-2.12132043
 79
     0
 47
0.775229
 98
        1
 10
0.0
 20
0.0
  0
LWPOLYLINE
  5
1FF
102
{ACAD_REACTORS
330
200
102
}
100
AcDbEntity
  8
Ech.1_5
 62
     7
  6
CONTINUOUS
370
    -3
100
AcDbPolyline
 90
        4
 70
     1
 43
0.0
 10
13709.21433273
 20
2996.3722234
 10
13700.21433273
 20
2996.3722234
 10
13700.21433273
 20
2487.61267189
 10
13709.21433273
 20
2487.61267189
  0
HATCH
  5
200
100
AcDbEntity
  8
Ech.1_5
 62
     7
  6
CONTINUOUS
100
AcDbHatch
 10
0.0
 20
0.0
 30
0.0
210
0.0
220
0.0
230
1.0
  2
CDWK10A
 70
     0
 71
     1
 91
        1
 92
        7
 72
     0
 73
     1
 93
        4
 10
13709.21433273
 20
2996.3722234
 10
13700.21433273
 20
2996.3722234
 10
13700.21433273
 20
2487.61267189
 10
13709.21433273
 20
2487.61267189
 97
        1
330
1FF
 75
     0
 76
     2
 52
0.0
 41
1.0
 77
     0
 78
     3
 53
45.0
 43
0.0
 44
0.0
 45
0.0
 46
42.00000167
 79
     0
 53
45.0
 43
0.0
 44
10.80000043
 45
0.0
 46
42.00000167
 79
     0
 53
45.0
 43
0.0
 44
21.60000086
 45
0.0
 46
42.00000167
 79
     0
 47
0.775229
 98
        1
 10
0.0
 20
0.0
  0
LWPOLYLINE
  5
201
100
AcDbEntity
  8
Ech.1_5
 62
     7
  6
CONTINUOUS
370
    -3
100
AcDbPolyline
 90
        5
 70
     0
 43
0.0
 10
13889.21433273
 20
2507.61267189
 10
13929.21433273
 20
2507.61267189
 10
13929.21433273
 20
2552.61267189
 10
13889.21433273
 20
2552.61267189
 10
13889.21433273
 20
2507.61267189
  0
LWPOLYLINE
  5
202
100
AcDbEntity
  8
Ech.1_5
 62
     7
  6
CONTINUOUS
370
    -3
100
AcDbPolyline
 90
        4
 70
     0
 43
0.0
 10
13889.21433273
 20
2552.61267189
 10
13929.21433273
 20
2507.61267189
 10
13929.21433273
 20
2552.61267189
 10
13889.21433273
 20
2507.61267189
  0
LWPOLYLINE
  5
203
100
AcDbEntity
  8
Ech.1_5
 62
     7
  6
CONTINUOUS
370
    -3
100
AcDbPolyline
 90
        5
 70
     0
 43
0.0
 10
13709.21433273
 20
2522.61267189
 10
13889.21433273
 20
2522.61267189
 10
13889.21433273
 20
2477.61267189
 10
13709.21433273
 20
2477.61267189
 10
13709.21433273
 20
2522.61267189
  0
LWPOLYLINE
  5
204
100
AcDbEntity
  8
Ech.1_5
 62
     7
  6
BYBLOCK
100
AcDbPolyline
 90
        5
 70
     0
 43
0.0
 10
13809.73731557
 20
2468.18050753
 10
13835.56184665
 20
2468.18050753
 10
13835.56184665
 20
2477.61316759
 10
13809.73731557
 20
2477.61316759
 10
13809.73731557
 20
2468.18050753
  0
LWPOLYLINE
  5
205
100
AcDbEntity
  8
Ech.1_5
 62
     7
  6
CONTINUOUS
370
    70
100
AcDbPolyline
 90
        3
 70
     0
 43
0.0
 10
13678.11006129
 20
2476.91087891
 10
13696.6048701
 20
2476.91087891
 10
13696.6048701
 20
2515.15863975
  0
LWPOLYLINE
  5
206
100
AcDbEntity
  8
Ech.1_5
 62
   204
  6
DASHDOT
370
    70
100
AcDbPolyline
 90
       11
 70
     0
 43
0.0
 38
2500.0
 10
13696.1742467
 20
2475.18883591
 10
13702.04781289
 20
2475.18883591
 10
13738.4638546
 20
2475.18883591
 10
13743.34350801
 20
2475.18883591
 10
13770.76157121
 20
2475.18883591
 10
13776.04201058
 20
2475.18525439
 10
13802.61696039
 20
2475.18338291
 10
13808.66735588
 20
2475.18883591
 10
13837.00575518
 20
2475.18883591
 10
13842.70490412
 20
2475.181563
 10
13887.41510411
 20
2475.1818788
  0
HATCH
  5
207
100
AcDbEntity
  8
Ech.1_5
 62
     7
100
AcDbHatch
 10
0.0
 20
0.0
 30
0.0
210
0.0
220
0.0
230
1.0
  2
ANSI37
 70
     0
 71
     0
 91
        1
 92
        7
 72
     0
 73
     1
 93
        4
 10
13743.97398486
 20
2468.18050753
 10
13769.79851595
 20
2468.18050753
 10
13769.79851595
 20
2477.61316759
 10
13743.97398486
 20
2477.61316759
 97
        0
 75
     0
 76
     2
 52
0.0
 41
1.87498831
 77
     0
 78
     2
 53
45.0
 43
0.0
 44
0.0
 45
4.20946876
 46
-4.20946876
 79
     0
 53
-45.0
 43
0.0
 44
0.0
 45
4.20946876
 46
4.20946876
 79
     0
 47
0.775229
 98
        1
 10
0.0
 20
0.0
  0
HATCH
  5
208
100
AcDbEntity
  8
Ech.1_5
 62
     7
100
AcDbHatch
 10
0.0
 20
0.0
 30
0.0
210
0.0
220
0.0
230
1.0
  2
ANSI37
 70
     0
 71
     0
 91
        1
 92
        7
 72
     0
 73
     1
 93
        4
 10
13809.73731557
 20
2468.18050753
 10
13835.56184665
 20
2468.18050753
 10
13835.56184665
 20
2477.61316759
 10
13809.73731557
 20
2477.61316759
 97
        0
 75
     0
 76
     2
 52
0.0
 41
1.87498831
 77
     0
 78
     2
 53
45.0
 43
0.0
 44
0.0
 45
4.20946876
 46
-4.20946876
 79
     0
 53
-45.0
 43
0.0
 44
0.0
 45
4.20946876
 46
4.20946876
 79
     0
 47
0.775229
 98
        1
 10
0.0
 20
0.0
  0
LINE
  5
209
100
AcDbEntity
  8
Ech.1_5
 62
   150
  6
CADWORK_22
370
    35
100
AcDbLine
 10
13698.71434363
 20
2996.3722234
 30
2500.0
 11
13698.71434363
 21
2477.61267189
 31
2500.0
  0
LWPOLYLINE
  5
20A
100
AcDbEntity
  8
Ech.1_5
 62
     7
  6
CONTINUOUS
370
    -3
100
AcDbPolyline
 90
        5
 70
     0
 43
0.0
 10
13889.21433273
 20
2598.35228278
 10
13929.21433273
 20
2598.35228278
 10
13929.21433273
 20
2643.35228278
 10
13889.21433273
 20
2643.35228278
 10
13889.21433273
 20
2598.35228278
  0
LWPOLYLINE
  5
20B
100
AcDbEntity
  8
Ech.1_5
 62
     7
  6
CONTINUOUS
370
    -3
100
AcDbPolyline
 90
        4
 70
     0
 43
0.0
 10
13889.21433273
 20
2643.35228278
 10
13929.21433273
 20
2598.35228278
 10
13929.21433273
 20
2643.35228278
 10
13889.21433273
 20
2598.35228278
  0
LWPOLYLINE
  5
20C
100
AcDbEntity
  8
Ech.1_5
 62
     1
  6
CADWORK_22
370
    35
100
AcDbPolyline
 90
        6
 70
     0
 43
0.0
 10
13890.71433273
 20
2996.37259968
 10
13890.71433273
 20
2479.11457691
 10
13928.10698887
 20
2479.11457691
 10
13936.3147512
 20
2487.2147701
 10
13942.89410861
 20
2479.11475599
 10
13969.55326049
 20
2479.11475599
  0
LWPOLYLINE
  5
20D
100
AcDbEntity
  8
Ech.1_5
 62
     7
  6
CONTINUOUS
370
    -3
100
AcDbPolyline
 90
       28
 70
     0
 43
0.0
 10
13739.21433273
 20
2996.3722234
 42
1.14028181
 10
13746.97892156
 20
2937.39445329
 10
13851.44974389
 20
2965.3499935
 42
-1.30322619
 10
13851.44974389
 20
2907.39445329
 10
13746.97892156
 20
2935.3499935
 42
1.30322619
 10
13746.97892156
 20
2877.39445329
 10
13851.44974389
 20
2905.3499935
 42
-1.30322619
 10
13851.44974389
 20
2847.39445329
 10
13746.97892156
 20
2875.3499935
 42
1.30322619
 10
13746.97892156
 20
2817.39445329
 10
13851.44974389
 20
2845.3499935
 42
-1.30322619
 10
13851.44974389
 20
2787.39445329
 10
13746.97892156
 20
2815.3499935
 42
1.30322619
 10
13746.97892156
 20
2757.39445329
 10
13851.44974389
 20
2785.3499935
 42
-1.30322619
 10
13851.44974389
 20
2727.39445329
 10
13746.97892156
 20
2755.3499935
 42
1.30322619
 10
13746.97892156
 20
2697.39445329
 10
13851.44974389
 20
2725.3499935
 42
-1.30322619
 10
13851.44974389
 20
2667.39445329
 10
13746.97892156
 20
2695.3499935
 42
1.30322619
 10
13746.97892156
 20
2637.39445329
 10
13851.44974389
 20
2665.3499935
 42
-1.30322619
 10
13851.44974389
 20
2607.39445329
 10
13746.97892156
 20
2635.3499935
 42
1.30322619
 10
13746.97892156
 20
2577.39445329
 10
13851.44974389
 20
2605.3499935
 42
-0.58890908
 10
13887.90701921
 20
2567.61267189
  0
LWPOLYLINE
  5
20E
100
AcDbEntity
  8
Ech.1_5
 62
     7
  6
CONTINUOUS
370
    -3
100
AcDbPolyline
 90
        6
 70
     0
 43
0.0
 10
13622.46641215
 20
2996.3722234
 10
13765.8951491
 20
2996.3722234
 10
13782.38065226
 20
3014.3495718
 10
13768.27071224
 20
2978.39387179
 10
13784.75706632
 20
2996.3722234
 10
13965.24453067
 20
2996.37285198
  0
LINE
  5
20F
100
AcDbEntity
  8
Ech.1_5
 62
     7
  6
CONTINUOUS
370
    -3
100
AcDbLine
 10
13633.57386828
 20
2447.62029196
 30
0.0
 11
13633.57386828
 21
2198.11484716
 31
0.0
  0
LINE
  5
210
100
AcDbEntity
  8
Ech.1_5
 62
     7
  6
CONTINUOUS
370
    -3
100
AcDbLine
 10
13653.27517664
 20
2447.62029196
 30
0.0
 11
13633.45636828
 21
2447.62029196
 31
0.0
  0
LINE
  5
211
100
AcDbEntity
  8
Ech.1_5
 62
     7
  6
CONTINUOUS
370
    -3
100
AcDbLine
 10
13700.30303737
 20
2477.62029196
 30
0.0
 11
13633.45636828
 21
2477.62029196
 31
0.0
  0
LINE
  5
212
100
AcDbEntity
  8
Ech.1_5
 62
     7
  6
CONTINUOUS
370
    -3
100
AcDbLine
 10
13633.63636828
 20
2447.62029196
 30
0.0
 11
13633.63636828
 21
2477.62029196
 31
0.0
  0
LINE
  5
213
100
AcDbEntity
  8
Ech.1_5
 62
     7
  6
CONTINUOUS
370
    -3
100
AcDbLine
 10
13630.07386824
 20
2201.61484712
 30
0.0
 11
13637.07386832
 21
2194.6148472
 31
0.0
  0
LINE
  5
214
100
AcDbEntity
  8
Ech.1_5
 62
     7
  6
CONTINUOUS
370
    -3
100
AcDbLine
 10
13630.07386824
 20
2451.12029192
 30
0.0
 11
13637.07386832
 21
2444.120292
 31
0.0
  0
LINE
  5
215
100
AcDbEntity
  8
Ech.1_5
 62
     7
  6
CONTINUOUS
370
    -3
100
AcDbLine
 10
13637.13636843
 20
2474.12029212
 30
0.0
 11
13630.13636813
 21
2481.12029181
 31
0.0
  0
LWPOLYLINE
  5
216
102
{ACAD_REACTORS
330
217
102
}
100
AcDbEntity
  8
Ech.1_5
 62
     7
  6
CONTINUOUS
370
    -3
100
AcDbPolyline
 90
        5
 70
     1
 43
0.0
 38
2500.0
 39
-2500.0
 10
15270.54837839
 20
2606.00497276
 10
15269.04837839
 20
2606.00497276
 10
15269.04837839
 20
2585.27642108
 10
15270.36557437
 20
2585.43815241
 10
15270.54837839
 20
2583.94933318
  0
HATCH
  5
217
100
AcDbEntity
  8
Ech.1_5
 62
     7
  6
CONTINUOUS
100
AcDbHatch
 10
0.0
 20
0.0
 30
0.0
210
0.0
220
0.0
230
1.0
  2
AR-CONC
 70
     0
 71
     1
 91
        1
 92
        7
 72
     0
 73
     1
 93
        5
 10
15270.54837839
 20
2606.00497276
 10
15269.04837839
 20
2606.00497276
 10
15269.04837839
 20
2585.27642108
 10
15270.36557437
 20
2585.43815241
 10
15270.54837839
 20
2583.94933318
 97
        1
330
216
 75
     0
 76
     2
 52
0.0
 41
0.06299252
 77
     0
 78
    13
 53
50.0
 43
0.0
 44
0.0
 45
-10.04951288
 46
0.87921838
 79
     2
 49
1.05082299
 49
-11.55905264
 53
355.0
 43
0.0
 44
0.0
 45
-1.94404139
 46
10.53894322
 79
     2
 49
0.84065802
 49
-9.24724211
 53
100.45140076
 43
0.83745904
 44
-0.073268
 45
-8.10547867
 46
-9.65971878
 79
     2
 49
0.89306201
 49
-9.82368293
 53
46.18420029
 43
0.0
 44
2.80219511
 45
-14.95308477
 46
2.31908205
 79
     2
 49
1.57623401
 49
-17.33857753
 53
96.63559723
 43
1.24609007
 44
2.60893706
 45
-13.09553414
 46
-13.64833836
 79
     2
 49
1.33959307
 49
-14.73552249
 53
351.1842041
 43
0.0
 44
2.80219511
 45
13.09552173
 46
13.64835069
 79
     2
 49
1.26098802
 49
-13.87086317
 53
21.0
 43
1.40109708
 44
2.10164598
 45
-8.36324849
 46
5.64108224
 79
     2
 49
1.05082299
 49
-11.55905264
 53
326.0
 43
1.40109708
 44
2.10164598
 45
3.40908414
 46
10.1600574
 79
     2
 49
0.84065802
 49
-9.24724211
 53
71.45140076
 43
2.09803394
 44
1.63155499
 45
-11.77233597
 46
-4.51896637
 79
     2
 49
0.89306201
 49
-9.82368293
 53
37.5
 43
0.0
 44
0.0
 45
0.17037085
 46
4.66416671
 79
     6
 49
0.01
 49
-9.13515391
 49
0.01
 49
-9.38735213
 49
0.01
 49
-9.28226866
 53
7.5
 43
0.0
 44
0.0
 45
3.68586042
 46
5.52609192
 79
     6
 49
0.01
 49
-5.35219105
 49
0.01
 49
-8.92498888
 49
0.01
 49
-3.53777104
 53
-32.5
 43
-3.12444715
 44
0.0
 45
7.4793711
 46
-0.31601602
 79
     6
 49
0.01
 49
-3.50274306
 49
0.01
 49
-10.92855947
 49
0.01
 49
-14.50135729
 53
-42.5
 43
-4.52554423
 44
0.0
 45
8.17100583
 46
1.40256824
 79
     6
 49
0.01
 49
-4.55356605
 49
0.01
 49
-7.25768434
 49
0.01
 49
-10.29806534
 47
0.775229
 98
        1
 10
0.0
 20
0.0
  0
3DFACE
  5
218
102
{ACAD_REACTORS
330
219
102
}
100
AcDbEntity
  8
Ech.1_5
 62
     7
  6
CONTINUOUS
370
    -3
100
AcDbFace
 70
     0
 10
15270.36557437
 20
2585.43815241
 30
2500.0
 11
15269.04837839
 21
2585.27642108
 31
2500.0
 12
15269.04837839
 22
2583.94933318
 32
2500.0
 13
15270.54837839
 23
2583.94933318
 33
2500.0
  0
HATCH
  5
219
100
AcDbEntity
  8
Ech.1_5
 62
     7
  6
CONTINUOUS
100
AcDbHatch
 10
0.0
 20
0.0
 30
0.0
210
0.0
220
0.0
230
1.0
  2
AR-CONC
 70
     0
 71
     1
 91
        1
 92
        7
 72
     0
 73
     1
 93
        4
 10
15270.36557437
 20
2585.43815241
 10
15269.04837839
 20
2585.27642108
 10
15269.04837839
 20
2583.94933318
 10
15270.54837839
 20
2583.94933318
 97
        1
330
218
 75
     0
 76
     2
 52
0.0
 41
0.06299252
 77
     0
 78
    13
 53
50.0
 43
0.0
 44
0.0
 45
-10.04951288
 46
0.87921838
 79
     2
 49
1.05082299
 49
-11.55905264
 53
355.0
 43
0.0
 44
0.0
 45
-1.94404139
 46
10.53894322
 79
     2
 49
0.84065802
 49
-9.24724211
 53
100.45140076
 43
0.83745904
 44
-0.073268
 45
-8.10547867
 46
-9.65971878
 79
     2
 49
0.89306201
 49
-9.82368293
 53
46.18420029
 43
0.0
 44
2.80219511
 45
-14.95308477
 46
2.31908205
 79
     2
 49
1.57623401
 49
-17.33857753
 53
96.63559723
 43
1.24609007
 44
2.60893706
 45
-13.09553414
 46
-13.64833836
 79
     2
 49
1.33959307
 49
-14.73552249
 53
351.1842041
 43
0.0
 44
2.80219511
 45
13.09552173
 46
13.64835069
 79
     2
 49
1.26098802
 49
-13.87086317
 53
21.0
 43
1.40109708
 44
2.10164598
 45
-8.36324849
 46
5.64108224
 79
     2
 49
1.05082299
 49
-11.55905264
 53
326.0
 43
1.40109708
 44
2.10164598
 45
3.40908414
 46
10.1600574
 79
     2
 49
0.84065802
 49
-9.24724211
 53
71.45140076
 43
2.09803394
 44
1.63155499
 45
-11.77233597
 46
-4.51896637
 79
     2
 49
0.89306201
 49
-9.82368293
 53
37.5
 43
0.0
 44
0.0
 45
0.17037085
 46
4.66416671
 79
     6
 49
0.01
 49
-9.13515391
 49
0.01
 49
-9.38735213
 49
0.01
 49
-9.28226866
 53
7.5
 43
0.0
 44
0.0
 45
3.68586042
 46
5.52609192
 79
     6
 49
0.01
 49
-5.35219105
 49
0.01
 49
-8.92498888
 49
0.01
 49
-3.53777104
 53
-32.5
 43
-3.12444715
 44
0.0
 45
7.4793711
 46
-0.31601602
 79
     6
 49
0.01
 49
-3.50274306
 49
0.01
 49
-10.92855947
 49
0.01
 49
-14.50135729
 53
-42.5
 43
-4.52554423
 44
0.0
 45
8.17100583
 46
1.40256824
 79
     6
 49
0.01
 49
-4.55356605
 49
0.01
 49
-7.25768434
 49
0.01
 49
-10.29806534
 47
0.775229
 98
        1
 10
0.0
 20
0.0
  0
LWPOLYLINE
  5
21A
102
{ACAD_REACTORS
330
21B
102
}
100
AcDbEntity
  8
Ech.1_5
 62
     7
  6
CONTINUOUS
370
    -3
100
AcDbPolyline
 90
        7
 70
     1
 43
0.0
 38
2500.0
 39
-2500.0
 10
15270.54837839
 20
2583.94933318
 10
15269.04837839
 20
2583.94933318
 10
15269.04837839
 20
2585.27642108
 10
15149.03778439
 20
2570.54097299
 10
15003.91143603
 20
2552.74091726
 10
15004.09424004
 20
2551.25209803
 10
15149.03778439
 20
2569.02970825
  0
HATCH
  5
21B
100
AcDbEntity
  8
Ech.1_5
 62
     7
  6
CONTINUOUS
100
AcDbHatch
 10
0.0
 20
0.0
 30
0.0
210
0.0
220
0.0
230
1.0
  2
AR-CONC
 70
     0
 71
     1
 91
        1
 92
        7
 72
     0
 73
     1
 93
        7
 10
15270.54837839
 20
2583.94933318
 10
15269.04837839
 20
2583.94933318
 10
15269.04837839
 20
2585.27642108
 10
15149.03778439
 20
2570.54097299
 10
15003.91143603
 20
2552.74091726
 10
15004.09424004
 20
2551.25209803
 10
15149.03778439
 20
2569.02970825
 97
        1
330
21A
 75
     0
 76
     2
 52
0.0
 41
0.06299252
 77
     0
 78
    13
 53
50.0
 43
0.0
 44
0.0
 45
-10.04951288
 46
0.87921838
 79
     2
 49
1.05082299
 49
-11.55905264
 53
355.0
 43
0.0
 44
0.0
 45
-1.94404139
 46
10.53894322
 79
     2
 49
0.84065802
 49
-9.24724211
 53
100.45140076
 43
0.83745904
 44
-0.073268
 45
-8.10547867
 46
-9.65971878
 79
     2
 49
0.89306201
 49
-9.82368293
 53
46.18420029
 43
0.0
 44
2.80219511
 45
-14.95308477
 46
2.31908205
 79
     2
 49
1.57623401
 49
-17.33857753
 53
96.63559723
 43
1.24609007
 44
2.60893706
 45
-13.09553414
 46
-13.64833836
 79
     2
 49
1.33959307
 49
-14.73552249
 53
351.1842041
 43
0.0
 44
2.80219511
 45
13.09552173
 46
13.64835069
 79
     2
 49
1.26098802
 49
-13.87086317
 53
21.0
 43
1.40109708
 44
2.10164598
 45
-8.36324849
 46
5.64108224
 79
     2
 49
1.05082299
 49
-11.55905264
 53
326.0
 43
1.40109708
 44
2.10164598
 45
3.40908414
 46
10.1600574
 79
     2
 49
0.84065802
 49
-9.24724211
 53
71.45140076
 43
2.09803394
 44
1.63155499
 45
-11.77233597
 46
-4.51896637
 79
     2
 49
0.89306201
 49
-9.82368293
 53
37.5
 43
0.0
 44
0.0
 45
0.17037085
 46
4.66416671
 79
     6
 49
0.01
 49
-9.13515391
 49
0.01
 49
-9.38735213
 49
0.01
 49
-9.28226866
 53
7.5
 43
0.0
 44
0.0
 45
3.68586042
 46
5.52609192
 79
     6
 49
0.01
 49
-5.35219105
 49
0.01
 49
-8.92498888
 49
0.01
 49
-3.53777104
 53
-32.5
 43
-3.12444715
 44
0.0
 45
7.4793711
 46
-0.31601602
 79
     6
 49
0.01
 49
-3.50274306
 49
0.01
 49
-10.92855947
 49
0.01
 49
-14.50135729
 53
-42.5
 43
-4.52554423
 44
0.0
 45
8.17100583
 46
1.40256824
 79
     6
 49
0.01
 49
-4.55356605
 49
0.01
 49
-7.25768434
 49
0.01
 49
-10.29806534
 47
0.775229
 98
        1
 10
0.0
 20
0.0
  0
3DFACE
  5
21C
102
{ACAD_REACTORS
330
21D
102
}
100
AcDbEntity
  8
Ech.1_5
 62
     7
  6
CONTINUOUS
370
    -3
100
AcDbFace
 70
     0
 10
15003.91143603
 20
2552.74091726
 30
2500.0
 11
15002.41143603
 21
2552.74091726
 31
2500.0
 12
15002.41143603
 22
2492.74091726
 32
2500.0
 13
15003.91143603
 23
2492.74091726
 33
2500.0
  0
HATCH
  5
21D
100
AcDbEntity
  8
Ech.1_5
 62
     7
  6
CONTINUOUS
100
AcDbHatch
 10
0.0
 20
0.0
 30
0.0
210
0.0
220
0.0
230
1.0
  2
AR-CONC
 70
     0
 71
     1
 91
        1
 92
        7
 72
     0
 73
     1
 93
        4
 10
15003.91143603
 20
2552.74091726
 10
15002.41143603
 20
2552.74091726
 10
15002.41143603
 20
2492.74091726
 10
15003.91143603
 20
2492.74091726
 97
        1
330
21C
 75
     0
 76
     2
 52
0.0
 41
0.06299252
 77
     0
 78
    13
 53
50.0
 43
0.0
 44
0.0
 45
-10.04951288
 46
0.87921838
 79
     2
 49
1.05082299
 49
-11.55905264
 53
355.0
 43
0.0
 44
0.0
 45
-1.94404139
 46
10.53894322
 79
     2
 49
0.84065802
 49
-9.24724211
 53
100.45140076
 43
0.83745904
 44
-0.073268
 45
-8.10547867
 46
-9.65971878
 79
     2
 49
0.89306201
 49
-9.82368293
 53
46.18420029
 43
0.0
 44
2.80219511
 45
-14.95308477
 46
2.31908205
 79
     2
 49
1.57623401
 49
-17.33857753
 53
96.63559723
 43
1.24609007
 44
2.60893706
 45
-13.09553414
 46
-13.64833836
 79
     2
 49
1.33959307
 49
-14.73552249
 53
351.1842041
 43
0.0
 44
2.80219511
 45
13.09552173
 46
13.64835069
 79
     2
 49
1.26098802
 49
-13.87086317
 53
21.0
 43
1.40109708
 44
2.10164598
 45
-8.36324849
 46
5.64108224
 79
     2
 49
1.05082299
 49
-11.55905264
 53
326.0
 43
1.40109708
 44
2.10164598
 45
3.40908414
 46
10.1600574
 79
     2
 49
0.84065802
 49
-9.24724211
 53
71.45140076
 43
2.09803394
 44
1.63155499
 45
-11.77233597
 46
-4.51896637
 79
     2
 49
0.89306201
 49
-9.82368293
 53
37.5
 43
0.0
 44
0.0
 45
0.17037085
 46
4.66416671
 79
     6
 49
0.01
 49
-9.13515391
 49
0.01
 49
-9.38735213
 49
0.01
 49
-9.28226866
 53
7.5
 43
0.0
 44
0.0
 45
3.68586042
 46
5.52609192
 79
     6
 49
0.01
 49
-5.35219105
 49
0.01
 49
-8.92498888
 49
0.01
 49
-3.53777104
 53
-32.5
 43
-3.12444715
 44
0.0
 45
7.4793711
 46
-0.31601602
 79
     6
 49
0.01
 49
-3.50274306
 49
0.01
 49
-10.92855947
 49
0.01
 49
-14.50135729
 53
-42.5
 43
-4.52554423
 44
0.0
 45
8.17100583
 46
1.40256824
 79
     6
 49
0.01
 49
-4.55356605
 49
0.01
 49
-7.25768434
 49
0.01
 49
-10.29806534
 47
0.775229
 98
        1
 10
0.0
 20
0.0
  0
LWPOLYLINE
  5
21E
100
AcDbEntity
  8
Ech.1_5
 62
     7
  6
CONTINUOUS
370
    -3
100
AcDbPolyline
 90
        4
 70
     0
 43
0.0
 10
15347.54261397
 20
2616.03607963
 10
15293.95487048
 20
2606.02943164
 10
15293.95487048
 20
2616.03519606
 10
15347.54261397
 20
2606.03031522
  0
LWPOLYLINE
  5
21F
102
{ACAD_REACTORS
330
220
102
}
100
AcDbEntity
  8
Ech.1_5
 62
     7
  6
CONTINUOUS
370
     5
100
AcDbPolyline
 90
        4
 70
     1
 43
0.0
 10
15280.57735001
 20
2616.01073717
 10
15273.78835882
 20
2616.01073717
 10
15273.78835882
 20
2606.00497276
 10
15280.57735001
 20
2606.00497276
  0
HATCH
  5
220
100
AcDbEntity
  8
Ech.1_5
 62
     2
  6
CONTINUOUS
100
AcDbHatch
 10
0.0
 20
0.0
 30
0.0
210
0.0
220
0.0
230
1.0
  2
SOLID
 70
     1
 71
     1
 91
        1
 92
        7
 72
     0
 73
     1
 93
        4
 10
15280.57735001
 20
2616.01073717
 10
15273.78835882
 20
2616.01073717
 10
15273.78835882
 20
2606.00497276
 10
15280.57735001
 20
2606.00497276
 97
        1
330
21F
 75
     0
 76
     2
 47
0.775229
 98
        1
 10
0.0
 20
0.0
  0
HATCH
  5
221
100
AcDbEntity
  8
Ech.1_5
 62
     7
  6
CONTINUOUS
100
AcDbHatch
 10
0.0
 20
0.0
 30
0.0
210
0.0
220
0.0
230
1.0
  2
ANSI31
 70
     0
 71
     1
 91
        1
 92
        7
 72
     0
 73
     1
 93
        4
 10
15280.57735001
 20
2616.01073717
 10
15273.78835882
 20
2616.01073717
 10
15273.78835882
 20
2606.00497276
 10
15280.57735001
 20
2606.00497276
 97
        1
330
220
 75
     0
 76
     2
 52
0.0
 41
0.94488785
 77
     0
 78
     1
 53
45.0
 43
0.0
 44
0.0
 45
2.12132043
 46
-2.12132043
 79
     0
 47
0.775229
 98
        1
 10
0.0
 20
0.0
  0
LINE
  5
222
100
AcDbEntity
  8
Ech.1_5
 62
     7
  6
CONTINUOUS
370
    -3
100
AcDbLine
 10
15273.78835882
 20
2579.75649616
 30
0.0
 11
15273.78835882
 21
2522.13136766
 31
0.0
  0
LWPOLYLINE
  5
223
100
AcDbEntity
  8
Ech.1_5
 62
     7
  6
CONTINUOUS
370
    -3
100
AcDbPolyline
 90
        4
 70
     0
 43
0.0
 10
15209.16444928
 20
2522.13225123
 10
15150.47785542
 20
2512.6987076
 10
15150.47785542
 20
2522.13136766
 10
15209.16444928
 20
2512.69959117
  0
LWPOLYLINE
  5
224
100
AcDbEntity
  8
Ech.1_5
 62
     7
  6
CONTINUOUS
370
    -3
100
AcDbPolyline
 90
        8
 70
     0
 43
0.0
 10
15273.78835882
 20
2606.00497276
 10
15273.78835882
 20
2579.75649616
 10
15008.07801007
 20
2547.13136766
 10
15008.07801007
 20
2522.13136766
 10
15273.78835882
 20
2522.13136766
 10
15347.54215497
 20
2522.13225123
 10
15347.54215497
 20
2606.00497276
 10
15273.78835882
 20
2606.00497276
  0
HATCH
  5
225
100
AcDbEntity
  8
Ech.1_5
 62
     7
100
AcDbHatch
 10
0.0
 20
0.0
 30
0.0
210
0.0
220
0.0
230
1.0
  2
ANSI37
 70
     0
 71
     0
 91
        1
 92
        7
 72
     0
 73
     1
 93
        4
 10
15124.65332434
 20
2512.6987076
 10
15150.47785542
 20
2512.6987076
 10
15150.47785542
 20
2522.13136766
 10
15124.65332434
 20
2522.13136766
 97
        0
 75
     0
 76
     2
 52
0.0
 41
1.87498831
 77
     0
 78
     2
 53
45.0
 43
0.0
 44
0.0
 45
4.20946876
 46
-4.20946876
 79
     0
 53
-45.0
 43
0.0
 44
0.0
 45
4.20946876
 46
4.20946876
 79
     0
 47
0.775229
 98
        1
 10
0.0
 20
0.0
  0
LWPOLYLINE
  5
226
102
{ACAD_REACTORS
330
227
102
}
100
AcDbEntity
  8
Ech.1_5
 62
     7
  6
CONTINUOUS
370
    -3
100
AcDbPolyline
 90
        5
 70
     1
 43
0.0
 38
2500.0
 39
-2500.0
 10
14860.71659789
 20
2591.00497276
 10
14660.71610648
 20
2591.00497276
 10
14660.71610648
 20
2176.49984546
 10
14860.71674313
 20
2176.49984546
 10
14860.71674313
 20
2211.49987107
  0
HATCH
  5
227
100
AcDbEntity
  8
Ech.1_5
 62
     7
  6
CONTINUOUS
100
AcDbHatch
 10
0.0
 20
0.0
 30
0.0
210
0.0
220
0.0
230
1.0
  2
AR-CONC
 70
     0
 71
     1
 91
        1
 92
        7
 72
     0
 73
     1
 93
        5
 10
14860.71659789
 20
2591.00497276
 10
14660.71610648
 20
2591.00497276
 10
14660.71610648
 20
2176.49984546
 10
14860.71674313
 20
2176.49984546
 10
14860.71674313
 20
2211.49987107
 97
        1
330
226
 75
     0
 76
     2
 52
0.0
 41
0.11811097
 77
     0
 78
    13
 53
50.0
 43
0.0
 44
0.0
 45
-18.84283637
 46
1.64853443
 79
     2
 49
1.97029307
 49
-21.67322338
 53
355.0
 43
0.0
 44
0.0
 45
-3.64507756
 46
19.76051824
 79
     2
 49
1.57623377
 49
-17.3385787
 53
100.45140076
 43
1.57023568
 44
-0.13737749
 45
-15.19777228
 46
-18.11197244
 79
     2
 49
1.67449124
 49
-18.41940522
 53
46.18420029
 43
0.0
 44
5.25411576
 45
-28.03703353
 46
4.34827878
 79
     2
 49
2.95543872
 49
-32.50983238
 53
96.63559723
 43
2.33641885
 44
4.89175692
 45
-24.55412615
 46
-25.59063404
 79
     2
 49
2.51173697
 49
-27.62910426
 53
351.1842041
 43
0.0
 44
5.25411576
 45
24.55410288
 46
25.59065715
 79
     2
 49
2.36435249
 49
-26.00786805
 53
21.0
 43
2.62705699
 44
3.94058615
 45
-15.68109068
 46
10.57702905
 79
     2
 49
1.97029307
 49
-21.67322338
 53
326.0
 43
2.62705699
 44
3.94058615
 45
6.39203268
 46
19.05010734
 79
     2
 49
1.57623377
 49
-17.3385787
 53
71.45140076
 43
3.93381357
 44
3.05916555
 45
-22.07312962
 46
-8.47306182
 79
     2
 49
1.67449124
 49
-18.41940522
 53
37.5
 43
0.0
 44
0.0
 45
0.31944534
 46
8.74531245
 79
     6
 49
0.01875
 49
-17.12841332
 49
0.01875
 49
-17.60128498
 49
0.01875
 49
-17.40425348
 53
7.5
 43
0.0
 44
0.0
 45
6.91098818
 46
10.3614222
 79
     6
 49
0.01875
 49
-10.03535807
 49
0.01875
 49
-16.7343539
 49
0.01875
 49
-6.6333206
 53
-32.5
 43
-5.85833833
 44
0.0
 45
14.02382061
 46
-0.59253003
 79
     6
 49
0.01875
 49
-6.56764314
 49
0.01875
 49
-20.49104869
 49
0.01875
 49
-27.19004452
 53
-42.5
 43
-8.48539531
 44
0.0
 45
15.32063571
 46
2.62981542
 79
     6
 49
0.01875
 49
-8.53793621
 49
0.01875
 49
-13.60815793
 49
0.01875
 49
-19.30887222
 47
0.775229
 98
        1
 10
0.0
 20
0.0
  0
LWPOLYLINE
  5
228
102
{ACAD_REACTORS
330
229
102
}
100
AcDbEntity
  8
Ech.1_5
 62
     7
  6
CONTINUOUS
370
    -3
100
AcDbPolyline
 90
        9
 70
     1
 43
0.0
 38
2500.0
 39
-2500.0
 10
15115.71674313
 20
2390.99767019
 10
15090.71674313
 20
2390.9976694
 10
15085.71674313
 20
2211.49984861
 10
14990.71674313
 20
2211.49985714
 10
14895.71674313
 20
2211.49984861
 10
14890.71674313
 20
2390.9976694
 10
14865.71674313
 20
2390.99767019
 10
14860.71674313
 20
2176.49984546
 10
15120.71674313
 20
2176.49984546
  0
HATCH
  5
229
100
AcDbEntity
  8
Ech.1_5
 62
     7
  6
CONTINUOUS
100
AcDbHatch
 10
0.0
 20
0.0
 30
0.0
210
0.0
220
0.0
230
1.0
  2
AR-CONC
 70
     0
 71
     1
 91
        1
 92
        7
 72
     0
 73
     1
 93
        9
 10
15115.71674313
 20
2390.99767019
 10
15090.71674313
 20
2390.9976694
 10
15085.71674313
 20
2211.49984861
 10
14990.71674313
 20
2211.49985714
 10
14895.71674313
 20
2211.49984861
 10
14890.71674313
 20
2390.9976694
 10
14865.71674313
 20
2390.99767019
 10
14860.71674313
 20
2176.49984546
 10
15120.71674313
 20
2176.49984546
 97
        1
330
228
 75
     0
 76
     2
 52
0.0
 41
0.11811097
 77
     0
 78
    13
 53
50.0
 43
0.0
 44
0.0
 45
-18.84283637
 46
1.64853443
 79
     2
 49
1.97029307
 49
-21.67322338
 53
355.0
 43
0.0
 44
0.0
 45
-3.64507756
 46
19.76051824
 79
     2
 49
1.57623377
 49
-17.3385787
 53
100.45140076
 43
1.57023568
 44
-0.13737749
 45
-15.19777228
 46
-18.11197244
 79
     2
 49
1.67449124
 49
-18.41940522
 53
46.18420029
 43
0.0
 44
5.25411576
 45
-28.03703353
 46
4.34827878
 79
     2
 49
2.95543872
 49
-32.50983238
 53
96.63559723
 43
2.33641885
 44
4.89175692
 45
-24.55412615
 46
-25.59063404
 79
     2
 49
2.51173697
 49
-27.62910426
 53
351.1842041
 43
0.0
 44
5.25411576
 45
24.55410288
 46
25.59065715
 79
     2
 49
2.36435249
 49
-26.00786805
 53
21.0
 43
2.62705699
 44
3.94058615
 45
-15.68109068
 46
10.57702905
 79
     2
 49
1.97029307
 49
-21.67322338
 53
326.0
 43
2.62705699
 44
3.94058615
 45
6.39203268
 46
19.05010734
 79
     2
 49
1.57623377
 49
-17.3385787
 53
71.45140076
 43
3.93381357
 44
3.05916555
 45
-22.07312962
 46
-8.47306182
 79
     2
 49
1.67449124
 49
-18.41940522
 53
37.5
 43
0.0
 44
0.0
 45
0.31944534
 46
8.74531245
 79
     6
 49
0.01875
 49
-17.12841332
 49
0.01875
 49
-17.60128498
 49
0.01875
 49
-17.40425348
 53
7.5
 43
0.0
 44
0.0
 45
6.91098818
 46
10.3614222
 79
     6
 49
0.01875
 49
-10.03535807
 49
0.01875
 49
-16.7343539
 49
0.01875
 49
-6.6333206
 53
-32.5
 43
-5.85833833
 44
0.0
 45
14.02382061
 46
-0.59253003
 79
     6
 49
0.01875
 49
-6.56764314
 49
0.01875
 49
-20.49104869
 49
0.01875
 49
-27.19004452
 53
-42.5
 43
-8.48539531
 44
0.0
 45
15.32063571
 46
2.62981542
 79
     6
 49
0.01875
 49
-8.53793621
 49
0.01875
 49
-13.60815793
 49
0.01875
 49
-19.30887222
 47
0.775229
 98
        1
 10
0.0
 20
0.0
  0
LWPOLYLINE
  5
22A
102
{ACAD_REACTORS
330
22B
102
}
100
AcDbEntity
  8
Ech.1_5
 62
     7
  6
CONTINUOUS
370
    -3
100
AcDbPolyline
 90
        5
 70
     1
 43
0.0
 38
2500.0
 39
-2500.0
 10
15527.02727903
 20
2456.00529026
 10
15120.71686301
 20
2456.00529026
 10
15120.71679014
 20
2326.00529026
 10
15320.71692637
 20
2326.00529026
 10
15527.02727903
 20
2326.00529026
  0
HATCH
  5
22B
100
AcDbEntity
  8
Ech.1_5
 62
     7
  6
CONTINUOUS
100
AcDbHatch
 10
0.0
 20
0.0
 30
0.0
210
0.0
220
0.0
230
1.0
  2
AR-CONC
 70
     0
 71
     1
 91
        1
 92
        7
 72
     0
 73
     1
 93
        5
 10
15527.02727903
 20
2456.00529026
 10
15120.71686301
 20
2456.00529026
 10
15120.71679014
 20
2326.00529026
 10
15320.71692637
 20
2326.00529026
 10
15527.02727903
 20
2326.00529026
 97
        1
330
22A
 75
     0
 76
     2
 52
0.0
 41
0.11811097
 77
     0
 78
    13
 53
50.0
 43
0.0
 44
0.0
 45
-18.84283637
 46
1.64853443
 79
     2
 49
1.97029307
 49
-21.67322338
 53
355.0
 43
0.0
 44
0.0
 45
-3.64507756
 46
19.76051824
 79
     2
 49
1.57623377
 49
-17.3385787
 53
100.45140076
 43
1.57023568
 44
-0.13737749
 45
-15.19777228
 46
-18.11197244
 79
     2
 49
1.67449124
 49
-18.41940522
 53
46.18420029
 43
0.0
 44
5.25411576
 45
-28.03703353
 46
4.34827878
 79
     2
 49
2.95543872
 49
-32.50983238
 53
96.63559723
 43
2.33641885
 44
4.89175692
 45
-24.55412615
 46
-25.59063404
 79
     2
 49
2.51173697
 49
-27.62910426
 53
351.1842041
 43
0.0
 44
5.25411576
 45
24.55410288
 46
25.59065715
 79
     2
 49
2.36435249
 49
-26.00786805
 53
21.0
 43
2.62705699
 44
3.94058615
 45
-15.68109068
 46
10.57702905
 79
     2
 49
1.97029307
 49
-21.67322338
 53
326.0
 43
2.62705699
 44
3.94058615
 45
6.39203268
 46
19.05010734
 79
     2
 49
1.57623377
 49
-17.3385787
 53
71.45140076
 43
3.93381357
 44
3.05916555
 45
-22.07312962
 46
-8.47306182
 79
     2
 49
1.67449124
 49
-18.41940522
 53
37.5
 43
0.0
 44
0.0
 45
0.31944534
 46
8.74531245
 79
     6
 49
0.01875
 49
-17.12841332
 49
0.01875
 49
-17.60128498
 49
0.01875
 49
-17.40425348
 53
7.5
 43
0.0
 44
0.0
 45
6.91098818
 46
10.3614222
 79
     6
 49
0.01875
 49
-10.03535807
 49
0.01875
 49
-16.7343539
 49
0.01875
 49
-6.6333206
 53
-32.5
 43
-5.85833833
 44
0.0
 45
14.02382061
 46
-0.59253003
 79
     6
 49
0.01875
 49
-6.56764314
 49
0.01875
 49
-20.49104869
 49
0.01875
 49
-27.19004452
 53
-42.5
 43
-8.48539531
 44
0.0
 45
15.32063571
 46
2.62981542
 79
     6
 49
0.01875
 49
-8.53793621
 49
0.01875
 49
-13.60815793
 49
0.01875
 49
-19.30887222
 47
0.775229
 98
        1
 10
0.0
 20
0.0
  0
LINE
  5
22C
100
AcDbEntity
  8
Ech.1_5
 62
     7
  6
CONTINUOUS
370
    -3
100
AcDbLine
 10
15150.47785542
 20
2512.6987076
 30
2500.0
 11
15347.53701843
 21
2512.6987076
 31
2500.0
  0
3DFACE
  5
22D
102
{ACAD_REACTORS
330
22E
102
}
100
AcDbEntity
  8
Ech.1_5
 62
     7
  6
CONTINUOUS
370
    -3
100
AcDbFace
 70
     0
 10
15527.02727903
 20
2556.00497276
 30
2500.0
 11
15527.02727903
 21
2606.00497276
 31
2500.0
 12
15349.98156309
 22
2606.00497276
 32
2500.0
 13
15349.98156309
 23
2556.00497276
 33
2500.0
  0
HATCH
  5
22E
100
AcDbEntity
  8
Ech.1_5
 62
     7
  6
CONTINUOUS
100
AcDbHatch
 10
0.0
 20
0.0
 30
0.0
210
0.0
220
0.0
230
1.0
  2
AR-CONC
 70
     0
 71
     1
 91
        1
 92
        7
 72
     0
 73
     1
 93
        4
 10
15527.02727903
 20
2556.00497276
 10
15527.02727903
 20
2606.00497276
 10
15349.98156309
 20
2606.00497276
 10
15349.98156309
 20
2556.00497276
 97
        1
330
22D
 75
     0
 76
     2
 52
45.0
 41
0.06299252
 77
     0
 78
    13
 53
50.0
 43
0.0
 44
0.0
 45
-10.04951288
 46
0.87921838
 79
     2
 49
1.05082299
 49
-11.55905264
 53
355.0
 43
0.0
 44
0.0
 45
-1.94404139
 46
10.53894322
 79
     2
 49
0.84065802
 49
-9.24724211
 53
100.45140076
 43
0.83745904
 44
-0.073268
 45
-8.10547867
 46
-9.65971878
 79
     2
 49
0.89306201
 49
-9.82368293
 53
46.18420029
 43
0.0
 44
2.80219511
 45
-14.95308477
 46
2.31908205
 79
     2
 49
1.57623401
 49
-17.33857753
 53
96.63559723
 43
1.24609007
 44
2.60893706
 45
-13.09553414
 46
-13.64833836
 79
     2
 49
1.33959307
 49
-14.73552249
 53
351.1842041
 43
0.0
 44
2.80219511
 45
13.09552173
 46
13.64835069
 79
     2
 49
1.26098802
 49
-13.87086317
 53
21.0
 43
1.40109708
 44
2.10164598
 45
-8.36324849
 46
5.64108224
 79
     2
 49
1.05082299
 49
-11.55905264
 53
326.0
 43
1.40109708
 44
2.10164598
 45
3.40908414
 46
10.1600574
 79
     2
 49
0.84065802
 49
-9.24724211
 53
71.45140076
 43
2.09803394
 44
1.63155499
 45
-11.77233597
 46
-4.51896637
 79
     2
 49
0.89306201
 49
-9.82368293
 53
37.5
 43
0.0
 44
0.0
 45
0.17037085
 46
4.66416671
 79
     6
 49
0.01
 49
-9.13515391
 49
0.01
 49
-9.38735213
 49
0.01
 49
-9.28226866
 53
7.5
 43
0.0
 44
0.0
 45
3.68586042
 46
5.52609192
 79
     6
 49
0.01
 49
-5.35219105
 49
0.01
 49
-8.92498888
 49
0.01
 49
-3.53777104
 53
-32.5
 43
-3.12444715
 44
0.0
 45
7.4793711
 46
-0.31601602
 79
     6
 49
0.01
 49
-3.50274306
 49
0.01
 49
-10.92855947
 49
0.01
 49
-14.50135729
 53
-42.5
 43
-4.52554423
 44
0.0
 45
8.17100583
 46
1.40256824
 79
     6
 49
0.01
 49
-4.55356605
 49
0.01
 49
-7.25768434
 49
0.01
 49
-10.29806534
 47
0.775229
 98
        1
 10
0.0
 20
0.0
  0
LWPOLYLINE
  5
22F
102
{ACAD_REACTORS
330
230
102
}
100
AcDbEntity
  8
Ech.1_5
 62
     7
  6
CONTINUOUS
370
    -3
100
AcDbPolyline
 90
        4
 70
     1
 43
0.0
 10
15356.58677724
 20
2616.00465537
 10
15356.58677724
 20
2606.00497276
 10
15527.02727903
 20
2606.00503348
 10
15527.02727903
 20
2616.00465537
  0
HATCH
  5
230
100
AcDbEntity
  8
Ech.1_5
 62
     7
  6
CONTINUOUS
100
AcDbHatch
 10
0.0
 20
0.0
 30
0.0
210
0.0
220
0.0
230
1.0
  2
ANSI31
 70
     0
 71
     1
 91
        1
 92
        7
 72
     0
 73
     1
 93
        4
 10
15356.58677724
 20
2616.00465537
 10
15356.58677724
 20
2606.00497276
 10
15527.02727903
 20
2606.00503348
 10
15527.02727903
 20
2616.00465537
 97
        1
330
22F
 75
     0
 76
     2
 52
90.0
 41
3.14962605
 77
     0
 78
     1
 53
-45.0
 43
0.0
 44
0.0
 45
7.07106781
 46
7.07106781
 79
     0
 47
0.775229
 98
        1
 10
0.0
 20
0.0
  0
LWPOLYLINE
  5
231
100
AcDbEntity
  8
Ech.1_5
 62
     7
  6
CONTINUOUS
370
    25
100
AcDbPolyline
 90
        5
 70
     0
 43
0.0
 38
2500.0
 10
15368.92883778
 20
2456.48694507
 10
15351.22057879
 20
2456.48694507
 10
15351.22057879
 20
2623.65055299
 10
15348.61577525
 20
2626.60193015
 10
15348.61577525
 20
2647.73951117
  0
LINE
  5
232
100
AcDbEntity
  8
Ech.1_5
 62
     7
  6
CONTINUOUS
370
    70
100
AcDbLine
 10
15347.5173656
 20
2623.25099382
 30
2500.0
 11
15347.5173656
 21
2456.28579393
 31
2500.0
  0
LWPOLYLINE
  5
233
100
AcDbEntity
  8
Ech.1_5
 62
     7
  6
CONTINUOUS
370
    35
100
AcDbPolyline
 90
        3
 70
     0
 43
0.0
 38
2500.0
 10
15368.16520609
 20
2557.68384475
 10
15353.62445381
 20
2557.68384475
 10
15353.62445381
 20
2575.4424207
  0
LWPOLYLINE
  5
234
100
AcDbEntity
  8
Ech.1_5
 62
     7
  6
CONTINUOUS
370
    -3
100
AcDbPolyline
 90
       20
 70
     0
 43
0.0
 38
2500.0
 10
15347.53701843
 20
2472.67190401
 42
1.14028181
 10
15380.30234223
 20
2476.98555078
 10
15364.77153587
 20
2535.02471224
 42
-1.30322619
 10
15396.96895598
 20
2535.02471224
 10
15381.43814962
 20
2476.98555078
 42
1.30322619
 10
15413.63556973
 20
2476.98555078
 10
15398.10476337
 20
2535.02471224
 42
-1.30322619
 10
15430.30218348
 20
2535.02471224
 10
15414.77137712
 20
2476.98555078
 42
1.30322619
 10
15446.96879723
 20
2476.98555078
 10
15431.43799087
 20
2535.02471224
 42
-1.30322619
 10
15463.63541098
 20
2535.02471224
 10
15448.10460462
 20
2476.98555078
 42
1.30322619
 10
15480.30202472
 20
2476.98555078
 10
15464.77121836
 20
2535.02471224
 42
-1.30322619
 10
15496.96863847
 20
2535.02471224
 10
15481.43783211
 20
2476.98555078
 42
1.30322619
 10
15513.63525222
 20
2476.98555078
 10
15498.10444586
 20
2535.02471224
 42
-0.80477196
 10
15527.02727903
 20
2549.98344616
  0
LWPOLYLINE
  5
235
102
{ACAD_REACTORS
330
236
102
}
100
AcDbEntity
  8
Ech.1_5
 62
     7
  6
CONTINUOUS
370
    -3
100
AcDbPolyline
 90
        4
 70
     1
 43
0.0
 10
14660.71610648
 20
2616.01259283
 10
14542.02727903
 20
2616.01259283
 10
14542.02727903
 20
2176.49984546
 10
14660.71625173
 20
2176.49984546
  0
HATCH
  5
236
100
AcDbEntity
  8
Ech.1_5
 62
     7
  6
CONTINUOUS
100
AcDbHatch
 10
0.0
 20
0.0
 30
0.0
210
0.0
220
0.0
230
1.0
  2
ANSI31
 70
     0
 71
     1
 91
        1
 92
        7
 72
     0
 73
     1
 93
        4
 10
14660.71610648
 20
2616.01259283
 10
14542.02727903
 20
2616.01259283
 10
14542.02727903
 20
2176.49984546
 10
14660.71625173
 20
2176.49984546
 97
        1
330
235
 75
     0
 76
     2
 52
0.0
 41
6.2992521
 77
     0
 78
     1
 53
45.0
 43
0.0
 44
0.0
 45
14.14213562
 46
-14.14213562
 79
     0
 47
0.775229
 98
        1
 10
0.0
 20
0.0
  0
LWPOLYLINE
  5
237
100
AcDbEntity
  8
Ech.1_5
 62
     7
  6
CONTINUOUS
370
    -3
100
AcDbPolyline
 90
       20
 70
     0
 43
0.0
 38
2500.0
 10
13942.21433273
 20
2494.28695861
 42
1.14028181
 10
13974.97976052
 20
2498.60061907
 10
13959.44890487
 20
2556.63996474
 42
-1.30322619
 10
13991.64642717
 20
2556.63996474
 10
13976.11557152
 20
2498.60061907
 42
1.30322619
 10
14008.31309382
 20
2498.60061907
 10
13992.78223816
 20
2556.63996474
 42
-1.30322619
 10
14024.97976047
 20
2556.63996474
 10
14009.44890481
 20
2498.60061907
 42
1.30322619
 10
14041.64642711
 20
2498.60061907
 10
14026.11557146
 20
2556.63996474
 42
-1.30322619
 10
14058.31309376
 20
2556.63996474
 10
14042.78223811
 20
2498.60061907
 42
1.30322619
 10
14074.97976041
 20
2498.60061907
 10
14059.44890475
 20
2556.63996474
 42
-1.30322619
 10
14091.64642706
 20
2556.63996474
 10
14076.1155714
 20
2498.60061907
 42
1.30322619
 10
14108.3130937
 20
2498.60061907
 10
14092.78223805
 20
2556.63996474
 42
-1.11052377
 10
14125.52468538
 20
2561.82854661
  0
LWPOLYLINE
  5
238
102
{ACAD_REACTORS
330
239
102
}
100
AcDbEntity
  8
Ech.1_5
 62
     7
  6
CONTINUOUS
370
    -3
100
AcDbPolyline
 90
        9
 70
     1
 43
0.0
 38
2500.0
 39
-2500.0
 10
15223.58928051
 20
2194.2834501
 10
15208.6209908
 20
2153.39375218
 10
15223.34202528
 20
2172.56210289
 10
15226.95299538
 20
2176.49984546
 10
15320.71692637
 20
2176.49984546
 10
15320.71686301
 20
2326.00529026
 10
15120.71686301
 20
2326.00529026
 10
15120.71692637
 20
2176.49984546
 10
15208.09107816
 20
2176.49984546
  0
HATCH
  5
239
100
AcDbEntity
  8
Ech.1_5
 62
     7
  6
CONTINUOUS
100
AcDbHatch
 10
0.0
 20
0.0
 30
0.0
210
0.0
220
0.0
230
1.0
  2
AR-CONC
 70
     0
 71
     1
 91
        1
 92
        7
 72
     0
 73
     1
 93
        9
 10
15223.58928051
 20
2194.2834501
 10
15208.6209908
 20
2153.39375218
 10
15223.34202528
 20
2172.56210289
 10
15226.95299538
 20
2176.49984546
 10
15320.71692637
 20
2176.49984546
 10
15320.71686301
 20
2326.00529026
 10
15120.71686301
 20
2326.00529026
 10
15120.71692637
 20
2176.49984546
 10
15208.09107816
 20
2176.49984546
 97
        1
330
238
 75
     0
 76
     2
 52
45.0
 41
0.11811097
 77
     0
 78
    13
 53
50.0
 43
0.0
 44
0.0
 45
-18.84283637
 46
1.64853443
 79
     2
 49
1.97029307
 49
-21.67322338
 53
355.0
 43
0.0
 44
0.0
 45
-3.64507756
 46
19.76051824
 79
     2
 49
1.57623377
 49
-17.3385787
 53
100.45140076
 43
1.57023568
 44
-0.13737749
 45
-15.19777228
 46
-18.11197244
 79
     2
 49
1.67449124
 49
-18.41940522
 53
46.18420029
 43
0.0
 44
5.25411576
 45
-28.03703353
 46
4.34827878
 79
     2
 49
2.95543872
 49
-32.50983238
 53
96.63559723
 43
2.33641885
 44
4.89175692
 45
-24.55412615
 46
-25.59063404
 79
     2
 49
2.51173697
 49
-27.62910426
 53
351.1842041
 43
0.0
 44
5.25411576
 45
24.55410288
 46
25.59065715
 79
     2
 49
2.36435249
 49
-26.00786805
 53
21.0
 43
2.62705699
 44
3.94058615
 45
-15.68109068
 46
10.57702905
 79
     2
 49
1.97029307
 49
-21.67322338
 53
326.0
 43
2.62705699
 44
3.94058615
 45
6.39203268
 46
19.05010734
 79
     2
 49
1.57623377
 49
-17.3385787
 53
71.45140076
 43
3.93381357
 44
3.05916555
 45
-22.07312962
 46
-8.47306182
 79
     2
 49
1.67449124
 49
-18.41940522
 53
37.5
 43
0.0
 44
0.0
 45
0.31944534
 46
8.74531245
 79
     6
 49
0.01875
 49
-17.12841332
 49
0.01875
 49
-17.60128498
 49
0.01875
 49
-17.40425348
 53
7.5
 43
0.0
 44
0.0
 45
6.91098818
 46
10.3614222
 79
     6
 49
0.01875
 49
-10.03535807
 49
0.01875
 49
-16.7343539
 49
0.01875
 49
-6.6333206
 53
-32.5
 43
-5.85833833
 44
0.0
 45
14.02382061
 46
-0.59253003
 79
     6
 49
0.01875
 49
-6.56764314
 49
0.01875
 49
-20.49104869
 49
0.01875
 49
-27.19004452
 53
-42.5
 43
-8.48539531
 44
0.0
 45
15.32063571
 46
2.62981542
 79
     6
 49
0.01875
 49
-8.53793621
 49
0.01875
 49
-13.60815793
 49
0.01875
 49
-19.30887222
 47
0.775229
 98
        1
 10
0.0
 20
0.0
  0
LWPOLYLINE
  5
23A
100
AcDbEntity
  8
Ech.1_5
 62
     7
  6
BYBLOCK
100
AcDbPolyline
 90
        5
 70
     0
 43
0.0
 10
15211.23990921
 20
2446.56550583
 10
15237.0644403
 20
2446.56550583
 10
15237.0644403
 20
2455.99816589
 10
15211.23990921
 20
2455.99816589
 10
15211.23990921
 20
2446.56550583
  0
LWPOLYLINE
  5
23B
100
AcDbEntity
  8
Ech.1_5
 62
   204
  6
DASHDOT
370
    70
100
AcDbPolyline
 90
       11
 70
     0
 43
0.0
 38
2500.0
 10
15114.11417707
 20
2453.57383421
 10
15116.72823276
 20
2453.57383421
 10
15139.96644824
 20
2453.57383421
 10
15144.84610166
 20
2453.57383421
 10
15172.26416486
 20
2453.57383421
 10
15177.54460423
 20
2453.57025269
 10
15204.11955403
 20
2453.56838121
 10
15210.16994953
 20
2453.57383421
 10
15238.50834882
 20
2453.57383421
 10
15244.20749777
 20
2453.56656129
 10
15370.98967172
 20
2453.5668771
  0
HATCH
  5
23C
100
AcDbEntity
  8
Ech.1_5
 62
     7
100
AcDbHatch
 10
0.0
 20
0.0
 30
0.0
210
0.0
220
0.0
230
1.0
  2
ANSI37
 70
     0
 71
     0
 91
        1
 92
        7
 72
     0
 73
     1
 93
        4
 10
15145.47657851
 20
2446.56550583
 10
15171.30110959
 20
2446.56550583
 10
15171.30110959
 20
2455.99816589
 10
15145.47657851
 20
2455.99816589
 97
        0
 75
     0
 76
     2
 52
0.0
 41
1.87498831
 77
     0
 78
     2
 53
45.0
 43
0.0
 44
0.0
 45
4.20946876
 46
-4.20946876
 79
     0
 53
-45.0
 43
0.0
 44
0.0
 45
4.20946876
 46
4.20946876
 79
     0
 47
0.775229
 98
        1
 10
0.0
 20
0.0
  0
HATCH
  5
23D
100
AcDbEntity
  8
Ech.1_5
 62
     7
100
AcDbHatch
 10
0.0
 20
0.0
 30
0.0
210
0.0
220
0.0
230
1.0
  2
ANSI37
 70
     0
 71
     0
 91
        1
 92
        7
 72
     0
 73
     1
 93
        4
 10
15211.23990921
 20
2446.56550583
 10
15237.0644403
 20
2446.56550583
 10
15237.0644403
 20
2455.99816589
 10
15211.23990921
 20
2455.99816589
 97
        0
 75
     0
 76
     2
 52
0.0
 41
1.87498831
 77
     0
 78
     2
 53
45.0
 43
0.0
 44
0.0
 45
4.20946876
 46
-4.20946876
 79
     0
 53
-45.0
 43
0.0
 44
0.0
 45
4.20946876
 46
4.20946876
 79
     0
 47
0.775229
 98
        1
 10
0.0
 20
0.0
  0
LWPOLYLINE
  5
23E
100
AcDbEntity
  8
Ech.1_5
 62
     7
  6
CONTINUOUS
370
    -3
100
AcDbPolyline
 90
        4
 70
     0
 43
0.0
 10
15347.54215497
 20
2522.13225123
 10
15288.85556111
 20
2512.6987076
 10
15288.85556111
 20
2522.13136766
 10
15347.54215497
 20
2512.69959117
  0
LWPOLYLINE
  5
23F
100
AcDbEntity
  8
Ech.1_5
 62
     7
  6
CONTINUOUS
370
    -3
100
AcDbPolyline
 90
        4
 70
     0
 43
0.0
 10
15278.40816352
 20
2522.13225123
 10
15219.72156967
 20
2512.6987076
 10
15219.72156967
 20
2522.13136766
 10
15278.40816352
 20
2512.69959117
  0
LWPOLYLINE
  5
240
102
{ACAD_REACTORS
330
241
102
}
100
AcDbEntity
  8
Ech.1_5
 62
     7
  6
CONTINUOUS
370
    -3
100
AcDbPolyline
 90
        4
 70
     1
 43
0.0
 10
13436.08779948
 20
2177.1802741
 10
13719.21415641
 20
2177.1802741
 10
13719.21414949
 20
2198.11484716
 10
13436.08779948
 20
2198.11484716
  0
HATCH
  5
241
100
AcDbEntity
  8
Ech.1_5
 62
     7
  6
CONTINUOUS
100
AcDbHatch
 10
0.0
 20
0.0
 30
0.0
210
0.0
220
0.0
230
1.0
  2
ANSI31
 70
     0
 71
     1
 91
        1
 92
        7
 72
     0
 73
     1
 93
        4
 10
13436.08779948
 20
2177.1802741
 10
13719.21415641
 20
2177.1802741
 10
13719.21414949
 20
2198.11484716
 10
13436.08779948
 20
2198.11484716
 97
        1
330
240
 75
     0
 76
     2
 52
0.0
 41
6.2992521
 77
     0
 78
     1
 53
45.0
 43
0.0
 44
0.0
 45
14.14213562
 46
-14.14213562
 79
     0
 47
0.775229
 98
        1
 10
0.0
 20
0.0
  0
MTEXT
  5
242
100
AcDbEntity
  8
Ech.1_5
 62
     4
100
AcDbMText
 10
13150.52468538
 20
3155.00762444
 30
0.0
 11
1.0
 21
0.0
 31
0.0
 40
20.0
 41
965.0
 71
     1
 72
     1
  1
\fArial|b0|i0|c0|p18;\H20;\W1;\C7;Rampe d'accès au niveau des points d'entrée
  0
MTEXT
  5
243
100
AcDbEntity
  8
Ech.1_5
 62
     4
100
AcDbMText
 10
14552.02727903
 20
3155.00762444
 30
0.0
 11
1.0
 21
0.0
 31
0.0
 40
20.0
 41
965.0
 71
     1
 72
     1
  1
\fArial|b0|i0|c0|p18;\H20;\W1;\C7;Rampe d'accès au niveau des points d'entrée
  0
LWPOLYLINE
  5
244
100
AcDbEntity
  8
Ech.1_5
 62
     7
  6
CONTINUOUS
370
    -3
100
AcDbPolyline
 90
        9
 70
     0
 43
0.0
 10
13709.21433273
 20
2567.61267189
 10
13889.21433273
 20
2567.61267189
 10
13889.21433273
 20
2996.37259436
 10
13784.75706632
 20
2996.3722234
 10
13768.27071224
 20
2978.39387179
 10
13782.38065226
 20
3014.3495718
 10
13765.8951491
 20
2996.3722234
 10
13709.21433273
 20
2996.3722234
 10
13709.21433273
 20
2567.61267189
  0
LWPOLYLINE
  5
245
100
AcDbEntity
  8
Ech.1_5
 62
     7
  6
CONTINUOUS
370
    -3
100
AcDbPolyline
 90
       13
 70
     0
 43
0.0
 10
15120.71686301
 20
2512.6987076
 10
15120.71686301
 20
2456.00529026
 10
15155.47651515
 20
2456.00529026
 10
15155.47655311
 20
2456.00567081
 10
15181.3010842
 20
2456.00567081
 10
15181.30104623
 20
2456.00529026
 10
15230.5384309
 20
2456.00529026
 10
15230.53846886
 20
2456.00634021
 10
15221.36299995
 20
2456.00634021
 10
15221.36296199
 20
2456.00529026
 10
15347.54215497
 20
2456.00529026
 10
15347.54215497
 20
2512.6987076
 10
15120.71686301
 20
2512.6987076
  0
LWPOLYLINE
  5
246
100
AcDbEntity
  8
Ech.1_5
 62
     7
  6
CONTINUOUS
370
    -3
100
AcDbPolyline
 90
        5
 70
     0
 43
0.0
 38
2500.0
 10
15239.2145087
 20
2575.51136115
 10
15238.71100367
 20
2579.61208055
 10
15031.64746822
 20
2554.18787527
 10
15031.64746822
 20
2550.02533323
 10
15239.2145087
 20
2575.51136115
  0
LWPOLYLINE
  5
247
100
AcDbEntity
  8
Ech.1_5
 62
     7
  6
CONTINUOUS
370
    -3
100
AcDbPolyline
 90
        5
 70
     0
 43
0.0
 10
13889.21433273
 20
2507.61267189
 10
13929.21433273
 20
2507.61267189
 10
13929.21433273
 20
2552.61267189
 10
13889.21433273
 20
2552.61267189
 10
13889.21433273
 20
2507.61267189
  0
LWPOLYLINE
  5
248
100
AcDbEntity
  8
Ech.1_5
 62
     7
  6
CONTINUOUS
370
    -3
100
AcDbPolyline
 90
       13
 70
     0
 43
0.0
 10
13709.21433273
 20
2522.61267189
 10
13709.21433273
 20
2477.61267189
 10
13743.97398486
 20
2477.61267189
 10
13743.97402283
 20
2477.61305244
 10
13769.79855391
 20
2477.61305244
 10
13769.79851595
 20
2477.61267189
 10
13819.03590062
 20
2477.61267189
 10
13819.03593858
 20
2477.61372185
 10
13809.86046966
 20
2477.61372185
 10
13809.8604317
 20
2477.61267189
 10
13889.21433273
 20
2477.61267189
 10
13889.21433273
 20
2522.61267189
 10
13709.21433273
 20
2522.61267189
  0
LWPOLYLINE
  5
249
100
AcDbEntity
  8
Ech.1_5
 62
     7
  6
CONTINUOUS
370
    -3
100
AcDbPolyline
 90
        5
 70
     0
 43
0.0
 10
13709.21433273
 20
2567.61267189
 10
13889.21433273
 20
2567.61267189
 10
13889.21433273
 20
2522.61267189
 10
13709.21433273
 20
2522.61267189
 10
13709.21433273
 20
2567.61267189
  0
LWPOLYLINE
  5
24A
100
AcDbEntity
  8
Ech.1_5
 62
     7
  6
CONTINUOUS
370
    -3
100
AcDbPolyline
 90
       21
 70
     0
 43
0.0
 10
13655.21433273
 20
2447.61267189
 10
13655.21433273
 20
2538.67913841
 10
13656.67879882
 20
2542.21467231
 10
13662.83373039
 20
2548.90785687
 10
13663.21433273
 20
2550.82127403
 10
13663.21433273
 20
2581.75020622
 10
13665.71433273
 20
2586.75020622
 10
13668.21433273
 20
2581.75020622
 10
13668.21433273
 20
2576.75020622
 10
13675.21433273
 20
2576.75020622
 10
13675.21433273
 20
2540.75020622
 10
13671.21433273
 20
2536.75020622
 10
13675.21433273
 20
2532.75020622
 10
13675.21433273
 20
2477.94890267
 10
13671.21433273
 20
2473.94890267
 10
13675.21433273
 20
2469.94890267
 10
13675.21433273
 20
2467.73318842
 10
13658.64299595
 20
2447.61267189
 10
13658.64299595
 20
2447.61267189
 10
13655.21433273
 20
2447.61267189
 10
13655.21433273
 20
2447.61267189
  0
LWPOLYLINE
  5
24B
100
AcDbEntity
  8
Ech.1_5
 62
     7
  6
CONTINUOUS
370
    -3
100
AcDbPolyline
 90
        5
 70
     0
 43
0.0
 10
13700.21433273
 20
2996.3722234
 10
13675.21433273
 20
2996.3722234
 10
13675.21434363
 20
2490.61267189
 10
13700.21434363
 20
2490.61267189
 10
13700.21433273
 20
2996.3722234
  0
LWPOLYLINE
  5
24C
100
AcDbEntity
  8
Ech.1_5
 62
     7
  6
CONTINUOUS
370
     5
100
AcDbPolyline
 90
        4
 70
     0
 43
0.0
 10
13941.05048539
 20
2481.75537142
 42
1.0
 10
13928.72160297
 20
2481.75537142
 10
13928.72160297
 20
2481.75537142
 42
1.0
 10
13941.05048539
 20
2481.75537142
  0
LWPOLYLINE
  5
24D
100
AcDbEntity
  8
Ech.1_5
 62
     7
  6
CONTINUOUS
370
     5
100
AcDbPolyline
 90
        5
 70
     0
 43
0.0
 10
13743.97398486
 20
2468.18050753
 10
13769.79851595
 20
2468.18050753
 10
13769.79851595
 20
2477.61316759
 10
13743.97398486
 20
2477.61316759
 10
13743.97398486
 20
2468.18050753
  0
LWPOLYLINE
  5
24E
100
AcDbEntity
  8
Ech.1_5
 62
     7
  6
CONTINUOUS
370
     5
100
AcDbPolyline
 90
        5
 70
     0
 43
0.0
 10
13809.73731557
 20
2468.18050753
 10
13835.56184665
 20
2468.18050753
 10
13835.56184665
 20
2477.61316759
 10
13809.73731557
 20
2477.61316759
 10
13809.73731557
 20
2468.18050753
  0
LWPOLYLINE
  5
24F
100
AcDbEntity
  8
Ech.1_5
 62
     7
  6
CONTINUOUS
370
    -3
100
AcDbPolyline
 90
        5
 70
     0
 43
0.0
 10
13889.21433273
 20
2598.35228278
 10
13929.21433273
 20
2598.35228278
 10
13929.21433273
 20
2643.35228278
 10
13889.21433273
 20
2643.35228278
 10
13889.21433273
 20
2598.35228278
  0
LWPOLYLINE
  5
250
100
AcDbEntity
  8
Ech.1_5
 62
     7
  6
CONTINUOUS
370
    -3
100
AcDbPolyline
 90
       23
 70
     0
 43
0.0
 10
13675.21433273
 20
2613.75020267
 10
13675.21433273
 20
2674.48043841
 10
13673.14326491
 20
2674.48043841
 10
13675.21433273
 20
2676.55150622
 10
13675.21433273
 20
2711.55150622
 10
13668.21433273
 20
2711.55150622
 10
13668.21433273
 20
2717.55150622
 10
13665.71433273
 20
2722.55150622
 10
13663.21433273
 20
2717.55150622
 10
13662.83373039
 20
2684.70915687
 10
13656.67879882
 20
2678.01597231
 10
13655.21433273
 20
2674.48043841
 10
13655.21433273
 20
2564.59239045
 10
13656.17465512
 20
2562.96252181
 10
13661.32277735
 20
2559.75020267
 10
13662.21433273
 20
2560.36673858
 10
13662.21433273
 20
2587.75020267
 10
13669.21433273
 20
2587.75020267
 10
13669.21433273
 20
2578.75020267
 10
13675.21433273
 20
2578.75020267
 10
13675.21433273
 20
2605.75020267
 10
13671.21433273
 20
2609.75020267
 10
13675.21433273
 20
2613.75020267
  0
LWPOLYLINE
  5
251
100
AcDbEntity
  8
Ech.1_5
 62
     7
  6
CONTINUOUS
370
    -3
100
AcDbPolyline
 90
       23
 70
     0
 43
0.0
 10
13671.21433273
 20
2745.55150267
 10
13675.21433273
 20
2749.55150267
 10
13675.21433273
 20
2810.28173841
 10
13673.14326491
 20
2810.28173841
 10
13675.21433273
 20
2812.35280622
 10
13675.21433273
 20
2847.35280622
 10
13668.21433273
 20
2847.35280622
 10
13668.21433273
 20
2853.35280622
 10
13665.71433273
 20
2858.35280622
 10
13663.21433273
 20
2853.35280622
 10
13662.83373039
 20
2820.51045687
 10
13656.67879882
 20
2813.81727231
 10
13655.21433273
 20
2810.28173841
 10
13655.21433273
 20
2700.39369045
 10
13656.17465512
 20
2698.76382181
 10
13661.32277735
 20
2695.55150267
 10
13662.21433273
 20
2696.16803858
 10
13662.21433273
 20
2723.55150267
 10
13669.21433273
 20
2723.55150267
 10
13669.21433273
 20
2714.55150267
 10
13675.21433273
 20
2714.55150267
 10
13675.21433273
 20
2741.55150267
 10
13671.21433273
 20
2745.55150267
  0
LWPOLYLINE
  5
252
100
AcDbEntity
  8
Ech.1_5
 62
     7
  6
CONTINUOUS
370
    -3
100
AcDbPolyline
 90
       23
 70
     0
 43
0.0
 10
13675.21433273
 20
2946.08303841
 10
13673.14326491
 20
2946.08303841
 10
13675.21433273
 20
2948.15410622
 10
13675.21433273
 20
2983.15410622
 10
13668.21433273
 20
2983.15410622
 10
13668.21433273
 20
2989.15410622
 10
13665.71433273
 20
2994.15410622
 10
13663.21433273
 20
2989.15410622
 10
13662.83373039
 20
2956.31175687
 10
13656.67879882
 20
2949.61857231
 10
13655.21433273
 20
2946.08303841
 10
13655.21433273
 20
2836.19499045
 10
13656.17465512
 20
2834.56512181
 10
13661.32277735
 20
2831.35280267
 10
13662.21433273
 20
2831.96933858
 10
13662.21433273
 20
2859.35280267
 10
13669.21433273
 20
2859.35280267
 10
13669.21433273
 20
2850.35280267
 10
13675.21433273
 20
2850.35280267
 10
13675.21433273
 20
2877.35280267
 10
13671.21433273
 20
2881.35280267
 10
13675.21433273
 20
2885.35280267
 10
13675.21433273
 20
2946.08303841
  0
LWPOLYLINE
  5
253
100
AcDbEntity
  8
Ech.1_5
 62
     7
  6
CONTINUOUS
370
    -3
100
AcDbPolyline
 90
       11
 70
     0
 43
0.0
 10
13656.17465512
 20
2970.36642181
 10
13661.32277735
 20
2967.15410267
 10
13662.21433273
 20
2967.77063858
 10
13662.21433273
 20
2995.15410267
 10
13669.21433273
 20
2995.15410267
 10
13669.21433273
 20
2986.15410267
 10
13675.21433273
 20
2986.15410267
 10
13675.21433273
 20
2996.3722234
 10
13655.21433273
 20
2996.3722234
 10
13655.21433273
 20
2971.99629045
 10
13656.17465512
 20
2970.36642181
  0
LWPOLYLINE
  5
254
100
AcDbEntity
  8
Ech.1_5
 62
     7
  6
CONTINUOUS
370
    -3
100
AcDbPolyline
 90
        8
 70
     0
 43
0.0
 38
2500.0
 10
15149.03778439
 20
2570.54097299
 10
15003.91143603
 20
2552.74091726
 10
15004.09424004
 20
2551.25209803
 10
15149.03778439
 20
2569.02970825
 10
15270.54837839
 20
2583.94933318
 10
15270.54837839
 20
2584.13351002
 10
15270.54837839
 20
2585.46059792
 10
15149.03778439
 20
2570.54097299
  0
LWPOLYLINE
  5
255
100
AcDbEntity
  8
Ech.1_5
 62
     7
  6
CONTINUOUS
370
    -3
100
AcDbPolyline
 90
        6
 70
     0
 43
0.0
 38
2500.0
 10
15269.04837839
 20
2606.00497276
 10
15269.04837839
 20
2585.27642108
 10
15270.36557437
 20
2585.43815241
 10
15270.54837839
 20
2585.46059792
 10
15270.54837839
 20
2606.00497276
 10
15269.04837839
 20
2606.00497276
  0
LWPOLYLINE
  5
256
100
AcDbEntity
  8
Ech.1_5
 62
     7
  6
CONTINUOUS
370
    -3
100
AcDbPolyline
 90
        5
 70
     0
 43
0.0
 38
2500.0
 10
15003.91143603
 20
2552.74091726
 10
15002.41143603
 20
2552.74091726
 10
15002.41143603
 20
2492.74091726
 10
15003.91143603
 20
2492.74091726
 10
15003.91143603
 20
2552.74091726
  0
LWPOLYLINE
  5
257
100
AcDbEntity
  8
Ech.1_5
 62
     7
  6
CONTINUOUS
370
    -3
100
AcDbPolyline
 90
        5
 70
     0
 43
0.0
 38
2500.0
 10
15006.65441999
 20
2497.18231782
 10
15005.20553125
 20
2497.57054639
 10
15003.91143603
 20
2492.74091726
 10
15005.36032476
 20
2492.35268869
 10
15006.65441999
 20
2497.18231782
  0
LWPOLYLINE
  5
258
100
AcDbEntity
  8
Ech.1_5
 62
     7
  6
CONTINUOUS
370
    -3
100
AcDbPolyline
 90
        5
 70
     0
 43
0.0
 10
15293.95487048
 20
2606.02943164
 10
15347.54261397
 20
2606.03031522
 10
15347.54261397
 20
2616.03607963
 10
15293.95487048
 20
2616.03519606
 10
15293.95487048
 20
2606.02943164
  0
LWPOLYLINE
  5
259
100
AcDbEntity
  8
Ech.1_5
 62
     7
  6
CONTINUOUS
370
     5
100
AcDbPolyline
 90
        5
 70
     0
 43
0.0
 10
15280.57735001
 20
2606.00497276
 10
15293.95487048
 20
2606.00497276
 10
15293.95487048
 20
2616.01073717
 10
15280.57735001
 20
2616.01073717
 10
15280.57735001
 20
2606.00497276
  0
LWPOLYLINE
  5
25A
100
AcDbEntity
  8
Ech.1_5
 62
     7
  6
CONTINUOUS
370
    -3
100
AcDbPolyline
 90
        5
 70
     0
 43
0.0
 10
15150.47785542
 20
2512.6987076
 10
15209.16444928
 20
2512.69959117
 10
15209.16444928
 20
2522.13225123
 10
15150.47785542
 20
2522.13136766
 10
15150.47785542
 20
2512.6987076
  0
LWPOLYLINE
  5
25B
100
AcDbEntity
  8
Ech.1_5
 62
     7
  6
CONTINUOUS
370
    -3
100
AcDbPolyline
 90
        7
 70
     0
 43
0.0
 10
15273.78835882
 20
2579.75649616
 10
15273.78835882
 20
2606.00497276
 10
15347.54215497
 20
2606.00497276
 10
15347.54215497
 20
2522.13136766
 10
15008.07801007
 20
2522.13136766
 10
15008.07801007
 20
2547.13136766
 10
15273.78835882
 20
2579.75649616
  0
LWPOLYLINE
  5
25C
100
AcDbEntity
  8
Ech.1_5
 62
     7
  6
CONTINUOUS
370
     5
100
AcDbPolyline
 90
        5
 70
     0
 43
0.0
 10
15124.65332434
 20
2512.6987076
 10
15150.47785542
 20
2512.6987076
 10
15150.47785542
 20
2522.13136766
 10
15124.65332434
 20
2522.13136766
 10
15124.65332434
 20
2512.6987076
  0
LWPOLYLINE
  5
25D
100
AcDbEntity
  8
Ech.1_5
 62
     1
  6
CONTINUOUS
370
    -3
100
AcDbPolyline
 90
        9
 70
     0
 43
0.0
 38
2500.0
 10
15293.95487048
 20
2608.50497276
 10
15265.04261397
 20
2608.50497276
 10
15265.04261397
 20
2590.67294654
 10
15240.04261397
 20
2590.67294654
 10
15240.04261397
 20
2588.17294654
 10
15267.54261397
 20
2588.17294654
 10
15267.54261397
 20
2606.00497276
 10
15293.95487048
 20
2606.00497276
 10
15293.95487048
 20
2608.50497276
  0
LWPOLYLINE
  5
25E
100
AcDbEntity
  8
Ech.1_5
 62
     7
  6
CONTINUOUS
370
     5
100
AcDbPolyline
 90
        5
 70
     0
 43
0.0
 10
15145.47657851
 20
2446.56550583
 10
15171.30110959
 20
2446.56550583
 10
15171.30110959
 20
2455.99816589
 10
15145.47657851
 20
2455.99816589
 10
15145.47657851
 20
2446.56550583
  0
LWPOLYLINE
  5
25F
100
AcDbEntity
  8
Ech.1_5
 62
     7
  6
CONTINUOUS
370
     5
100
AcDbPolyline
 90
        5
 70
     0
 43
0.0
 10
15211.23990921
 20
2446.56550583
 10
15237.0644403
 20
2446.56550583
 10
15237.0644403
 20
2455.99816589
 10
15211.23990921
 20
2455.99816589
 10
15211.23990921
 20
2446.56550583
  0
LWPOLYLINE
  5
260
100
AcDbEntity
  8
Ech.1_5
 62
     7
  6
CONTINUOUS
370
    -3
100
AcDbPolyline
 90
        5
 70
     0
 43
0.0
 10
15288.85556111
 20
2512.6987076
 10
15347.54215497
 20
2512.69959117
 10
15347.54215497
 20
2522.13225123
 10
15288.85556111
 20
2522.13136766
 10
15288.85556111
 20
2512.6987076
  0
LWPOLYLINE
  5
261
100
AcDbEntity
  8
Ech.1_5
 62
     7
  6
CONTINUOUS
370
    -3
100
AcDbPolyline
 90
        5
 70
     0
 43
0.0
 10
15219.72156967
 20
2512.6987076
 10
15278.40816352
 20
2512.69959117
 10
15278.40816352
 20
2522.13225123
 10
15219.72156967
 20
2522.13136766
 10
15219.72156967
 20
2512.6987076
  0
TEXT
  5
262
100
AcDbEntity
  8
Ech.1_5
 62
     7
370
    18
100
AcDbText
 10
13629.38398561
 20
2452.58429196
 30
0.0
 40
13.50000024
  1
30
  7
ARIAL
 50
89.9999975
 41
1.0
 51
0.0
100
AcDbText
  0
TEXT
  5
263
100
AcDbEntity
  8
Ech.1_5
 62
     7
370
    18
100
AcDbText
 10
13629.32591944
 20
2296.03175105
 30
0.0
 40
13.50000024
  1
min 200
  7
ARIAL
 50
89.9999975
 41
1.0
 51
0.0
100
AcDbText
  0
INSERT
  5
264
100
AcDbEntity
  8
Ech.1_5
 62
     0
370
    -3
100
AcDbBlockReference
  2
*D3
 10
0.0
 20
0.0
 30
0.0
  0
INSERT
  5
265
100
AcDbEntity
  8
Ech.1_5
 62
     0
370
    -3
100
AcDbBlockReference
  2
*D4
 10
0.0
 20
0.0
 30
0.0
  0
INSERT
  5
266
100
AcDbEntity
  8
Ech.1_5
 62
     0
370
    -3
100
AcDbBlockReference
  2
*D6
 10
0.0
 20
0.0
 30
0.0
  0
INSERT
  5
267
100
AcDbEntity
  8
Ech.1_5
 62
     0
370
    -3
100
AcDbBlockReference
  2
*D7
 10
0.0
 20
0.0
 30
0.0
  0
INSERT
  5
268
100
AcDbEntity
  8
Ech.1_5
 62
     0
370
    -3
100
AcDbBlockReference
  2
*D10
 10
0.0
 20
0.0
 30
0.0
  0
ENDSEC
  0
SECTION
  2
OBJECTS
  0
DICTIONARY
  5
1
100
AcDbDictionary
  3
ACAD_GROUP
350
2
  3
ACAD_MLINESTYLE
350
3
  0
DICTIONARY
  5
2
102
{CDWK_REACTORS
330
1
102
}
100
AcDbDictionary
  3
L_COUPE_1
350
4
  3
CDWK2
350
5
  3
CDWK3
350
6
  3
L_COUPE_4
350
7
  3
L_COUPE_5
350
8
  3
CDWK6
350
9
  3
CDWK7
350
A
  3
L_COUPE_8
350
B
  3
CDWK9
350
C
  3
CDWK10
350
D
  3
L_COUPE_11
350
E
  3
CDWK12
350
F
  3
CDWK13
350
10
  3
CDWK14
350
11
  0
DICTIONARY
  5
3
102
{CDWK_REACTORS
330
1
102
}
100
AcDbDictionary
  3
STANDARD
350
12
  0
GROUP
  5
4
102
{CDWK_REACTORS
330
2
102
}
100
AcDbGroup
300
groupe cree par CADWORK
 70
     0
 71
     1
340
A4
  0
GROUP
  5
5
102
{CDWK_REACTORS
330
2
102
}
100
AcDbGroup
300
groupe cree par CADWORK
 70
     0
 71
     1
  0
GROUP
  5
6
102
{CDWK_REACTORS
330
2
102
}
100
AcDbGroup
300
groupe cree par CADWORK
 70
     0
 71
     1
  0
GROUP
  5
7
102
{CDWK_REACTORS
330
2
102
}
100
AcDbGroup
300
groupe cree par CADWORK
 70
     0
 71
     1
340
188
340
187
340
189
340
18B
340
18A
340
183
340
182
340
184
340
186
340
185
340
177
340
176
340
179
340
178
340
173
340
172
340
175
340
174
340
17F
340
17E
340
181
340
180
340
17B
340
17A
340
17D
340
17C
340
18C
340
1A7
340
1A6
340
1A8
340
1AA
340
1A9
340
1A2
340
1A1
340
1A3
340
1A5
340
1A4
340
1B1
340
1B0
340
1B2
340
1B4
340
1B3
340
1AC
340
1AB
340
1AD
340
1AF
340
1AE
340
193
340
192
340
194
340
196
340
195
340
18E
340
18D
340
18F
340
191
340
190
340
19D
340
19C
340
19E
340
1A0
340
19F
340
198
340
197
340
199
340
19B
340
19A
340
171
340
1D1
340
1D2
340
1CF
340
1D0
340
1D5
340
1D6
340
1D3
340
1D4
340
1C9
340
1CA
340
1C7
340
1C8
340
1CD
340
1CE
340
1CB
340
1CC
340
1D7
340
1E2
340
1E3
340
1E0
340
1E1
340
1E6
340
1E7
340
1E4
340
1E5
340
1DA
340
1DB
340
1D8
340
1D9
340
1DE
340
1DF
340
1DC
340
1DD
340
1C6
340
166
340
165
340
168
340
167
340
162
340
161
340
164
340
163
340
16E
340
16D
340
170
340
16F
340
16A
340
169
340
16C
340
16B
340
1B5
340
1C0
340
1C1
340
1BE
340
1BF
340
1C4
340
1C5
340
1C2
340
1C3
340
1B8
340
1B9
340
1B6
340
1B7
340
1BC
340
1BD
340
1BA
340
1BB
  0
GROUP
  5
8
102
{CDWK_REACTORS
330
2
102
}
100
AcDbGroup
300
groupe cree par CADWORK
 70
     0
 71
     1
340
DF
340
E0
340
DE
340
DC
340
DD
340
E4
340
E5
340
E3
340
E1
340
E2
340
DB
340
D4
340
D5
340
D3
340
D1
340
D2
340
D9
340
DA
340
D8
340
D6
340
D7
340
E6
340
F5
340
F6
340
F4
340
F2
340
F3
340
FA
340
FB
340
F9
340
F7
340
F8
340
F1
340
EA
340
EB
340
E9
340
E7
340
E8
340
EF
340
F0
340
EE
340
EC
340
ED
340
D0
340
B3
340
B4
340
B2
340
B0
340
B1
340
B8
340
B9
340
B7
340
B5
340
B6
340
AF
340
A8
340
A9
340
A7
340
A5
340
A6
340
AD
340
AE
340
AC
340
AA
340
AB
340
BA
340
C9
340
CA
340
C8
340
C6
340
C7
340
CE
340
CF
340
CD
340
CB
340
CC
340
C5
340
BE
340
BF
340
BD
340
BB
340
BC
340
C3
340
C4
340
C2
340
C0
340
C1
340
134
340
135
340
133
340
131
340
132
340
136
340
13A
340
13B
340
139
340
137
340
138
340
129
340
12A
340
128
340
126
340
127
340
12B
340
12F
340
130
340
12E
340
12C
340
12D
340
13C
340
14B
340
14C
340
14A
340
148
340
149
340
14D
340
151
340
152
340
150
340
14E
340
14F
340
140
340
141
340
13F
340
13D
340
13E
340
142
340
146
340
147
340
145
340
143
340
144
340
125
340
109
340
10A
340
108
340
106
340
107
340
10E
340
10F
340
10D
340
10B
340
10C
340
FF
340
100
340
FE
340
FC
340
FD
340
104
340
105
340
103
340
101
340
102
340
110
340
11E
340
11F
340
11D
340
11B
340
11C
340
123
340
124
340
122
340
120
340
121
340
114
340
115
340
111
340
113
340
112
340
119
340
11A
340
118
340
116
340
117
  0
GROUP
  5
9
102
{CDWK_REACTORS
330
2
102
}
100
AcDbGroup
300
groupe cree par CADWORK
 70
     0
 71
     1
340
210
340
211
340
212
340
262
  0
GROUP
  5
A
102
{CDWK_REACTORS
330
2
102
}
100
AcDbGroup
300
groupe cree par CADWORK
 70
     0
 71
     1
340
263
340
20F
  0
GROUP
  5
B
102
{CDWK_REACTORS
330
2
102
}
100
AcDbGroup
300
groupe cree par CADWORK
 70
     0
 71
     1
  0
GROUP
  5
C
102
{CDWK_REACTORS
330
2
102
}
100
AcDbGroup
300
groupe cree par CADWORK
 70
     0
 71
     1
  0
GROUP
  5
D
102
{CDWK_REACTORS
330
2
102
}
100
AcDbGroup
300
groupe cree par CADWORK
 70
     0
 71
     1
  0
GROUP
  5
E
102
{CDWK_REACTORS
330
2
102
}
100
AcDbGroup
300
groupe cree par CADWORK
 70
     0
 71
     1
  0
GROUP
  5
F
102
{CDWK_REACTORS
330
2
102
}
100
AcDbGroup
300
groupe cree par CADWORK
 70
     0
 71
     1
  0
GROUP
  5
10
102
{CDWK_REACTORS
330
2
102
}
100
AcDbGroup
300
groupe cree par CADWORK
 70
     0
 71
     1
  0
GROUP
  5
11
102
{CDWK_REACTORS
330
2
102
}
100
AcDbGroup
300
groupe cree par CADWORK
 70
     0
 71
     1
  0
MLINESTYLE
  5
12
102
{CDWK_REACTORS
330
3
102
}
100
AcDbMlineStyle
  2
STANDARD
 70
     0
  3

 62
     0
 51
90.0
 52
90.0
 71
     2
 49
0.5
 62
   256
  6
BYLAYER
 49
-0.5
 62
   256
  6
BYLAYER
  0
ENDSEC
  0
EOF
